ISO-10303-21;
HEADER;
/* Generated by software containing ST-Developer
 * from STEP Tools, Inc. (www.steptools.com) 
 */
/* OPTION: using custom schema-name function */

FILE_DESCRIPTION(
/* description */ (''),
/* implementation_level */ '2;1');

FILE_NAME(
/* name */ '1539173340792.stp',
/* time_stamp */ '2018-10-10T14:09:16+02:00',
/* author */ (''),
/* organization */ ('SMS'),
/* preprocessor_version */ 'ST-DEVELOPER v15',
/* originating_system */ 'SIEMENS PLM Software NX 8.5',
/* authorisation */ '');

FILE_SCHEMA (('AUTOMOTIVE_DESIGN { 1 0 10303 214 3 1 1 1 }'));
ENDSEC;

DATA;
#10=CONSTRUCTIVE_GEOMETRY_REPRESENTATION_RELATIONSHIP(
'supplemental geometry','',#26,#11);
#11=CONSTRUCTIVE_GEOMETRY_REPRESENTATION('supplemental geometry',(#273,
#274),#483);
#12=GEOMETRICALLY_BOUNDED_WIREFRAME_SHAPE_REPRESENTATION(
'201918613mod000_00-None',(#27),#483);
#13=SHAPE_REPRESENTATION_RELATIONSHIP('None',
'relationship between 201918613mod000_00-None and 201918613mod000_00-N
one',#26,#15);
#14=SHAPE_REPRESENTATION_RELATIONSHIP('None',
'relationship between 201918613mod000_00-None and 201918613mod000_00-N
one',#26,#12);
#15=ADVANCED_BREP_SHAPE_REPRESENTATION('201918613mod000_00-None',(#33),
#483);
#16=SHAPE_DEFINITION_REPRESENTATION(#17,#26);
#17=PRODUCT_DEFINITION_SHAPE('','',#18);
#18=PRODUCT_DEFINITION(' ','',#20,#19);
#19=PRODUCT_DEFINITION_CONTEXT('part definition',#25,'design');
#20=PRODUCT_DEFINITION_FORMATION_WITH_SPECIFIED_SOURCE(' ',' ',#22,
 .NOT_KNOWN.);
#21=PRODUCT_RELATED_PRODUCT_CATEGORY('part','',(#22));
#22=PRODUCT('201918613mod000_00','201918613mod000_00',' ',(#23));
#23=PRODUCT_CONTEXT(' ',#25,'mechanical');
#24=APPLICATION_PROTOCOL_DEFINITION('international standard',
'automotive_design',2010,#25);
#25=APPLICATION_CONTEXT(
'core data for automotive mechanical design processes');
#26=SHAPE_REPRESENTATION('201918613mod000_00-None',(#272),#483);
#27=GEOMETRIC_CURVE_SET('None',(#373,#374,#252));
#28=SURFACE_STYLE_USAGE(.BOTH.,#29);
#29=SURFACE_SIDE_STYLE('',(#30));
#30=SURFACE_STYLE_FILL_AREA(#31);
#31=FILL_AREA_STYLE('',(#32));
#32=FILL_AREA_STYLE_COLOUR('',#271);
#33=MANIFOLD_SOLID_BREP('CUT',#34);
#34=CLOSED_SHELL('',(#64,#65,#66,#67,#68,#69,#70,#71,#72,#73,#74,#75,#76));
#35=TOROIDAL_SURFACE('',#298,2.7,1.6);
#36=CYLINDRICAL_SURFACE('',#296,1.1);
#37=FACE_BOUND('',#99,.T.);
#38=FACE_BOUND('',#100,.T.);
#39=FACE_BOUND('',#101,.T.);
#40=FACE_BOUND('',#102,.T.);
#41=FACE_BOUND('',#103,.T.);
#42=FACE_BOUND('',#104,.T.);
#43=FACE_BOUND('',#105,.T.);
#44=FACE_BOUND('',#106,.T.);
#45=FACE_BOUND('',#107,.T.);
#46=FACE_BOUND('',#108,.T.);
#47=CONICAL_SURFACE('',#278,0.6,11.);
#48=CONICAL_SURFACE('',#282,0.600000000000001,11.);
#49=CONICAL_SURFACE('',#286,0.6,11.);
#50=CONICAL_SURFACE('',#290,0.6,11.);
#51=CONICAL_SURFACE('',#299,1.43496340597176,4.00000000000002);
#52=CIRCLE('',#276,0.6);
#53=CIRCLE('',#277,0.114049227155704);
#54=CIRCLE('',#280,0.600000000000001);
#55=CIRCLE('',#281,0.114049227155705);
#56=CIRCLE('',#284,0.6);
#57=CIRCLE('',#285,0.114049227155704);
#58=CIRCLE('',#288,0.6);
#59=CIRCLE('',#289,0.114049227155704);
#60=CIRCLE('',#291,1.1);
#61=CIRCLE('',#293,1.43496340597176);
#62=CIRCLE('',#295,1.1);
#63=CIRCLE('',#297,1.4);
#64=ADVANCED_FACE('',(#83),#77,.T.);
#65=ADVANCED_FACE('',(#84),#47,.T.);
#66=ADVANCED_FACE('',(#85),#78,.T.);
#67=ADVANCED_FACE('',(#86),#48,.T.);
#68=ADVANCED_FACE('',(#87),#79,.T.);
#69=ADVANCED_FACE('',(#88),#49,.T.);
#70=ADVANCED_FACE('',(#89),#80,.T.);
#71=ADVANCED_FACE('',(#90),#50,.T.);
#72=ADVANCED_FACE('',(#37,#38),#81,.F.);
#73=ADVANCED_FACE('',(#39,#40),#82,.T.);
#74=ADVANCED_FACE('',(#41,#42),#36,.F.);
#75=ADVANCED_FACE('',(#43,#44),#35,.T.);
#76=ADVANCED_FACE('',(#45,#46),#51,.F.);
#77=PLANE('',#275);
#78=PLANE('',#279);
#79=PLANE('',#283);
#80=PLANE('',#287);
#81=PLANE('',#292);
#82=PLANE('',#294);
#83=FACE_OUTER_BOUND('',#91,.T.);
#84=FACE_OUTER_BOUND('',#92,.T.);
#85=FACE_OUTER_BOUND('',#93,.T.);
#86=FACE_OUTER_BOUND('',#94,.T.);
#87=FACE_OUTER_BOUND('',#95,.T.);
#88=FACE_OUTER_BOUND('',#96,.T.);
#89=FACE_OUTER_BOUND('',#97,.T.);
#90=FACE_OUTER_BOUND('',#98,.T.);
#91=EDGE_LOOP('',(#109,#110,#111,#112));
#92=EDGE_LOOP('',(#113,#114,#115,#116));
#93=EDGE_LOOP('',(#117,#118,#119,#120));
#94=EDGE_LOOP('',(#121,#122,#123,#124));
#95=EDGE_LOOP('',(#125,#126,#127,#128));
#96=EDGE_LOOP('',(#129,#130,#131,#132));
#97=EDGE_LOOP('',(#133,#134,#135,#136));
#98=EDGE_LOOP('',(#137,#138,#139,#140));
#99=EDGE_LOOP('',(#141));
#100=EDGE_LOOP('',(#142,#143,#144,#145,#146,#147,#148,#149));
#101=EDGE_LOOP('',(#150));
#102=EDGE_LOOP('',(#151,#152,#153,#154,#155,#156,#157,#158));
#103=EDGE_LOOP('',(#159));
#104=EDGE_LOOP('',(#160));
#105=EDGE_LOOP('',(#161));
#106=EDGE_LOOP('',(#162));
#107=EDGE_LOOP('',(#163));
#108=EDGE_LOOP('',(#164));
#109=ORIENTED_EDGE('',*,*,#185,.F.);
#110=ORIENTED_EDGE('',*,*,#186,.F.);
#111=ORIENTED_EDGE('',*,*,#187,.T.);
#112=ORIENTED_EDGE('',*,*,#188,.T.);
#113=ORIENTED_EDGE('',*,*,#189,.F.);
#114=ORIENTED_EDGE('',*,*,#188,.F.);
#115=ORIENTED_EDGE('',*,*,#190,.T.);
#116=ORIENTED_EDGE('',*,*,#191,.T.);
#117=ORIENTED_EDGE('',*,*,#192,.F.);
#118=ORIENTED_EDGE('',*,*,#191,.F.);
#119=ORIENTED_EDGE('',*,*,#193,.T.);
#120=ORIENTED_EDGE('',*,*,#194,.T.);
#121=ORIENTED_EDGE('',*,*,#195,.F.);
#122=ORIENTED_EDGE('',*,*,#194,.F.);
#123=ORIENTED_EDGE('',*,*,#196,.T.);
#124=ORIENTED_EDGE('',*,*,#197,.T.);
#125=ORIENTED_EDGE('',*,*,#198,.F.);
#126=ORIENTED_EDGE('',*,*,#197,.F.);
#127=ORIENTED_EDGE('',*,*,#199,.T.);
#128=ORIENTED_EDGE('',*,*,#200,.T.);
#129=ORIENTED_EDGE('',*,*,#201,.F.);
#130=ORIENTED_EDGE('',*,*,#200,.F.);
#131=ORIENTED_EDGE('',*,*,#202,.T.);
#132=ORIENTED_EDGE('',*,*,#203,.T.);
#133=ORIENTED_EDGE('',*,*,#204,.F.);
#134=ORIENTED_EDGE('',*,*,#203,.F.);
#135=ORIENTED_EDGE('',*,*,#205,.T.);
#136=ORIENTED_EDGE('',*,*,#206,.T.);
#137=ORIENTED_EDGE('',*,*,#207,.F.);
#138=ORIENTED_EDGE('',*,*,#206,.F.);
#139=ORIENTED_EDGE('',*,*,#208,.T.);
#140=ORIENTED_EDGE('',*,*,#186,.T.);
#141=ORIENTED_EDGE('',*,*,#209,.T.);
#142=ORIENTED_EDGE('',*,*,#187,.F.);
#143=ORIENTED_EDGE('',*,*,#208,.F.);
#144=ORIENTED_EDGE('',*,*,#205,.F.);
#145=ORIENTED_EDGE('',*,*,#202,.F.);
#146=ORIENTED_EDGE('',*,*,#199,.F.);
#147=ORIENTED_EDGE('',*,*,#196,.F.);
#148=ORIENTED_EDGE('',*,*,#193,.F.);
#149=ORIENTED_EDGE('',*,*,#190,.F.);
#150=ORIENTED_EDGE('',*,*,#210,.F.);
#151=ORIENTED_EDGE('',*,*,#185,.T.);
#152=ORIENTED_EDGE('',*,*,#189,.T.);
#153=ORIENTED_EDGE('',*,*,#192,.T.);
#154=ORIENTED_EDGE('',*,*,#195,.T.);
#155=ORIENTED_EDGE('',*,*,#198,.T.);
#156=ORIENTED_EDGE('',*,*,#201,.T.);
#157=ORIENTED_EDGE('',*,*,#204,.T.);
#158=ORIENTED_EDGE('',*,*,#207,.T.);
#159=ORIENTED_EDGE('',*,*,#209,.F.);
#160=ORIENTED_EDGE('',*,*,#211,.F.);
#161=ORIENTED_EDGE('',*,*,#211,.T.);
#162=ORIENTED_EDGE('',*,*,#212,.F.);
#163=ORIENTED_EDGE('',*,*,#212,.T.);
#164=ORIENTED_EDGE('',*,*,#210,.T.);
#165=VERTEX_POINT('',#422);
#166=VERTEX_POINT('',#423);
#167=VERTEX_POINT('',#425);
#168=VERTEX_POINT('',#427);
#169=VERTEX_POINT('',#431);
#170=VERTEX_POINT('',#433);
#171=VERTEX_POINT('',#437);
#172=VERTEX_POINT('',#439);
#173=VERTEX_POINT('',#443);
#174=VERTEX_POINT('',#445);
#175=VERTEX_POINT('',#449);
#176=VERTEX_POINT('',#451);
#177=VERTEX_POINT('',#455);
#178=VERTEX_POINT('',#457);
#179=VERTEX_POINT('',#461);
#180=VERTEX_POINT('',#463);
#181=VERTEX_POINT('',#470);
#182=VERTEX_POINT('',#473);
#183=VERTEX_POINT('',#476);
#184=VERTEX_POINT('',#479);
#185=EDGE_CURVE('',#165,#166,#213,.T.);
#186=EDGE_CURVE('',#167,#165,#214,.T.);
#187=EDGE_CURVE('',#167,#168,#215,.T.);
#188=EDGE_CURVE('',#168,#166,#216,.T.);
#189=EDGE_CURVE('',#166,#169,#52,.T.);
#190=EDGE_CURVE('',#168,#170,#53,.T.);
#191=EDGE_CURVE('',#170,#169,#217,.T.);
#192=EDGE_CURVE('',#169,#171,#218,.T.);
#193=EDGE_CURVE('',#170,#172,#219,.T.);
#194=EDGE_CURVE('',#172,#171,#220,.T.);
#195=EDGE_CURVE('',#171,#173,#54,.T.);
#196=EDGE_CURVE('',#172,#174,#55,.T.);
#197=EDGE_CURVE('',#174,#173,#221,.T.);
#198=EDGE_CURVE('',#173,#175,#222,.T.);
#199=EDGE_CURVE('',#174,#176,#223,.T.);
#200=EDGE_CURVE('',#176,#175,#224,.T.);
#201=EDGE_CURVE('',#175,#177,#56,.T.);
#202=EDGE_CURVE('',#176,#178,#57,.T.);
#203=EDGE_CURVE('',#178,#177,#225,.T.);
#204=EDGE_CURVE('',#177,#179,#226,.T.);
#205=EDGE_CURVE('',#178,#180,#227,.T.);
#206=EDGE_CURVE('',#180,#179,#228,.T.);
#207=EDGE_CURVE('',#179,#165,#58,.T.);
#208=EDGE_CURVE('',#180,#167,#59,.T.);
#209=EDGE_CURVE('',#181,#181,#60,.T.);
#210=EDGE_CURVE('',#182,#182,#61,.T.);
#211=EDGE_CURVE('',#183,#183,#62,.T.);
#212=EDGE_CURVE('',#184,#184,#63,.T.);
#213=LINE('',#421,#229);
#214=LINE('',#424,#230);
#215=LINE('',#426,#231);
#216=LINE('',#428,#232);
#217=LINE('',#434,#233);
#218=LINE('',#436,#234);
#219=LINE('',#438,#235);
#220=LINE('',#440,#236);
#221=LINE('',#446,#237);
#222=LINE('',#448,#238);
#223=LINE('',#450,#239);
#224=LINE('',#452,#240);
#225=LINE('',#458,#241);
#226=LINE('',#460,#242);
#227=LINE('',#462,#243);
#228=LINE('',#464,#244);
#229=VECTOR('',#306,1.);
#230=VECTOR('',#307,1.);
#231=VECTOR('',#308,1.);
#232=VECTOR('',#309,1.);
#233=VECTOR('',#316,1.);
#234=VECTOR('',#319,1.);
#235=VECTOR('',#320,1.);
#236=VECTOR('',#321,1.);
#237=VECTOR('',#328,1.);
#238=VECTOR('',#331,1.);
#239=VECTOR('',#332,1.);
#240=VECTOR('',#333,1.);
#241=VECTOR('',#340,1.);
#242=VECTOR('',#343,1.);
#243=VECTOR('',#344,1.);
#244=VECTOR('',#345,1.);
#245=CURVE_STYLE('',#249,POSITIVE_LENGTH_MEASURE(0.18),#248);
#246=CURVE_STYLE('',#250,POSITIVE_LENGTH_MEASURE(0.18),#270);
#247=CURVE_STYLE('',#251,POSITIVE_LENGTH_MEASURE(0.18),#270);
#248=DRAUGHTING_PRE_DEFINED_COLOUR('blue');
#249=DRAUGHTING_PRE_DEFINED_CURVE_FONT('continuous');
#250=DRAUGHTING_PRE_DEFINED_CURVE_FONT('continuous');
#251=DRAUGHTING_PRE_DEFINED_CURVE_FONT('continuous');
#252=B_SPLINE_CURVE_WITH_KNOTS('CUTTING EDGE LINE',3,(#375,#376,#377,#378,
#379,#380,#381,#382,#383,#384,#385,#386,#387,#388,#389,#390,#391,#392,#393,
#394,#395,#396,#397,#398,#399,#400,#401,#402,#403,#404,#405,#406,#407,#408,
#409,#410,#411,#412,#413,#414,#415,#416,#417,#418),.UNSPECIFIED.,.T.,.F.,
(1,1,2,1,1,1,1,1,1,1,1,1,1,1,1,1,1,1,1,1,1,1,1,1,1,1,1,1,1,1,1,1,1,1,1,
1,1,1,1,1,1,1,1,2,1,1),(-0.19718727013125,-0.1001586134,0.,0.0124206933,
0.0248413866,0.0372620799,0.04347242655,0.0496827732,0.05281272986875,0.1498413866,
0.1999206933,0.24687004333125,0.25,0.25621034665,0.2624206933,0.2748413866,
0.2872620799,0.29347242655,0.2996827732,0.30281272986875,0.3998413866,0.4499206933,
0.49687004333125,0.5,0.50621034665,0.5124206933,0.5248413866,0.5372620799,
0.54347242655,0.5496827732,0.55281272986875,0.6498413866,0.6999206933,0.74687004333125,
0.75,0.75621034665,0.7624206933,0.7748413866,0.7872620799,0.79347242655,
0.7996827732,0.80281272986875,0.8998413866,1.,1.0124206933,1.0248413866),
 .UNSPECIFIED.);
#253=PRESENTATION_LAYER_ASSIGNMENT('1','Layer 1',(#373,#374,#252,#273,#274,
#33));
#254=STYLED_ITEM('',(#260),#373);
#255=STYLED_ITEM('',(#261),#374);
#256=STYLED_ITEM('',(#262),#252);
#257=STYLED_ITEM('',(#263),#273);
#258=STYLED_ITEM('',(#264),#274);
#259=STYLED_ITEM('',(#265),#33);
#260=PRESENTATION_STYLE_ASSIGNMENT((#266));
#261=PRESENTATION_STYLE_ASSIGNMENT((#267));
#262=PRESENTATION_STYLE_ASSIGNMENT((#245));
#263=PRESENTATION_STYLE_ASSIGNMENT((#246));
#264=PRESENTATION_STYLE_ASSIGNMENT((#247));
#265=PRESENTATION_STYLE_ASSIGNMENT((#28));
#266=POINT_STYLE('',#268,POSITIVE_LENGTH_MEASURE(3.),#270);
#267=POINT_STYLE('',#269,POSITIVE_LENGTH_MEASURE(3.),#270);
#268=PRE_DEFINED_POINT_MARKER_SYMBOL('plus');
#269=PRE_DEFINED_POINT_MARKER_SYMBOL('plus');
#270=COLOUR_RGB('Medium Maroon',0.6,0.4,0.4);
#271=COLOUR_RGB('Light Gray',0.8,0.8,0.8);
#272=AXIS2_PLACEMENT_3D('',#372,#300,#301);
#273=AXIS2_PLACEMENT_3D('MCS',#419,#302,#303);
#274=AXIS2_PLACEMENT_3D('PCS',#420,#304,#305);
#275=AXIS2_PLACEMENT_3D('',#429,#310,#311);
#276=AXIS2_PLACEMENT_3D('',#430,#312,#313);
#277=AXIS2_PLACEMENT_3D('',#432,#314,#315);
#278=AXIS2_PLACEMENT_3D('',#435,#317,#318);
#279=AXIS2_PLACEMENT_3D('',#441,#322,#323);
#280=AXIS2_PLACEMENT_3D('',#442,#324,#325);
#281=AXIS2_PLACEMENT_3D('',#444,#326,#327);
#282=AXIS2_PLACEMENT_3D('',#447,#329,#330);
#283=AXIS2_PLACEMENT_3D('',#453,#334,#335);
#284=AXIS2_PLACEMENT_3D('',#454,#336,#337);
#285=AXIS2_PLACEMENT_3D('',#456,#338,#339);
#286=AXIS2_PLACEMENT_3D('',#459,#341,#342);
#287=AXIS2_PLACEMENT_3D('',#465,#346,#347);
#288=AXIS2_PLACEMENT_3D('',#466,#348,#349);
#289=AXIS2_PLACEMENT_3D('',#467,#350,#351);
#290=AXIS2_PLACEMENT_3D('',#468,#352,#353);
#291=AXIS2_PLACEMENT_3D('',#469,#354,#355);
#292=AXIS2_PLACEMENT_3D('',#471,#356,#357);
#293=AXIS2_PLACEMENT_3D('',#472,#358,#359);
#294=AXIS2_PLACEMENT_3D('',#474,#360,#361);
#295=AXIS2_PLACEMENT_3D('',#475,#362,#363);
#296=AXIS2_PLACEMENT_3D('',#477,#364,#365);
#297=AXIS2_PLACEMENT_3D('',#478,#366,#367);
#298=AXIS2_PLACEMENT_3D('',#480,#368,#369);
#299=AXIS2_PLACEMENT_3D('',#481,#370,#371);
#300=DIRECTION('',(0.,0.,1.));
#301=DIRECTION('',(1.,0.,0.));
#302=DIRECTION('',(0.,0.,1.));
#303=DIRECTION('',(1.,0.,0.));
#304=DIRECTION('',(0.,0.,1.));
#305=DIRECTION('',(1.,0.,0.));
#306=DIRECTION('',(1.,0.,0.));
#307=DIRECTION('',(-6.89585091056754E-017,-0.190808995376545,0.981627183447664));
#308=DIRECTION('',(1.,0.,0.));
#309=DIRECTION('',(0.,-0.190808995376545,0.981627183447664));
#310=DIRECTION('',(0.,-0.981627183447664,-0.190808995376545));
#311=DIRECTION('',(0.,0.190808995376545,-0.981627183447664));
#312=DIRECTION('',(0.,0.,1.));
#313=DIRECTION('',(1.,0.,0.));
#314=DIRECTION('',(0.,0.,1.));
#315=DIRECTION('',(1.,0.,0.));
#316=DIRECTION('',(0.190808995376545,0.,0.981627183447664));
#317=DIRECTION('',(0.,0.,1.));
#318=DIRECTION('',(1.,0.,0.));
#319=DIRECTION('',(0.,1.,0.));
#320=DIRECTION('',(0.,1.,0.));
#321=DIRECTION('',(0.190808995376545,0.,0.981627183447664));
#322=DIRECTION('',(0.981627183447664,0.,-0.190808995376545));
#323=DIRECTION('',(-0.190808995376545,0.,-0.981627183447664));
#324=DIRECTION('',(0.,0.,1.));
#325=DIRECTION('',(1.,0.,0.));
#326=DIRECTION('',(0.,0.,1.));
#327=DIRECTION('',(1.,0.,0.));
#328=DIRECTION('',(0.,0.190808995376545,0.981627183447664));
#329=DIRECTION('',(0.,0.,1.));
#330=DIRECTION('',(1.,0.,0.));
#331=DIRECTION('',(-1.,0.,0.));
#332=DIRECTION('',(-1.,0.,0.));
#333=DIRECTION('',(0.,0.190808995376545,0.981627183447664));
#334=DIRECTION('',(0.,0.981627183447664,-0.190808995376545));
#335=DIRECTION('',(0.,0.190808995376545,0.981627183447664));
#336=DIRECTION('',(0.,0.,1.));
#337=DIRECTION('',(1.,0.,0.));
#338=DIRECTION('',(0.,0.,1.));
#339=DIRECTION('',(0.999999999999999,0.,0.));
#340=DIRECTION('',(-0.190808995376545,0.,0.981627183447664));
#341=DIRECTION('',(0.,0.,1.));
#342=DIRECTION('',(1.,0.,0.));
#343=DIRECTION('',(0.,-1.,0.));
#344=DIRECTION('',(0.,-1.,0.));
#345=DIRECTION('',(-0.190808995376545,0.,0.981627183447664));
#346=DIRECTION('',(-0.981627183447664,0.,-0.190808995376545));
#347=DIRECTION('',(-0.190808995376545,0.,0.981627183447664));
#348=DIRECTION('',(0.,0.,1.));
#349=DIRECTION('',(1.,0.,0.));
#350=DIRECTION('',(0.,0.,1.));
#351=DIRECTION('',(0.999999999999999,0.,0.));
#352=DIRECTION('',(0.,0.,1.));
#353=DIRECTION('',(1.,0.,0.));
#354=DIRECTION('',(0.,0.,1.));
#355=DIRECTION('',(1.,0.,0.));
#356=DIRECTION('',(0.,0.,1.));
#357=DIRECTION('',(1.,0.,0.));
#358=DIRECTION('',(0.,0.,1.));
#359=DIRECTION('',(1.,0.,0.));
#360=DIRECTION('',(0.,0.,1.));
#361=DIRECTION('',(1.,0.,0.));
#362=DIRECTION('',(0.,0.,-1.));
#363=DIRECTION('',(1.,0.,0.));
#364=DIRECTION('',(0.,0.,1.));
#365=DIRECTION('',(1.,0.,0.));
#366=DIRECTION('',(0.,0.,-1.));
#367=DIRECTION('',(1.,0.,0.));
#368=DIRECTION('',(0.,0.,1.));
#369=DIRECTION('',(1.,0.,0.));
#370=DIRECTION('',(0.,0.,1.));
#371=DIRECTION('',(1.,0.,8.54718183265069E-019));
#372=CARTESIAN_POINT('',(0.,0.,0.));
#373=CARTESIAN_POINT('',(0.,0.,0.));
#374=CARTESIAN_POINT('',(-2.5,-2.5,0.));
#375=CARTESIAN_POINT('',(-1.26666666666667,2.5,0.));
#376=CARTESIAN_POINT('',(-1.97853981633975,2.5,0.));
#377=CARTESIAN_POINT('',(-2.13558619463772,2.46875538630985,0.));
#378=CARTESIAN_POINT('',(-2.33531070783353,2.3353107078249,0.));
#379=CARTESIAN_POINT('',(-2.44651460655538,2.16887361352257,0.));
#380=CARTESIAN_POINT('',(-2.49218884657494,2.01780141092034,0.));
#381=CARTESIAN_POINT('',(-2.5009841870805,1.91947928895369,0.));
#382=CARTESIAN_POINT('',(-2.5,1.246875,0.));
#383=CARTESIAN_POINT('',(-2.5,0.296875,0.));
#384=CARTESIAN_POINT('',(-2.5,-0.930208333333333,0.));
#385=CARTESIAN_POINT('',(-2.5,-1.56354166666667,0.));
#386=CARTESIAN_POINT('',(-2.50098418708018,-1.91947928895446,0.));
#387=CARTESIAN_POINT('',(-2.49218884657746,-2.01780141091424,0.));
#388=CARTESIAN_POINT('',(-2.44651460656236,-2.16887361350369,0.));
#389=CARTESIAN_POINT('',(-2.3353107078249,-2.33531070783353,0.));
#390=CARTESIAN_POINT('',(-2.16887361352257,-2.44651460655538,0.));
#391=CARTESIAN_POINT('',(-2.01780141092034,-2.49218884657494,0.));
#392=CARTESIAN_POINT('',(-1.91947928895369,-2.5009841870805,0.));
#393=CARTESIAN_POINT('',(-1.246875,-2.5,0.));
#394=CARTESIAN_POINT('',(-0.296875,-2.5,0.));
#395=CARTESIAN_POINT('',(0.930208333333333,-2.5,0.));
#396=CARTESIAN_POINT('',(1.56354166666667,-2.5,0.));
#397=CARTESIAN_POINT('',(1.91947928895445,-2.50098418708018,0.));
#398=CARTESIAN_POINT('',(2.01780141091424,-2.49218884657746,0.));
#399=CARTESIAN_POINT('',(2.16887361350369,-2.44651460656236,0.));
#400=CARTESIAN_POINT('',(2.33531070783353,-2.3353107078249,0.));
#401=CARTESIAN_POINT('',(2.44651460655538,-2.16887361352257,0.));
#402=CARTESIAN_POINT('',(2.49218884657494,-2.01780141092034,0.));
#403=CARTESIAN_POINT('',(2.5009841870805,-1.91947928895369,0.));
#404=CARTESIAN_POINT('',(2.5,-1.246875,0.));
#405=CARTESIAN_POINT('',(2.5,-0.296875,0.));
#406=CARTESIAN_POINT('',(2.5,0.930208333333334,0.));
#407=CARTESIAN_POINT('',(2.5,1.56354166666667,0.));
#408=CARTESIAN_POINT('',(2.50098418708018,1.91947928895446,0.));
#409=CARTESIAN_POINT('',(2.49218884657746,2.01780141091424,0.));
#410=CARTESIAN_POINT('',(2.44651460656236,2.16887361350369,0.));
#411=CARTESIAN_POINT('',(2.3353107078249,2.33531070783353,0.));
#412=CARTESIAN_POINT('',(2.16887361352257,2.44651460655538,0.));
#413=CARTESIAN_POINT('',(2.01780141092033,2.49218884657494,0.));
#414=CARTESIAN_POINT('',(1.91947928895369,2.5009841870805,0.));
#415=CARTESIAN_POINT('',(1.246875,2.5,0.));
#416=CARTESIAN_POINT('',(-0.0197916666666669,2.5,0.));
#417=CARTESIAN_POINT('',(-1.26666666666667,2.5,0.));
#418=CARTESIAN_POINT('',(-1.97853981633975,2.5,0.));
#419=CARTESIAN_POINT('',(0.,0.,0.));
#420=CARTESIAN_POINT('',(-2.5,-2.5,0.));
#421=CARTESIAN_POINT('',(1.9,-2.5,0.));
#422=CARTESIAN_POINT('',(-1.9,-2.5,0.));
#423=CARTESIAN_POINT('',(1.9,-2.5,0.));
#424=CARTESIAN_POINT('',(-1.9,-2.5,-4.06149282408926E-017));
#425=CARTESIAN_POINT('',(-1.9,-2.0140492271557,-2.5));
#426=CARTESIAN_POINT('',(1.9,-2.0140492271557,-2.5));
#427=CARTESIAN_POINT('',(1.9,-2.0140492271557,-2.5));
#428=CARTESIAN_POINT('',(1.9,-2.5,0.));
#429=CARTESIAN_POINT('',(-1.9,-2.5,0.));
#430=CARTESIAN_POINT('',(1.9,-1.9,0.));
#431=CARTESIAN_POINT('',(2.5,-1.9,0.));
#432=CARTESIAN_POINT('',(1.9,-1.9,-2.5));
#433=CARTESIAN_POINT('',(2.0140492271557,-1.9,-2.5));
#434=CARTESIAN_POINT('',(2.5,-1.9,0.));
#435=CARTESIAN_POINT('',(1.9,-1.9,0.));
#436=CARTESIAN_POINT('',(2.5,-1.9,0.));
#437=CARTESIAN_POINT('',(2.5,1.9,0.));
#438=CARTESIAN_POINT('',(2.0140492271557,-1.9,-2.5));
#439=CARTESIAN_POINT('',(2.0140492271557,1.9,-2.5));
#440=CARTESIAN_POINT('',(2.5,1.9,7.82724339602368E-017));
#441=CARTESIAN_POINT('',(2.5,-2.5,0.));
#442=CARTESIAN_POINT('',(1.9,1.9,0.));
#443=CARTESIAN_POINT('',(1.9,2.5,0.));
#444=CARTESIAN_POINT('',(1.9,1.9,-2.5));
#445=CARTESIAN_POINT('',(1.9,2.0140492271557,-2.5));
#446=CARTESIAN_POINT('',(1.9,2.5,-2.03074641204463E-017));
#447=CARTESIAN_POINT('',(1.9,1.9,0.));
#448=CARTESIAN_POINT('',(1.9,2.5,0.));
#449=CARTESIAN_POINT('',(-1.9,2.5,0.));
#450=CARTESIAN_POINT('',(1.9,2.0140492271557,-2.5));
#451=CARTESIAN_POINT('',(-1.9,2.0140492271557,-2.5));
#452=CARTESIAN_POINT('',(-1.9,2.5,0.));
#453=CARTESIAN_POINT('',(-1.9,2.5,0.));
#454=CARTESIAN_POINT('',(-1.9,1.9,0.));
#455=CARTESIAN_POINT('',(-2.5,1.9,0.));
#456=CARTESIAN_POINT('',(-1.9,1.9,-2.5));
#457=CARTESIAN_POINT('',(-2.0140492271557,1.9,-2.5));
#458=CARTESIAN_POINT('',(-2.5,1.9,0.));
#459=CARTESIAN_POINT('',(-1.9,1.9,0.));
#460=CARTESIAN_POINT('',(-2.5,-1.9,0.));
#461=CARTESIAN_POINT('',(-2.5,-1.9,0.));
#462=CARTESIAN_POINT('',(-2.0140492271557,-1.9,-2.5));
#463=CARTESIAN_POINT('',(-2.0140492271557,-1.9,-2.5));
#464=CARTESIAN_POINT('',(-2.5,-1.9,0.));
#465=CARTESIAN_POINT('',(-2.5,-2.5,0.));
#466=CARTESIAN_POINT('',(-1.9,-1.9,0.));
#467=CARTESIAN_POINT('',(-1.9,-1.9,-2.5));
#468=CARTESIAN_POINT('',(-1.9,-1.9,0.));
#469=CARTESIAN_POINT('',(0.,0.,-2.5));
#470=CARTESIAN_POINT('',(1.1,0.,-2.5));
#471=CARTESIAN_POINT('',(1.9,-1.9,-2.5));
#472=CARTESIAN_POINT('',(0.,0.,-6.09942069812797E-017));
#473=CARTESIAN_POINT('',(1.43496340597176,0.,-6.09942069812797E-017));
#474=CARTESIAN_POINT('',(1.9,-1.9,0.));
#475=CARTESIAN_POINT('',(0.,0.,-1.43273790530888));
#476=CARTESIAN_POINT('',(1.1,0.,-1.43273790530888));
#477=CARTESIAN_POINT('',(0.,0.,0.));
#478=CARTESIAN_POINT('',(0.,0.,-0.5));
#479=CARTESIAN_POINT('',(1.4,0.,-0.5));
#480=CARTESIAN_POINT('',(0.,0.,-1.43273790530888));
#481=CARTESIAN_POINT('',(0.,0.,-6.09942069812797E-017));
#482=MECHANICAL_DESIGN_GEOMETRIC_PRESENTATION_REPRESENTATION('',(#254,#255,
#256,#257,#258,#259),#483);
#483=(
GEOMETRIC_REPRESENTATION_CONTEXT(3)
GLOBAL_UNCERTAINTY_ASSIGNED_CONTEXT((#484))
GLOBAL_UNIT_ASSIGNED_CONTEXT((#490,#486,#485))
REPRESENTATION_CONTEXT('1539173340792','TOP_LEVEL_ASSEMBLY_PART')
);
#484=UNCERTAINTY_MEASURE_WITH_UNIT(LENGTH_MEASURE(2.E-005),#490,
'DISTANCE_ACCURACY_VALUE','Maximum Tolerance applied to model');
#485=(
NAMED_UNIT(*)
SI_UNIT($,.STERADIAN.)
SOLID_ANGLE_UNIT()
);
#486=(
CONVERSION_BASED_UNIT('DEGREE',#488)
NAMED_UNIT(#487)
PLANE_ANGLE_UNIT()
);
#487=DIMENSIONAL_EXPONENTS(0.,0.,0.,0.,0.,0.,0.);
#488=PLANE_ANGLE_MEASURE_WITH_UNIT(PLANE_ANGLE_MEASURE(0.0174532925),#489);
#489=(
NAMED_UNIT(*)
PLANE_ANGLE_UNIT()
SI_UNIT($,.RADIAN.)
);
#490=(
LENGTH_UNIT()
NAMED_UNIT(*)
SI_UNIT(.MILLI.,.METRE.)
);
ENDSEC;
END-ISO-10303-21;
