ISO-10303-21;
HEADER;
/* Generated by software containing ST-Developer
 * from STEP Tools, Inc. (www.steptools.com) 
 */
/* OPTION: using custom schema-name function */

FILE_DESCRIPTION(
/* description */ (''),
/* implementation_level */ '2;1');

FILE_NAME(
/* name */ '1547037932181.stp',
/* time_stamp */ '2019-01-09T13:45:47+01:00',
/* author */ (''),
/* organization */ ('SMS'),
/* preprocessor_version */ 'ST-DEVELOPER v15',
/* originating_system */ 'SIEMENS PLM Software NX 8.5',
/* authorisation */ '');

FILE_SCHEMA (('AUTOMOTIVE_DESIGN { 1 0 10303 214 3 1 1 1 }'));
ENDSEC;

DATA;
#10=CONSTRUCTIVE_GEOMETRY_REPRESENTATION_RELATIONSHIP(
'supplemental geometry','',#26,#11);
#11=CONSTRUCTIVE_GEOMETRY_REPRESENTATION('supplemental geometry',(#257,
#258),#461);
#12=GEOMETRICALLY_BOUNDED_WIREFRAME_SHAPE_REPRESENTATION(
'201917647mod000_00-None',(#27),#461);
#13=SHAPE_REPRESENTATION_RELATIONSHIP('None',
'relationship between 201917647mod000_00-None and 201917647mod000_00-N
one',#26,#15);
#14=SHAPE_REPRESENTATION_RELATIONSHIP('None',
'relationship between 201917647mod000_00-None and 201917647mod000_00-N
one',#26,#12);
#15=ADVANCED_BREP_SHAPE_REPRESENTATION('201917647mod000_00-None',(#33),
#461);
#16=SHAPE_DEFINITION_REPRESENTATION(#17,#26);
#17=PRODUCT_DEFINITION_SHAPE('','',#18);
#18=PRODUCT_DEFINITION(' ','',#20,#19);
#19=PRODUCT_DEFINITION_CONTEXT('part definition',#25,'design');
#20=PRODUCT_DEFINITION_FORMATION_WITH_SPECIFIED_SOURCE(' ',' ',#22,
 .NOT_KNOWN.);
#21=PRODUCT_RELATED_PRODUCT_CATEGORY('part','',(#22));
#22=PRODUCT('201917647mod000_00','201917647mod000_00',' ',(#23));
#23=PRODUCT_CONTEXT(' ',#25,'mechanical');
#24=APPLICATION_PROTOCOL_DEFINITION('international standard',
'automotive_design',2010,#25);
#25=APPLICATION_CONTEXT(
'core data for automotive mechanical design processes');
#26=SHAPE_REPRESENTATION('201917647mod000_00-None',(#256),#461);
#27=GEOMETRIC_CURVE_SET('None',(#359,#360,#234));
#28=SURFACE_STYLE_USAGE(.BOTH.,#29);
#29=SURFACE_SIDE_STYLE('',(#30));
#30=SURFACE_STYLE_FILL_AREA(#31);
#31=FILL_AREA_STYLE('',(#32));
#32=FILL_AREA_STYLE_COLOUR('',#255);
#33=MANIFOLD_SOLID_BREP('CUT',#34);
#34=CLOSED_SHELL('',(#66,#67,#68,#69,#70,#71,#72,#73,#74,#75,#76,#77,#78,
#79,#80));
#35=CYLINDRICAL_SURFACE('',#279,2.35);
#36=TOROIDAL_SURFACE('',#274,0.349999999999995,0.3);
#37=TOROIDAL_SURFACE('',#280,3.85,1.5);
#38=TOROIDAL_SURFACE('',#284,0.349999999999994,0.3);
#39=TOROIDAL_SURFACE('',#287,0.349999999999994,0.3);
#40=FACE_BOUND('',#95,.T.);
#41=FACE_BOUND('',#96,.T.);
#42=FACE_BOUND('',#97,.T.);
#43=FACE_BOUND('',#98,.T.);
#44=FACE_BOUND('',#99,.T.);
#45=FACE_BOUND('',#101,.T.);
#46=FACE_BOUND('',#102,.T.);
#47=FACE_BOUND('',#103,.T.);
#48=FACE_BOUND('',#104,.T.);
#49=FACE_BOUND('',#105,.T.);
#50=FACE_BOUND('',#106,.T.);
#51=FACE_BOUND('',#107,.T.);
#52=FACE_BOUND('',#108,.T.);
#53=FACE_BOUND('',#109,.T.);
#54=FACE_BOUND('',#110,.T.);
#55=FACE_BOUND('',#112,.T.);
#56=FACE_BOUND('',#113,.T.);
#57=FACE_BOUND('',#115,.T.);
#58=FACE_BOUND('',#116,.T.);
#59=PLANE('',#262);
#60=PLANE('',#266);
#61=PLANE('',#271);
#62=PLANE('',#273);
#63=PLANE('',#281);
#64=PLANE('',#283);
#65=PLANE('',#286);
#66=ADVANCED_FACE('',(#84),#81,.T.);
#67=ADVANCED_FACE('',(#85),#59,.T.);
#68=ADVANCED_FACE('',(#86),#82,.T.);
#69=ADVANCED_FACE('',(#87),#60,.F.);
#70=ADVANCED_FACE('',(#40,#41,#42,#43,#44),#61,.T.);
#71=ADVANCED_FACE('',(#88),#62,.F.);
#72=ADVANCED_FACE('',(#45,#46),#36,.F.);
#73=ADVANCED_FACE('',(#47,#48),#83,.F.);
#74=ADVANCED_FACE('',(#49,#50),#35,.F.);
#75=ADVANCED_FACE('',(#51,#52),#37,.T.);
#76=ADVANCED_FACE('',(#53,#54),#63,.F.);
#77=ADVANCED_FACE('',(#89),#64,.F.);
#78=ADVANCED_FACE('',(#55,#56),#38,.F.);
#79=ADVANCED_FACE('',(#90),#65,.F.);
#80=ADVANCED_FACE('',(#57,#58),#39,.F.);
#81=CONICAL_SURFACE('',#261,12.2707046025321,8.99999999999999);
#82=CONICAL_SURFACE('',#265,12.2707046025321,8.99999999999999);
#83=CONICAL_SURFACE('',#276,3.47370805504592,4.99999999999998);
#84=FACE_OUTER_BOUND('',#91,.T.);
#85=FACE_OUTER_BOUND('',#92,.T.);
#86=FACE_OUTER_BOUND('',#93,.T.);
#87=FACE_OUTER_BOUND('',#94,.T.);
#88=FACE_OUTER_BOUND('',#100,.T.);
#89=FACE_OUTER_BOUND('',#111,.T.);
#90=FACE_OUTER_BOUND('',#114,.T.);
#91=EDGE_LOOP('',(#129,#130,#131,#132));
#92=EDGE_LOOP('',(#133,#134,#135,#136));
#93=EDGE_LOOP('',(#137,#138,#139,#140));
#94=EDGE_LOOP('',(#141,#142,#143,#144));
#95=EDGE_LOOP('',(#145,#146,#147,#148));
#96=EDGE_LOOP('',(#149));
#97=EDGE_LOOP('',(#150));
#98=EDGE_LOOP('',(#151));
#99=EDGE_LOOP('',(#152));
#100=EDGE_LOOP('',(#153));
#101=EDGE_LOOP('',(#154));
#102=EDGE_LOOP('',(#155));
#103=EDGE_LOOP('',(#156));
#104=EDGE_LOOP('',(#157));
#105=EDGE_LOOP('',(#158));
#106=EDGE_LOOP('',(#159));
#107=EDGE_LOOP('',(#160));
#108=EDGE_LOOP('',(#161));
#109=EDGE_LOOP('',(#162,#163,#164,#165));
#110=EDGE_LOOP('',(#166));
#111=EDGE_LOOP('',(#167));
#112=EDGE_LOOP('',(#168));
#113=EDGE_LOOP('',(#169));
#114=EDGE_LOOP('',(#170));
#115=EDGE_LOOP('',(#171));
#116=EDGE_LOOP('',(#172));
#117=LINE('',#402,#123);
#118=LINE('',#411,#124);
#119=LINE('',#418,#125);
#120=LINE('',#422,#126);
#121=LINE('',#426,#127);
#122=LINE('',#427,#128);
#123=VECTOR('',#296,1.);
#124=VECTOR('',#301,1.);
#125=VECTOR('',#302,1.);
#126=VECTOR('',#307,1.);
#127=VECTOR('',#312,1.);
#128=VECTOR('',#313,1.);
#129=ORIENTED_EDGE('',*,*,#191,.F.);
#130=ORIENTED_EDGE('',*,*,#192,.T.);
#131=ORIENTED_EDGE('',*,*,#193,.F.);
#132=ORIENTED_EDGE('',*,*,#194,.T.);
#133=ORIENTED_EDGE('',*,*,#195,.F.);
#134=ORIENTED_EDGE('',*,*,#196,.T.);
#135=ORIENTED_EDGE('',*,*,#197,.F.);
#136=ORIENTED_EDGE('',*,*,#192,.F.);
#137=ORIENTED_EDGE('',*,*,#198,.F.);
#138=ORIENTED_EDGE('',*,*,#199,.T.);
#139=ORIENTED_EDGE('',*,*,#200,.F.);
#140=ORIENTED_EDGE('',*,*,#196,.F.);
#141=ORIENTED_EDGE('',*,*,#199,.F.);
#142=ORIENTED_EDGE('',*,*,#201,.T.);
#143=ORIENTED_EDGE('',*,*,#194,.F.);
#144=ORIENTED_EDGE('',*,*,#202,.T.);
#145=ORIENTED_EDGE('',*,*,#197,.T.);
#146=ORIENTED_EDGE('',*,*,#200,.T.);
#147=ORIENTED_EDGE('',*,*,#202,.F.);
#148=ORIENTED_EDGE('',*,*,#193,.T.);
#149=ORIENTED_EDGE('',*,*,#203,.T.);
#150=ORIENTED_EDGE('',*,*,#204,.T.);
#151=ORIENTED_EDGE('',*,*,#205,.T.);
#152=ORIENTED_EDGE('',*,*,#206,.T.);
#153=ORIENTED_EDGE('',*,*,#207,.F.);
#154=ORIENTED_EDGE('',*,*,#207,.T.);
#155=ORIENTED_EDGE('',*,*,#205,.F.);
#156=ORIENTED_EDGE('',*,*,#208,.F.);
#157=ORIENTED_EDGE('',*,*,#204,.F.);
#158=ORIENTED_EDGE('',*,*,#209,.F.);
#159=ORIENTED_EDGE('',*,*,#210,.T.);
#160=ORIENTED_EDGE('',*,*,#208,.T.);
#161=ORIENTED_EDGE('',*,*,#210,.F.);
#162=ORIENTED_EDGE('',*,*,#195,.T.);
#163=ORIENTED_EDGE('',*,*,#191,.T.);
#164=ORIENTED_EDGE('',*,*,#201,.F.);
#165=ORIENTED_EDGE('',*,*,#198,.T.);
#166=ORIENTED_EDGE('',*,*,#209,.T.);
#167=ORIENTED_EDGE('',*,*,#211,.F.);
#168=ORIENTED_EDGE('',*,*,#211,.T.);
#169=ORIENTED_EDGE('',*,*,#203,.F.);
#170=ORIENTED_EDGE('',*,*,#212,.F.);
#171=ORIENTED_EDGE('',*,*,#212,.T.);
#172=ORIENTED_EDGE('',*,*,#206,.F.);
#173=VERTEX_POINT('',#400);
#174=VERTEX_POINT('',#401);
#175=VERTEX_POINT('',#403);
#176=VERTEX_POINT('',#405);
#177=VERTEX_POINT('',#412);
#178=VERTEX_POINT('',#417);
#179=VERTEX_POINT('',#421);
#180=VERTEX_POINT('',#423);
#181=VERTEX_POINT('',#430);
#182=VERTEX_POINT('',#432);
#183=VERTEX_POINT('',#434);
#184=VERTEX_POINT('',#436);
#185=VERTEX_POINT('',#439);
#186=VERTEX_POINT('',#443);
#187=VERTEX_POINT('',#446);
#188=VERTEX_POINT('',#448);
#189=VERTEX_POINT('',#453);
#190=VERTEX_POINT('',#457);
#191=EDGE_CURVE('',#173,#174,#213,.T.);
#192=EDGE_CURVE('',#173,#175,#117,.T.);
#193=EDGE_CURVE('',#176,#175,#214,.T.);
#194=EDGE_CURVE('',#176,#174,#235,.T.);
#195=EDGE_CURVE('',#177,#173,#118,.T.);
#196=EDGE_CURVE('',#177,#178,#236,.T.);
#197=EDGE_CURVE('',#175,#178,#119,.T.);
#198=EDGE_CURVE('',#179,#177,#215,.T.);
#199=EDGE_CURVE('',#179,#180,#120,.T.);
#200=EDGE_CURVE('',#178,#180,#216,.T.);
#201=EDGE_CURVE('',#179,#174,#121,.T.);
#202=EDGE_CURVE('',#176,#180,#122,.T.);
#203=EDGE_CURVE('',#181,#181,#217,.T.);
#204=EDGE_CURVE('',#182,#182,#218,.T.);
#205=EDGE_CURVE('',#183,#183,#219,.T.);
#206=EDGE_CURVE('',#184,#184,#220,.T.);
#207=EDGE_CURVE('',#185,#185,#221,.T.);
#208=EDGE_CURVE('',#186,#186,#222,.T.);
#209=EDGE_CURVE('',#187,#187,#223,.T.);
#210=EDGE_CURVE('',#188,#188,#224,.T.);
#211=EDGE_CURVE('',#189,#189,#225,.T.);
#212=EDGE_CURVE('',#190,#190,#226,.T.);
#213=CIRCLE('',#259,11.5167946665873);
#214=CIRCLE('',#260,12.2707046025321);
#215=CIRCLE('',#263,11.5167946665873);
#216=CIRCLE('',#264,12.2707046025321);
#217=CIRCLE('',#267,0.647321374946365);
#218=CIRCLE('',#268,3.27685856211259);
#219=CIRCLE('',#269,0.647321374946365);
#220=CIRCLE('',#270,0.647321374946366);
#221=CIRCLE('',#272,0.349999999999997);
#222=CIRCLE('',#275,3.14999999999999);
#223=CIRCLE('',#277,2.35);
#224=CIRCLE('',#278,2.35);
#225=CIRCLE('',#282,0.349999999999997);
#226=CIRCLE('',#285,0.349999999999998);
#227=CURVE_STYLE('',#231,POSITIVE_LENGTH_MEASURE(0.18),#230);
#228=CURVE_STYLE('',#232,POSITIVE_LENGTH_MEASURE(0.18),#254);
#229=CURVE_STYLE('',#233,POSITIVE_LENGTH_MEASURE(0.18),#254);
#230=DRAUGHTING_PRE_DEFINED_COLOUR('blue');
#231=DRAUGHTING_PRE_DEFINED_CURVE_FONT('continuous');
#232=DRAUGHTING_PRE_DEFINED_CURVE_FONT('continuous');
#233=DRAUGHTING_PRE_DEFINED_CURVE_FONT('continuous');
#234=B_SPLINE_CURVE_WITH_KNOTS('CUTTING EDGE LINE',3,(#361,#362,#363,#364,
#365,#366,#367,#368,#369,#370,#371,#372,#373,#374,#375,#376,#377,#378,#379,
#380,#381,#382,#383,#384,#385,#386,#387,#388,#389,#390,#391,#392,#393,#394,
#395,#396),.UNSPECIFIED.,.T.,.F.,(2,2,1,1,1,1,1,1,1,1,1,1,1,1,1,1,1,3,1,
1,1,1,1,1,1,1,1,1,1,3,2,1,1),(-0.1829207433,0.,0.0207339179875,0.041467835975,
0.0622017539625,0.08293567195,0.1036695899375,0.124403507925,0.1451374259125,
0.1658713439,0.1866052618875,0.207339179875,0.2280730978625,0.24880701585,
0.2695409338375,0.290274851825,0.3110087698125,0.3317426878,0.43991394935,
0.541324507053125,0.5480852109,0.5648973387625,0.581709466625,0.61533372235,
0.648957978075,0.6825822338,0.716206489525,0.74983074525,0.783455000975,
0.8170792567,1.,1.0207339179875,1.041467835975),.UNSPECIFIED.);
#235=B_SPLINE_CURVE_WITH_KNOTS('',3,(#406,#407,#408,#409),.UNSPECIFIED.,
 .F.,.F.,(4,4),(0.,1.),.UNSPECIFIED.);
#236=B_SPLINE_CURVE_WITH_KNOTS('',3,(#413,#414,#415,#416),.UNSPECIFIED.,
 .F.,.F.,(4,4),(0.,1.),.UNSPECIFIED.);
#237=PRESENTATION_LAYER_ASSIGNMENT('1','Layer 1',(#359,#360,#234,#257,#258,
#33));
#238=STYLED_ITEM('',(#244),#359);
#239=STYLED_ITEM('',(#245),#360);
#240=STYLED_ITEM('',(#246),#234);
#241=STYLED_ITEM('',(#247),#257);
#242=STYLED_ITEM('',(#248),#258);
#243=STYLED_ITEM('',(#249),#33);
#244=PRESENTATION_STYLE_ASSIGNMENT((#250));
#245=PRESENTATION_STYLE_ASSIGNMENT((#251));
#246=PRESENTATION_STYLE_ASSIGNMENT((#227));
#247=PRESENTATION_STYLE_ASSIGNMENT((#228));
#248=PRESENTATION_STYLE_ASSIGNMENT((#229));
#249=PRESENTATION_STYLE_ASSIGNMENT((#28));
#250=POINT_STYLE('',#252,POSITIVE_LENGTH_MEASURE(3.),#254);
#251=POINT_STYLE('',#253,POSITIVE_LENGTH_MEASURE(3.),#254);
#252=PRE_DEFINED_POINT_MARKER_SYMBOL('plus');
#253=PRE_DEFINED_POINT_MARKER_SYMBOL('plus');
#254=COLOUR_RGB('Medium Maroon',0.6,0.4,0.4);
#255=COLOUR_RGB('Light Gray',0.8,0.8,0.8);
#256=AXIS2_PLACEMENT_3D('',#358,#288,#289);
#257=AXIS2_PLACEMENT_3D('MCS',#397,#290,#291);
#258=AXIS2_PLACEMENT_3D('PCS',#398,#292,#293);
#259=AXIS2_PLACEMENT_3D('',#399,#294,#295);
#260=AXIS2_PLACEMENT_3D('',#404,#297,#298);
#261=AXIS2_PLACEMENT_3D('',#410,#299,#300);
#262=AXIS2_PLACEMENT_3D('',#419,#303,#304);
#263=AXIS2_PLACEMENT_3D('',#420,#305,#306);
#264=AXIS2_PLACEMENT_3D('',#424,#308,#309);
#265=AXIS2_PLACEMENT_3D('',#425,#310,#311);
#266=AXIS2_PLACEMENT_3D('',#428,#314,#315);
#267=AXIS2_PLACEMENT_3D('',#429,#316,#317);
#268=AXIS2_PLACEMENT_3D('',#431,#318,#319);
#269=AXIS2_PLACEMENT_3D('',#433,#320,#321);
#270=AXIS2_PLACEMENT_3D('',#435,#322,#323);
#271=AXIS2_PLACEMENT_3D('',#437,#324,#325);
#272=AXIS2_PLACEMENT_3D('',#438,#326,#327);
#273=AXIS2_PLACEMENT_3D('',#440,#328,#329);
#274=AXIS2_PLACEMENT_3D('',#441,#330,#331);
#275=AXIS2_PLACEMENT_3D('',#442,#332,#333);
#276=AXIS2_PLACEMENT_3D('',#444,#334,#335);
#277=AXIS2_PLACEMENT_3D('',#445,#336,#337);
#278=AXIS2_PLACEMENT_3D('',#447,#338,#339);
#279=AXIS2_PLACEMENT_3D('',#449,#340,#341);
#280=AXIS2_PLACEMENT_3D('',#450,#342,#343);
#281=AXIS2_PLACEMENT_3D('',#451,#344,#345);
#282=AXIS2_PLACEMENT_3D('',#452,#346,#347);
#283=AXIS2_PLACEMENT_3D('',#454,#348,#349);
#284=AXIS2_PLACEMENT_3D('',#455,#350,#351);
#285=AXIS2_PLACEMENT_3D('',#456,#352,#353);
#286=AXIS2_PLACEMENT_3D('',#458,#354,#355);
#287=AXIS2_PLACEMENT_3D('',#459,#356,#357);
#288=DIRECTION('',(0.,0.,1.));
#289=DIRECTION('',(1.,0.,0.));
#290=DIRECTION('',(0.,0.,1.));
#291=DIRECTION('',(1.,0.,0.));
#292=DIRECTION('',(0.,0.,1.));
#293=DIRECTION('',(1.,0.,0.));
#294=DIRECTION('',(0.,0.,-1.));
#295=DIRECTION('',(1.,0.,0.));
#296=DIRECTION('',(0.154508497187474,0.024471741852423,0.987688340595138));
#297=DIRECTION('',(0.,0.,1.));
#298=DIRECTION('',(1.,0.,0.));
#299=DIRECTION('',(0.,0.,1.));
#300=DIRECTION('',(1.,0.,-3.8119056051273E-018));
#301=DIRECTION('',(0.156434465040229,-0.987688340595138,0.));
#302=DIRECTION('',(-0.156434465040229,0.987688340595138,0.));
#303=DIRECTION('',(0.975528258147577,0.154508497187472,-0.156434465040231));
#304=DIRECTION('',(-0.158335847456831,0.,-0.987385314560697));
#305=DIRECTION('',(0.,0.,-1.));
#306=DIRECTION('',(1.,0.,0.));
#307=DIRECTION('',(-0.156434465040231,2.36233817357824E-016,0.987688340595138));
#308=DIRECTION('',(0.,0.,1.));
#309=DIRECTION('',(1.,0.,0.));
#310=DIRECTION('',(0.,0.,1.));
#311=DIRECTION('',(1.,0.,-3.8119056051273E-018));
#312=DIRECTION('',(-1.51011362679619E-015,-1.,0.));
#313=DIRECTION('',(1.51011362679619E-015,1.,0.));
#314=DIRECTION('',(0.987688340595138,-1.49152162216043E-015,0.156434465040231));
#315=DIRECTION('',(0.156434465040231,0.,-0.987688340595138));
#316=DIRECTION('',(0.,0.,-1.));
#317=DIRECTION('',(1.,0.,0.));
#318=DIRECTION('',(0.,0.,-1.));
#319=DIRECTION('',(1.,0.,0.));
#320=DIRECTION('',(0.,0.,-1.));
#321=DIRECTION('',(1.,0.,0.));
#322=DIRECTION('',(0.,0.,-1.));
#323=DIRECTION('',(1.,0.,0.));
#324=DIRECTION('',(0.,0.,1.));
#325=DIRECTION('',(1.,0.,0.));
#326=DIRECTION('',(0.,0.,-1.));
#327=DIRECTION('',(-1.,0.,0.));
#328=DIRECTION('',(0.,0.,-1.));
#329=DIRECTION('',(-1.,0.,0.));
#330=DIRECTION('',(0.,0.,-1.));
#331=DIRECTION('',(-1.,0.,0.));
#332=DIRECTION('',(0.,1.17145536458252E-015,1.));
#333=DIRECTION('',(0.,1.,-1.17024996395261E-015));
#334=DIRECTION('',(0.,1.17145536458252E-015,1.));
#335=DIRECTION('',(0.,-1.,9.34468273479435E-016));
#336=DIRECTION('',(0.,0.,1.));
#337=DIRECTION('',(1.,0.,0.));
#338=DIRECTION('',(0.,1.17145536458252E-015,1.));
#339=DIRECTION('',(0.,-1.,1.10727030381498E-015));
#340=DIRECTION('',(0.,1.17145536458252E-015,1.));
#341=DIRECTION('',(0.,-1.,1.47636040508664E-015));
#342=DIRECTION('',(0.,1.17145536458252E-015,1.));
#343=DIRECTION('',(0.,-1.,1.13486582540539E-015));
#344=DIRECTION('',(0.,0.,1.));
#345=DIRECTION('',(1.,0.,0.));
#346=DIRECTION('',(0.,0.,-1.));
#347=DIRECTION('',(-1.,0.,0.));
#348=DIRECTION('',(0.,0.,-1.));
#349=DIRECTION('',(-1.,0.,0.));
#350=DIRECTION('',(0.,0.,-1.));
#351=DIRECTION('',(-1.,0.,0.));
#352=DIRECTION('',(0.,0.,-1.));
#353=DIRECTION('',(-1.,0.,0.));
#354=DIRECTION('',(0.,0.,-1.));
#355=DIRECTION('',(-1.,0.,0.));
#356=DIRECTION('',(0.,0.,-1.));
#357=DIRECTION('',(-1.,0.,0.));
#358=CARTESIAN_POINT('',(0.,0.,0.));
#359=CARTESIAN_POINT('',(0.,0.,0.));
#360=CARTESIAN_POINT('',(-5.69890236332401,-13.2925496585524,-8.56953397132543E-016));
#361=CARTESIAN_POINT('',(5.04486291097631,4.57795592593804,3.25260651745651E-016));
#362=CARTESIAN_POINT('',(5.69830315132772,0.452296618669637,3.25260651745651E-016));
#363=CARTESIAN_POINT('',(5.78764514863192,-0.394685736294436,3.25260651745651E-016));
#364=CARTESIAN_POINT('',(5.7890800236542,-1.67220735340771,3.25260651745651E-016));
#365=CARTESIAN_POINT('',(5.65792104490628,-2.94297911272893,3.25260651745651E-016));
#366=CARTESIAN_POINT('',(5.39558493017552,-4.19327639806838,3.25260651745651E-016));
#367=CARTESIAN_POINT('',(5.00490480317715,-5.40959567399954,3.25260651745651E-016));
#368=CARTESIAN_POINT('',(4.49010026346488,-6.57880045831863,3.25260651745651E-016));
#369=CARTESIAN_POINT('',(3.85673116470945,-7.6882629968614,3.25260651745651E-016));
#370=CARTESIAN_POINT('',(3.11163818775629,-8.72600092181293,3.25260651745651E-016));
#371=CARTESIAN_POINT('',(2.2628683745769,-9.68080631819291,3.25260651745651E-016));
#372=CARTESIAN_POINT('',(1.3195887639917,-10.5423671795835,3.25260651745651E-016));
#373=CARTESIAN_POINT('',(0.291986881496897,-11.3013783209011,3.25260651745651E-016));
#374=CARTESIAN_POINT('',(-0.808838831017982,-11.9496423816765,3.25260651745651E-016));
#375=CARTESIAN_POINT('',(-1.97099928487003,-12.4801578113467,3.25260651745651E-016));
#376=CARTESIAN_POINT('',(-3.18194280486603,-12.8871950745821,3.25260651745651E-016));
#377=CARTESIAN_POINT('',(-4.42859097406973,-13.1663579120507,3.25260651745651E-016));
#378=CARTESIAN_POINT('',(-5.27451648426341,-13.2652069297112,3.25260651745651E-016));
#379=CARTESIAN_POINT('',(-5.69890236332403,-13.2925496585524,3.25260651745651E-016));
#380=CARTESIAN_POINT('',(-5.69890236332403,-11.0738885304423,3.25260651745651E-016));
#381=CARTESIAN_POINT('',(-5.69890236332402,-6.77523259472901,3.25260651745651E-016));
#382=CARTESIAN_POINT('',(-5.69890236332401,-2.33791033850883,3.25260651745651E-016));
#383=CARTESIAN_POINT('',(-5.70183187395976,0.225578423287711,3.25260651745651E-016));
#384=CARTESIAN_POINT('',(-5.66976261190266,1.05389694963246,3.25260651745651E-016));
#385=CARTESIAN_POINT('',(-5.49575107494983,2.42341798306873,3.25260651745651E-016));
#386=CARTESIAN_POINT('',(-5.06278966150593,4.09864747553033,3.25260651745651E-016));
#387=CARTESIAN_POINT('',(-4.21325343358711,5.99322695068676,3.25260651745651E-016));
#388=CARTESIAN_POINT('',(-3.05783206816221,7.71837757094174,3.25260651745651E-016));
#389=CARTESIAN_POINT('',(-1.62929316395557,9.22516879395107,3.25260651745651E-016));
#390=CARTESIAN_POINT('',(0.0318447428078528,10.4708670103169,3.25260651745651E-016));
#391=CARTESIAN_POINT('',(1.87847018160376,11.4201391957089,3.25260651745651E-016));
#392=CARTESIAN_POINT('',(3.19829209226341,11.8374222068535,3.25260651745651E-016));
#393=CARTESIAN_POINT('',(3.87103488557373,11.9892143992917,3.25260651745651E-016));
#394=CARTESIAN_POINT('',(4.45794889827502,8.28358516261485,3.25260651745651E-016));
#395=CARTESIAN_POINT('',(5.04486291097631,4.57795592593804,3.25260651745651E-016));
#396=CARTESIAN_POINT('',(5.69830315132772,0.452296618669637,3.25260651745651E-016));
#397=CARTESIAN_POINT('',(0.,0.,0.));
#398=CARTESIAN_POINT('',(-5.69890236332401,-13.2925496585524,-8.56953397132543E-016));
#399=CARTESIAN_POINT('',(-6.48785494313046,-1.04723442090255,-4.76));
#400=CARTESIAN_POINT('',(4.8871488700861,0.754389191743203,-4.76));
#401=CARTESIAN_POINT('',(-4.94499242737924,-12.4602153921398,-4.76));
#402=CARTESIAN_POINT('',(5.33518842128667,0.825351685303361,-1.89592812756865));
#403=CARTESIAN_POINT('',(5.6317769236776,0.87232668926124,2.16840434497101E-016));
#404=CARTESIAN_POINT('',(-6.48785494313046,-1.04723442090255,3.25260651745651E-016));
#405=CARTESIAN_POINT('',(-5.69890236332403,-13.2925496585524,0.));
#406=CARTESIAN_POINT('',(-5.69890236332403,-13.2925496585524,-1.7699524915115E-016));
#407=CARTESIAN_POINT('',(-5.44734470776822,-13.024262833804,-1.58827252879362));
#408=CARTESIAN_POINT('',(-5.19600137705808,-12.7474401619669,-3.1751918637682));
#409=CARTESIAN_POINT('',(-4.94499242737924,-12.4602153921398,-4.76));
#410=CARTESIAN_POINT('',(-6.48785494313046,-1.04723442090255,6.50521303491303E-016));
#411=CARTESIAN_POINT('',(4.8871488700861,0.754389191743185,-4.76));
#412=CARTESIAN_POINT('',(3.25667986081361,11.0487653686682,-4.76));
#413=CARTESIAN_POINT('',(3.25667986081361,11.0487653686682,-4.76));
#414=CARTESIAN_POINT('',(3.45960300996949,11.3718099742112,-3.17550004535716));
#415=CARTESIAN_POINT('',(3.66452571004219,11.6846893742529,-1.58857090864592));
#416=CARTESIAN_POINT('',(3.87103488557373,11.9892143992917,6.63507643148035E-016));
#417=CARTESIAN_POINT('',(3.87103488557373,11.9892143992917,0.));
#418=CARTESIAN_POINT('',(5.6317769236776,0.872326689261222,3.25260651745651E-016));
#419=CARTESIAN_POINT('',(5.6317769236776,0.872326689261222,6.50521303491303E-016));
#420=CARTESIAN_POINT('',(6.5718022392081,0.0194171101081187,-4.76));
#421=CARTESIAN_POINT('',(-4.94499242737922,0.0194171101081361,-4.76));
#422=CARTESIAN_POINT('',(-5.3986168479435,0.0194171101081368,-1.89592812756865));
#423=CARTESIAN_POINT('',(-5.69890236332401,0.0194171101081372,2.16840434497101E-016));
#424=CARTESIAN_POINT('',(6.5718022392081,0.0194171101081187,3.25260651745651E-016));
#425=CARTESIAN_POINT('',(6.5718022392081,0.0194171101081187,6.50521303491303E-016));
#426=CARTESIAN_POINT('',(-4.94499242737924,-11.4679534108582,-4.76));
#427=CARTESIAN_POINT('',(-5.69890236332401,0.0194171101081372,3.25260651745651E-016));
#428=CARTESIAN_POINT('',(-5.69890236332403,-11.4679534108582,6.50521303491303E-016));
#429=CARTESIAN_POINT('',(-0.798902363324027,-7.80112318137382,0.));
#430=CARTESIAN_POINT('',(-0.151580988377662,-7.80112318137382,0.));
#431=CARTESIAN_POINT('',(-4.1369026013946E-015,2.34291072916505E-015,-2.16840434497101E-016));
#432=CARTESIAN_POINT('',(3.27685856211258,2.34291072916505E-015,-2.16840434497101E-016));
#433=CARTESIAN_POINT('',(-2.49890236332403,-7.80112318137382,0.));
#434=CARTESIAN_POINT('',(-1.85158098837766,-7.80112318137382,0.));
#435=CARTESIAN_POINT('',(1.24895927065621,6.98860350703307,0.));
#436=CARTESIAN_POINT('',(1.89628064560257,6.98860350703307,0.));
#437=CARTESIAN_POINT('',(0.,0.,0.));
#438=CARTESIAN_POINT('',(-2.49890236332403,-7.80112318137382,-0.26));
#439=CARTESIAN_POINT('',(-2.84890236332402,-7.80112318137382,-0.26));
#440=CARTESIAN_POINT('',(-2.49890236332403,-7.80112318137382,-0.26));
#441=CARTESIAN_POINT('',(-2.49890236332403,-7.80112318137382,0.0399999999999999));
#442=CARTESIAN_POINT('',(-1.73472347597681E-015,-1.99147411979041E-015,
-1.4500000000001));
#443=CARTESIAN_POINT('',(-1.73472347597681E-015,3.14999999999999,-1.45000000000011));
#444=CARTESIAN_POINT('',(-1.83697019872103E-015,2.34291072916505E-015,2.25));
#445=CARTESIAN_POINT('',(-1.83697019872103E-015,-5.86899137655844E-015,
-4.76));
#446=CARTESIAN_POINT('',(2.35,-5.86899137655844E-015,-4.76));
#447=CARTESIAN_POINT('',(-1.83697019872103E-015,-3.54558528097798E-015,
-2.77664991614216));
#448=CARTESIAN_POINT('',(-1.83697019872103E-015,-2.35,-2.77664991614216));
#449=CARTESIAN_POINT('',(-1.83697019872103E-015,-1.17145536458252E-014,
-9.75));
#450=CARTESIAN_POINT('',(-1.73472347597681E-015,-3.54558528097798E-015,
-2.77664991614216));
#451=CARTESIAN_POINT('',(0.,0.,-4.76));
#452=CARTESIAN_POINT('',(-0.798902363324027,-7.80112318137382,-0.26));
#453=CARTESIAN_POINT('',(-1.14890236332402,-7.80112318137382,-0.26));
#454=CARTESIAN_POINT('',(-0.798902363324027,-7.80112318137382,-0.26));
#455=CARTESIAN_POINT('',(-0.798902363324027,-7.80112318137382,0.0399999999999999));
#456=CARTESIAN_POINT('',(1.24895927065621,6.98860350703307,-0.26000000000001));
#457=CARTESIAN_POINT('',(0.898959270656209,6.98860350703307,-0.26000000000001));
#458=CARTESIAN_POINT('',(1.24895927065621,6.98860350703307,-0.26000000000001));
#459=CARTESIAN_POINT('',(1.24895927065621,6.98860350703307,0.0399999999999897));
#460=MECHANICAL_DESIGN_GEOMETRIC_PRESENTATION_REPRESENTATION('',(#238,#239,
#240,#241,#242,#243),#461);
#461=(
GEOMETRIC_REPRESENTATION_CONTEXT(3)
GLOBAL_UNCERTAINTY_ASSIGNED_CONTEXT((#462))
GLOBAL_UNIT_ASSIGNED_CONTEXT((#468,#464,#463))
REPRESENTATION_CONTEXT('1547037932181','TOP_LEVEL_ASSEMBLY_PART')
);
#462=UNCERTAINTY_MEASURE_WITH_UNIT(LENGTH_MEASURE(0.0508),#468,
'DISTANCE_ACCURACY_VALUE','Maximum Tolerance applied to model');
#463=(
NAMED_UNIT(*)
SI_UNIT($,.STERADIAN.)
SOLID_ANGLE_UNIT()
);
#464=(
CONVERSION_BASED_UNIT('DEGREE',#466)
NAMED_UNIT(#465)
PLANE_ANGLE_UNIT()
);
#465=DIMENSIONAL_EXPONENTS(0.,0.,0.,0.,0.,0.,0.);
#466=PLANE_ANGLE_MEASURE_WITH_UNIT(PLANE_ANGLE_MEASURE(0.0174532925),#467);
#467=(
NAMED_UNIT(*)
PLANE_ANGLE_UNIT()
SI_UNIT($,.RADIAN.)
);
#468=(
LENGTH_UNIT()
NAMED_UNIT(*)
SI_UNIT(.MILLI.,.METRE.)
);
ENDSEC;
END-ISO-10303-21;
