ISO-10303-21;
HEADER;
/* Generated by software containing ST-Developer
 * from STEP Tools, Inc. (www.steptools.com) 
 */
/* OPTION: using custom schema-name function */

FILE_DESCRIPTION(
/* description */ (''),
/* implementation_level */ '2;1');

FILE_NAME(
/* name */ 'aaa321254_a.stp',
/* time_stamp */ '2018-07-03T13:17:39+02:00',
/* author */ (''),
/* organization */ ('SMS'),
/* preprocessor_version */ 'ST-DEVELOPER v15',
/* originating_system */ 'SIEMENS PLM Software NX 8.5',
/* authorisation */ '');

FILE_SCHEMA (('AUTOMOTIVE_DESIGN { 1 0 10303 214 3 1 1 1 }'));
ENDSEC;

DATA;
#10=CONSTRUCTIVE_GEOMETRY_REPRESENTATION_RELATIONSHIP(
'supplemental geometry','',#26,#11);
#11=CONSTRUCTIVE_GEOMETRY_REPRESENTATION('supplemental geometry',(#235,
#236),#421);
#12=GEOMETRICALLY_BOUNDED_WIREFRAME_SHAPE_REPRESENTATION(
'AAA321254_A-None',(#27),#421);
#13=SHAPE_REPRESENTATION_RELATIONSHIP('None',
'relationship between AAA321254_A-None and AAA321254_A-None',#26,#15);
#14=SHAPE_REPRESENTATION_RELATIONSHIP('None',
'relationship between AAA321254_A-None and AAA321254_A-None',#26,#12);
#15=ADVANCED_BREP_SHAPE_REPRESENTATION('AAA321254_A-None',(#33),#421);
#16=SHAPE_DEFINITION_REPRESENTATION(#17,#26);
#17=PRODUCT_DEFINITION_SHAPE('','',#18);
#18=PRODUCT_DEFINITION(' ','',#20,#19);
#19=PRODUCT_DEFINITION_CONTEXT('part definition',#25,'design');
#20=PRODUCT_DEFINITION_FORMATION_WITH_SPECIFIED_SOURCE(' ',' ',#22,
 .NOT_KNOWN.);
#21=PRODUCT_RELATED_PRODUCT_CATEGORY('part','',(#22));
#22=PRODUCT('AAA321254_A','AAA321254_A','MASTER_INSERT',(#23));
#23=PRODUCT_CONTEXT(' ',#25,'mechanical');
#24=APPLICATION_PROTOCOL_DEFINITION('international standard',
'automotive_design',2010,#25);
#25=APPLICATION_CONTEXT(
'core data for automotive mechanical design processes');
#26=SHAPE_REPRESENTATION('AAA321254_A-None',(#234),#421);
#27=GEOMETRIC_CURVE_SET('None',(#306,#307,#214));
#28=SURFACE_STYLE_USAGE(.BOTH.,#29);
#29=SURFACE_SIDE_STYLE('',(#30));
#30=SURFACE_STYLE_FILL_AREA(#31);
#31=FILL_AREA_STYLE('',(#32));
#32=FILL_AREA_STYLE_COLOUR('',#233);
#33=MANIFOLD_SOLID_BREP('CUT',#34);
#34=CLOSED_SHELL('',(#43,#44,#45,#46,#47,#48,#49,#50,#51,#52));
#35=CONICAL_SURFACE('',#239,2.4532694666934E-015,11.);
#36=CONICAL_SURFACE('',#243,2.4532694666934E-015,11.);
#37=CONICAL_SURFACE('',#246,2.4532694666934E-015,11.);
#38=CONICAL_SURFACE('',#248,2.4532694666934E-015,11.);
#39=CIRCLE('',#238,1.);
#40=CIRCLE('',#242,1.);
#41=CIRCLE('',#245,1.);
#42=CIRCLE('',#247,1.);
#43=ADVANCED_FACE('',(#59),#53,.T.);
#44=ADVANCED_FACE('',(#60),#35,.T.);
#45=ADVANCED_FACE('',(#61),#54,.T.);
#46=ADVANCED_FACE('',(#62),#55,.T.);
#47=ADVANCED_FACE('',(#63),#36,.T.);
#48=ADVANCED_FACE('',(#64),#56,.T.);
#49=ADVANCED_FACE('',(#65),#37,.T.);
#50=ADVANCED_FACE('',(#66),#38,.T.);
#51=ADVANCED_FACE('',(#67),#57,.F.);
#52=ADVANCED_FACE('',(#68),#58,.T.);
#53=PLANE('',#237);
#54=PLANE('',#240);
#55=PLANE('',#241);
#56=PLANE('',#244);
#57=PLANE('',#249);
#58=PLANE('',#250);
#59=FACE_OUTER_BOUND('',#69,.T.);
#60=FACE_OUTER_BOUND('',#70,.T.);
#61=FACE_OUTER_BOUND('',#71,.T.);
#62=FACE_OUTER_BOUND('',#72,.T.);
#63=FACE_OUTER_BOUND('',#73,.T.);
#64=FACE_OUTER_BOUND('',#74,.T.);
#65=FACE_OUTER_BOUND('',#75,.T.);
#66=FACE_OUTER_BOUND('',#76,.T.);
#67=FACE_OUTER_BOUND('',#77,.T.);
#68=FACE_OUTER_BOUND('',#78,.T.);
#69=EDGE_LOOP('',(#79,#80,#81,#82,#83,#84));
#70=EDGE_LOOP('',(#85,#86,#87));
#71=EDGE_LOOP('',(#88,#89,#90,#91,#92,#93));
#72=EDGE_LOOP('',(#94,#95,#96,#97,#98,#99));
#73=EDGE_LOOP('',(#100,#101,#102));
#74=EDGE_LOOP('',(#103,#104,#105,#106,#107,#108));
#75=EDGE_LOOP('',(#109,#110,#111));
#76=EDGE_LOOP('',(#112,#113,#114));
#77=EDGE_LOOP('',(#115,#116,#117,#118));
#78=EDGE_LOOP('',(#119,#120,#121,#122,#123,#124,#125,#126));
#79=ORIENTED_EDGE('',*,*,#143,.T.);
#80=ORIENTED_EDGE('',*,*,#144,.T.);
#81=ORIENTED_EDGE('',*,*,#145,.F.);
#82=ORIENTED_EDGE('',*,*,#146,.F.);
#83=ORIENTED_EDGE('',*,*,#147,.F.);
#84=ORIENTED_EDGE('',*,*,#148,.T.);
#85=ORIENTED_EDGE('',*,*,#149,.F.);
#86=ORIENTED_EDGE('',*,*,#150,.F.);
#87=ORIENTED_EDGE('',*,*,#145,.T.);
#88=ORIENTED_EDGE('',*,*,#150,.T.);
#89=ORIENTED_EDGE('',*,*,#151,.T.);
#90=ORIENTED_EDGE('',*,*,#152,.F.);
#91=ORIENTED_EDGE('',*,*,#153,.F.);
#92=ORIENTED_EDGE('',*,*,#154,.F.);
#93=ORIENTED_EDGE('',*,*,#146,.T.);
#94=ORIENTED_EDGE('',*,*,#155,.T.);
#95=ORIENTED_EDGE('',*,*,#156,.T.);
#96=ORIENTED_EDGE('',*,*,#157,.F.);
#97=ORIENTED_EDGE('',*,*,#148,.F.);
#98=ORIENTED_EDGE('',*,*,#158,.F.);
#99=ORIENTED_EDGE('',*,*,#159,.T.);
#100=ORIENTED_EDGE('',*,*,#160,.F.);
#101=ORIENTED_EDGE('',*,*,#143,.F.);
#102=ORIENTED_EDGE('',*,*,#157,.T.);
#103=ORIENTED_EDGE('',*,*,#161,.T.);
#104=ORIENTED_EDGE('',*,*,#162,.T.);
#105=ORIENTED_EDGE('',*,*,#163,.F.);
#106=ORIENTED_EDGE('',*,*,#159,.F.);
#107=ORIENTED_EDGE('',*,*,#164,.F.);
#108=ORIENTED_EDGE('',*,*,#153,.T.);
#109=ORIENTED_EDGE('',*,*,#165,.F.);
#110=ORIENTED_EDGE('',*,*,#155,.F.);
#111=ORIENTED_EDGE('',*,*,#163,.T.);
#112=ORIENTED_EDGE('',*,*,#166,.F.);
#113=ORIENTED_EDGE('',*,*,#161,.F.);
#114=ORIENTED_EDGE('',*,*,#152,.T.);
#115=ORIENTED_EDGE('',*,*,#147,.T.);
#116=ORIENTED_EDGE('',*,*,#154,.T.);
#117=ORIENTED_EDGE('',*,*,#164,.T.);
#118=ORIENTED_EDGE('',*,*,#158,.T.);
#119=ORIENTED_EDGE('',*,*,#156,.F.);
#120=ORIENTED_EDGE('',*,*,#165,.T.);
#121=ORIENTED_EDGE('',*,*,#162,.F.);
#122=ORIENTED_EDGE('',*,*,#166,.T.);
#123=ORIENTED_EDGE('',*,*,#151,.F.);
#124=ORIENTED_EDGE('',*,*,#149,.T.);
#125=ORIENTED_EDGE('',*,*,#144,.F.);
#126=ORIENTED_EDGE('',*,*,#160,.T.);
#127=VERTEX_POINT('',#371);
#128=VERTEX_POINT('',#372);
#129=VERTEX_POINT('',#374);
#130=VERTEX_POINT('',#376);
#131=VERTEX_POINT('',#378);
#132=VERTEX_POINT('',#380);
#133=VERTEX_POINT('',#384);
#134=VERTEX_POINT('',#388);
#135=VERTEX_POINT('',#390);
#136=VERTEX_POINT('',#392);
#137=VERTEX_POINT('',#396);
#138=VERTEX_POINT('',#397);
#139=VERTEX_POINT('',#399);
#140=VERTEX_POINT('',#402);
#141=VERTEX_POINT('',#408);
#142=VERTEX_POINT('',#410);
#143=EDGE_CURVE('',#127,#128,#167,.T.);
#144=EDGE_CURVE('',#128,#129,#168,.T.);
#145=EDGE_CURVE('',#130,#129,#169,.T.);
#146=EDGE_CURVE('',#131,#130,#170,.T.);
#147=EDGE_CURVE('',#132,#131,#171,.T.);
#148=EDGE_CURVE('',#132,#127,#172,.T.);
#149=EDGE_CURVE('',#133,#129,#39,.T.);
#150=EDGE_CURVE('',#130,#133,#173,.T.);
#151=EDGE_CURVE('',#133,#134,#174,.T.);
#152=EDGE_CURVE('',#135,#134,#175,.T.);
#153=EDGE_CURVE('',#136,#135,#176,.T.);
#154=EDGE_CURVE('',#131,#136,#177,.T.);
#155=EDGE_CURVE('',#137,#138,#178,.T.);
#156=EDGE_CURVE('',#138,#139,#179,.T.);
#157=EDGE_CURVE('',#127,#139,#180,.T.);
#158=EDGE_CURVE('',#140,#132,#181,.T.);
#159=EDGE_CURVE('',#140,#137,#182,.T.);
#160=EDGE_CURVE('',#128,#139,#40,.T.);
#161=EDGE_CURVE('',#135,#141,#183,.T.);
#162=EDGE_CURVE('',#141,#142,#184,.T.);
#163=EDGE_CURVE('',#137,#142,#185,.T.);
#164=EDGE_CURVE('',#136,#140,#186,.T.);
#165=EDGE_CURVE('',#138,#142,#41,.T.);
#166=EDGE_CURVE('',#141,#134,#42,.T.);
#167=LINE('',#370,#187);
#168=LINE('',#373,#188);
#169=LINE('',#375,#189);
#170=LINE('',#377,#190);
#171=LINE('',#379,#191);
#172=LINE('',#381,#192);
#173=LINE('',#385,#193);
#174=LINE('',#387,#194);
#175=LINE('',#389,#195);
#176=LINE('',#391,#196);
#177=LINE('',#393,#197);
#178=LINE('',#395,#198);
#179=LINE('',#398,#199);
#180=LINE('',#400,#200);
#181=LINE('',#401,#201);
#182=LINE('',#403,#202);
#183=LINE('',#407,#203);
#184=LINE('',#409,#204);
#185=LINE('',#411,#205);
#186=LINE('',#412,#206);
#187=VECTOR('',#257,1.);
#188=VECTOR('',#258,1.);
#189=VECTOR('',#259,1.);
#190=VECTOR('',#260,1.);
#191=VECTOR('',#261,1.);
#192=VECTOR('',#262,1.);
#193=VECTOR('',#267,1.);
#194=VECTOR('',#270,1.);
#195=VECTOR('',#271,1.);
#196=VECTOR('',#272,1.);
#197=VECTOR('',#273,1.);
#198=VECTOR('',#276,1.);
#199=VECTOR('',#277,1.);
#200=VECTOR('',#278,1.);
#201=VECTOR('',#279,1.);
#202=VECTOR('',#280,1.);
#203=VECTOR('',#287,1.);
#204=VECTOR('',#288,1.);
#205=VECTOR('',#289,1.);
#206=VECTOR('',#290,1.);
#207=CURVE_STYLE('',#211,POSITIVE_LENGTH_MEASURE(0.18),#210);
#208=CURVE_STYLE('',#212,POSITIVE_LENGTH_MEASURE(0.18),#232);
#209=CURVE_STYLE('',#213,POSITIVE_LENGTH_MEASURE(0.18),#232);
#210=DRAUGHTING_PRE_DEFINED_COLOUR('blue');
#211=DRAUGHTING_PRE_DEFINED_CURVE_FONT('continuous');
#212=DRAUGHTING_PRE_DEFINED_CURVE_FONT('continuous');
#213=DRAUGHTING_PRE_DEFINED_CURVE_FONT('continuous');
#214=B_SPLINE_CURVE_WITH_KNOTS('CUTTING EDGE LINE',3,(#308,#309,#310,#311,
#312,#313,#314,#315,#316,#317,#318,#319,#320,#321,#322,#323,#324,#325,#326,
#327,#328,#329,#330,#331,#332,#333,#334,#335,#336,#337,#338,#339,#340,#341,
#342,#343,#344,#345,#346,#347,#348,#349,#350,#351,#352,#353,#354,#355,#356,
#357,#358,#359,#360,#361,#362,#363,#364,#365,#366,#367),.UNSPECIFIED.,.F.,
 .F.,(1,1,2,1,1,1,1,1,1,1,1,1,1,1,1,1,1,1,1,1,1,1,1,1,1,1,1,1,1,1,1,1,1,
1,1,1,1,1,1,1,1,1,1,1,1,1,1,1,1,1,1,1,1,1,1,1,1,1,1,2,1,1),(-0.00539991584999999,
-0.002699957925,0.,0.1142001683,0.227686585548125,0.2284003366,0.2297503155625,
0.231100294525,0.23380025245,0.236500210375,0.2392001683,0.241900126225,
0.24460008415,0.247300042075,0.2486500210375,0.25,0.250713751051875,0.30710008415,
0.3642001683,0.477686585548125,0.4784003366,0.4797503155625,0.481100294525,
0.48380025245,0.486500210375,0.4892001683,0.491900126225,0.49460008415,
0.497300042075,0.4986500210375,0.5,0.500713751051875,0.55710008415,0.6142001683,
0.727686585548125,0.7284003366,0.7297503155625,0.731100294525,0.73380025245,
0.736500210375,0.7392001683,0.741900126225,0.74460008415,0.747300042075,
0.7486500210375,0.75,0.750713751051875,0.80710008415,0.8642001683,0.977686585548125,
0.9784003366,0.9797503155625,0.981100294525,0.98380025245,0.986500210375,
0.9892001683,0.991900126225,0.99460008415,0.997300042075,1.,1.1142001683,
1.22768658554812),.UNSPECIFIED.);
#215=PRESENTATION_LAYER_ASSIGNMENT('1','Layer 1',(#306,#307,#214,#235,#236,
#33));
#216=STYLED_ITEM('',(#222),#306);
#217=STYLED_ITEM('',(#223),#307);
#218=STYLED_ITEM('',(#224),#214);
#219=STYLED_ITEM('',(#225),#235);
#220=STYLED_ITEM('',(#226),#236);
#221=STYLED_ITEM('',(#227),#33);
#222=PRESENTATION_STYLE_ASSIGNMENT((#228));
#223=PRESENTATION_STYLE_ASSIGNMENT((#229));
#224=PRESENTATION_STYLE_ASSIGNMENT((#207));
#225=PRESENTATION_STYLE_ASSIGNMENT((#208));
#226=PRESENTATION_STYLE_ASSIGNMENT((#209));
#227=PRESENTATION_STYLE_ASSIGNMENT((#28));
#228=POINT_STYLE('',#230,POSITIVE_LENGTH_MEASURE(3.),#232);
#229=POINT_STYLE('',#231,POSITIVE_LENGTH_MEASURE(3.),#232);
#230=PRE_DEFINED_POINT_MARKER_SYMBOL('plus');
#231=PRE_DEFINED_POINT_MARKER_SYMBOL('plus');
#232=COLOUR_RGB('Dark Red Pink',0.8,0.,0.2);
#233=COLOUR_RGB('Pale Gray',0.8,0.8,0.8);
#234=AXIS2_PLACEMENT_3D('',#305,#251,#252);
#235=AXIS2_PLACEMENT_3D('PCS',#368,#253,#254);
#236=AXIS2_PLACEMENT_3D('MCS',#369,#255,#256);
#237=AXIS2_PLACEMENT_3D('',#382,#263,#264);
#238=AXIS2_PLACEMENT_3D('',#383,#265,#266);
#239=AXIS2_PLACEMENT_3D('',#386,#268,#269);
#240=AXIS2_PLACEMENT_3D('',#394,#274,#275);
#241=AXIS2_PLACEMENT_3D('',#404,#281,#282);
#242=AXIS2_PLACEMENT_3D('',#405,#283,#284);
#243=AXIS2_PLACEMENT_3D('',#406,#285,#286);
#244=AXIS2_PLACEMENT_3D('',#413,#291,#292);
#245=AXIS2_PLACEMENT_3D('',#414,#293,#294);
#246=AXIS2_PLACEMENT_3D('',#415,#295,#296);
#247=AXIS2_PLACEMENT_3D('',#416,#297,#298);
#248=AXIS2_PLACEMENT_3D('',#417,#299,#300);
#249=AXIS2_PLACEMENT_3D('',#418,#301,#302);
#250=AXIS2_PLACEMENT_3D('',#419,#303,#304);
#251=DIRECTION('',(0.,0.,1.));
#252=DIRECTION('',(1.,0.,0.));
#253=DIRECTION('',(0.,0.,1.));
#254=DIRECTION('',(1.,0.,0.));
#255=DIRECTION('',(0.,0.,1.));
#256=DIRECTION('',(1.,0.,0.));
#257=DIRECTION('',(-0.190808995376545,1.81156113249929E-016,0.981627183447664));
#258=DIRECTION('',(0.,1.,0.));
#259=DIRECTION('',(-0.190808995376545,0.,0.981627183447664));
#260=DIRECTION('',(-0.187427559991896,0.187427559991896,0.964231206459825));
#261=DIRECTION('',(0.,1.,0.));
#262=DIRECTION('',(-0.187427559991896,-0.187427559991896,0.964231206459825));
#263=DIRECTION('',(-0.981627183447664,0.,-0.190808995376545));
#264=DIRECTION('',(-0.190808995376545,0.,0.981627183447664));
#265=DIRECTION('',(0.,0.,1.));
#266=DIRECTION('',(1.,0.,0.));
#267=DIRECTION('',(-4.23681079945271E-017,0.190808995376545,0.981627183447664));
#268=DIRECTION('',(0.,0.,1.));
#269=DIRECTION('',(1.,0.,-2.05260708373493E-016));
#270=DIRECTION('',(1.,2.22044604925031E-016,0.));
#271=DIRECTION('',(7.12940771727895E-016,0.190808995376545,0.981627183447664));
#272=DIRECTION('',(0.187427559991897,0.187427559991895,0.964231206459825));
#273=DIRECTION('',(1.,2.22044604925031E-016,0.));
#274=DIRECTION('',(-2.17965020132308E-016,0.981627183447664,-0.190808995376545));
#275=DIRECTION('',(-4.16333634234434E-017,0.190808995376545,0.981627183447664));
#276=DIRECTION('',(-4.04680334494385E-016,-0.190808995376545,0.981627183447664));
#277=DIRECTION('',(-1.,1.17145536458252E-015,0.));
#278=DIRECTION('',(-2.23524221244456E-016,-0.190808995376545,0.981627183447664));
#279=DIRECTION('',(-1.,1.17145536458252E-015,0.));
#280=DIRECTION('',(0.187427559991895,-0.187427559991896,0.964231206459825));
#281=DIRECTION('',(-1.1499324300698E-015,-0.981627183447664,-0.190808995376545));
#282=DIRECTION('',(-2.22044604925031E-016,-0.190808995376545,0.981627183447664));
#283=DIRECTION('',(0.,0.,1.));
#284=DIRECTION('',(1.,0.,0.));
#285=DIRECTION('',(0.,0.,1.));
#286=DIRECTION('',(1.16909359986641E-015,1.,-2.05260708373493E-016));
#287=DIRECTION('',(0.190808995376545,-6.70572663733368E-016,0.981627183447664));
#288=DIRECTION('',(-2.34291072916505E-015,-1.,0.));
#289=DIRECTION('',(0.190808995376545,-4.47048442488912E-016,0.981627183447664));
#290=DIRECTION('',(-2.34291072916505E-015,-1.,0.));
#291=DIRECTION('',(0.981627183447664,-2.2998648601396E-015,-0.190808995376545));
#292=DIRECTION('',(0.190808995376545,-4.47558656802016E-016,0.981627183447664));
#293=DIRECTION('',(0.,0.,1.));
#294=DIRECTION('',(1.,0.,0.));
#295=DIRECTION('',(0.,0.,1.));
#296=DIRECTION('',(-1.,2.34711157835776E-015,-2.05260708373493E-016));
#297=DIRECTION('',(0.,0.,1.));
#298=DIRECTION('',(1.,0.,0.));
#299=DIRECTION('',(0.,0.,1.));
#300=DIRECTION('',(-3.73931464384754E-015,-1.,-2.05260708373493E-016));
#301=DIRECTION('',(0.,0.,1.));
#302=DIRECTION('',(1.,0.,0.));
#303=DIRECTION('',(0.,0.,1.));
#304=DIRECTION('',(1.,0.,0.));
#305=CARTESIAN_POINT('',(0.,0.,0.));
#306=CARTESIAN_POINT('PCS',(-9.305,-9.305,0.));
#307=CARTESIAN_POINT('MCS',(0.,0.,0.));
#308=CARTESIAN_POINT('',(-8.3704498469498,-9.305,0.));
#309=CARTESIAN_POINT('',(-5.53666666666668,-9.305,0.));
#310=CARTESIAN_POINT('',(-0.0173020833333511,-9.305,0.));
#311=CARTESIAN_POINT('',(5.51936458333331,-9.30500000000001,0.));
#312=CARTESIAN_POINT('',(8.32042289460311,-9.30542602651599,0.));
#313=CARTESIAN_POINT('',(8.40317435802606,-9.30177687713374,0.));
#314=CARTESIAN_POINT('',(8.53281496001664,-9.28256210494861,0.));
#315=CARTESIAN_POINT('',(8.69015030382518,-9.23483508701721,0.));
#316=CARTESIAN_POINT('',(8.86415148756651,-9.14182933849239,0.));
#317=CARTESIAN_POINT('',(9.01666496525098,-9.01666496528557,0.));
#318=CARTESIAN_POINT('',(9.14182933854874,-8.86415148748474,0.));
#319=CARTESIAN_POINT('',(9.23483508702252,-8.69015030378277,0.));
#320=CARTESIAN_POINT('',(9.28256210492675,-8.53281496011767,0.));
#321=CARTESIAN_POINT('',(9.30177687712689,-8.40317435805852,0.));
#322=CARTESIAN_POINT('',(9.30542602651686,-8.32042289459887,0.));
#323=CARTESIAN_POINT('',(9.30499999999999,-6.90353125000002,0.));
#324=CARTESIAN_POINT('',(9.305,-4.13519791666669,0.));
#325=CARTESIAN_POINT('',(9.30500000000001,1.36686458333331,0.));
#326=CARTESIAN_POINT('',(9.30500000000002,5.5193645833333,0.));
#327=CARTESIAN_POINT('',(9.305426026516,8.3204228946031,0.));
#328=CARTESIAN_POINT('',(9.30177687713375,8.40317435802604,0.));
#329=CARTESIAN_POINT('',(9.28256210494862,8.53281496001663,0.));
#330=CARTESIAN_POINT('',(9.23483508701722,8.69015030382517,0.));
#331=CARTESIAN_POINT('',(9.1418293384924,8.8641514875665,0.));
#332=CARTESIAN_POINT('',(9.01666496528558,9.01666496525097,0.));
#333=CARTESIAN_POINT('',(8.86415148748476,9.14182933854874,0.));
#334=CARTESIAN_POINT('',(8.69015030378278,9.23483508702252,0.));
#335=CARTESIAN_POINT('',(8.53281496011768,9.28256210492675,0.));
#336=CARTESIAN_POINT('',(8.40317435805853,9.30177687712689,0.));
#337=CARTESIAN_POINT('',(8.32042289459888,9.30542602651687,0.));
#338=CARTESIAN_POINT('',(6.90353125000003,9.30499999999999,0.));
#339=CARTESIAN_POINT('',(4.13519791666669,9.305,0.));
#340=CARTESIAN_POINT('',(-1.36686458333332,9.305,0.));
#341=CARTESIAN_POINT('',(-5.51936458333333,9.305,0.));
#342=CARTESIAN_POINT('',(-8.32042289460313,9.30542602651598,0.));
#343=CARTESIAN_POINT('',(-8.40317435802608,9.30177687713372,0.));
#344=CARTESIAN_POINT('',(-8.53281496001748,9.28256210494788,0.));
#345=CARTESIAN_POINT('',(-8.69015030383011,9.23483508701289,0.));
#346=CARTESIAN_POINT('',(-8.86415148754691,9.14182933850958,0.));
#347=CARTESIAN_POINT('',(-9.01666496531548,9.01666496522108,0.));
#348=CARTESIAN_POINT('',(-9.14182933853155,8.86415148750435,0.));
#349=CARTESIAN_POINT('',(-9.23483508702684,8.69015030377784,0.));
#350=CARTESIAN_POINT('',(-9.28256210492749,8.53281496011683,0.));
#351=CARTESIAN_POINT('',(-9.30177687712691,8.4031743580585,0.));
#352=CARTESIAN_POINT('',(-9.30542602651688,8.32042289459885,0.));
#353=CARTESIAN_POINT('',(-9.30500000000001,6.90353125,0.));
#354=CARTESIAN_POINT('',(-9.30500000000001,4.13519791666667,0.));
#355=CARTESIAN_POINT('',(-9.30500000000001,-1.36686458333333,0.));
#356=CARTESIAN_POINT('',(-9.30500000000001,-5.51936458333332,0.));
#357=CARTESIAN_POINT('',(-9.30542602651598,-8.32042289460312,0.));
#358=CARTESIAN_POINT('',(-9.30177687713373,-8.40317435802607,0.));
#359=CARTESIAN_POINT('',(-9.2825621049486,-8.53281496001665,0.));
#360=CARTESIAN_POINT('',(-9.2348350870172,-8.69015030382519,0.));
#361=CARTESIAN_POINT('',(-9.14182933849238,-8.86415148756652,0.));
#362=CARTESIAN_POINT('',(-9.01666496528556,-9.016664965251,0.));
#363=CARTESIAN_POINT('',(-8.86415148748473,-9.14182933854875,0.));
#364=CARTESIAN_POINT('',(-8.69015030378276,-9.23483508702253,0.));
#365=CARTESIAN_POINT('',(-8.50134789138464,-9.29210750850761,0.));
#366=CARTESIAN_POINT('',(-8.3704498469498,-9.305,0.));
#367=CARTESIAN_POINT('',(-5.53666666666668,-9.305,0.));
#368=CARTESIAN_POINT('',(-9.305,-9.305,0.));
#369=CARTESIAN_POINT('',(0.,0.,0.));
#370=CARTESIAN_POINT('',(-8.30500000000001,-8.30499999999999,-5.14455401597032));
#371=CARTESIAN_POINT('',(-8.30500000000001,-8.30499999999999,-5.14455401597032));
#372=CARTESIAN_POINT('',(-9.30500000000001,-8.30499999999999,0.));
#373=CARTESIAN_POINT('',(-9.30500000000001,-16.,0.));
#374=CARTESIAN_POINT('',(-9.30500000000001,8.305,0.));
#375=CARTESIAN_POINT('',(-8.305,8.305,-5.14455401597032));
#376=CARTESIAN_POINT('',(-8.305,8.305,-5.14455401597032));
#377=CARTESIAN_POINT('',(-5.75967159383266,5.75967159383266,-18.2391334898819));
#378=CARTESIAN_POINT('',(-8.23590829974255,8.23590829974255,-5.5));
#379=CARTESIAN_POINT('',(-8.23590829974255,-16.,-5.5));
#380=CARTESIAN_POINT('',(-8.23590829974256,-8.23590829974254,-5.5));
#381=CARTESIAN_POINT('',(-5.75967159383266,-5.75967159383265,-18.2391334898819));
#382=CARTESIAN_POINT('',(-9.30500000000001,-16.,0.));
#383=CARTESIAN_POINT('',(-8.305,8.305,0.));
#384=CARTESIAN_POINT('',(-8.305,9.305,8.67361737988404E-016));
#385=CARTESIAN_POINT('',(-8.305,8.305,-5.14455401597032));
#386=CARTESIAN_POINT('',(-8.305,8.305,-5.14455401597032));
#387=CARTESIAN_POINT('',(16.,9.30500000000001,0.));
#388=CARTESIAN_POINT('',(8.30500000000004,9.30499999999997,0.));
#389=CARTESIAN_POINT('',(8.30500000000003,8.30499999999997,-5.14455401597032));
#390=CARTESIAN_POINT('',(8.30500000000003,8.30499999999997,-5.14455401597032));
#391=CARTESIAN_POINT('',(5.75967159383268,5.75967159383263,-18.2391334898819));
#392=CARTESIAN_POINT('',(8.23590829974258,8.23590829974252,-5.5));
#393=CARTESIAN_POINT('',(16.,8.23590829974256,-5.5));
#394=CARTESIAN_POINT('',(16.,9.30500000000001,0.));
#395=CARTESIAN_POINT('',(8.30499999999998,-8.30500000000002,-5.14455401597032));
#396=CARTESIAN_POINT('',(8.30499999999998,-8.30500000000002,-5.14455401597032));
#397=CARTESIAN_POINT('',(8.30499999999998,-9.30500000000002,0.));
#398=CARTESIAN_POINT('',(16.,-9.30500000000002,0.));
#399=CARTESIAN_POINT('',(-8.30500000000001,-9.30499999999999,0.));
#400=CARTESIAN_POINT('',(-8.30500000000001,-8.30499999999999,-5.14455401597032));
#401=CARTESIAN_POINT('',(16.,-8.23590829974257,-5.5));
#402=CARTESIAN_POINT('',(8.23590829974253,-8.23590829974257,-5.5));
#403=CARTESIAN_POINT('',(5.75967159383264,-5.75967159383267,-18.2391334898819));
#404=CARTESIAN_POINT('',(16.,-9.30500000000002,0.));
#405=CARTESIAN_POINT('',(-8.30500000000001,-8.30499999999999,0.));
#406=CARTESIAN_POINT('',(-8.30500000000001,-8.30499999999999,-5.14455401597032));
#407=CARTESIAN_POINT('',(8.30500000000003,8.30499999999997,-5.14455401597032));
#408=CARTESIAN_POINT('',(9.30500000000003,8.30499999999997,0.));
#409=CARTESIAN_POINT('',(9.30500000000004,16.,0.));
#410=CARTESIAN_POINT('',(9.30499999999999,-8.30500000000002,0.));
#411=CARTESIAN_POINT('',(8.30499999999998,-8.30500000000002,-5.14455401597032));
#412=CARTESIAN_POINT('',(8.23590829974259,16.,-5.5));
#413=CARTESIAN_POINT('',(9.30500000000004,16.,0.));
#414=CARTESIAN_POINT('',(8.30499999999998,-8.30500000000002,0.));
#415=CARTESIAN_POINT('',(8.30499999999998,-8.30500000000002,-5.14455401597032));
#416=CARTESIAN_POINT('',(8.30500000000003,8.30499999999997,0.));
#417=CARTESIAN_POINT('',(8.30500000000003,8.30499999999997,-5.14455401597032));
#418=CARTESIAN_POINT('',(0.,0.,-5.5));
#419=CARTESIAN_POINT('',(0.,0.,0.));
#420=MECHANICAL_DESIGN_GEOMETRIC_PRESENTATION_REPRESENTATION('',(#216,#217,
#218,#219,#220,#221),#421);
#421=(
GEOMETRIC_REPRESENTATION_CONTEXT(3)
GLOBAL_UNCERTAINTY_ASSIGNED_CONTEXT((#422))
GLOBAL_UNIT_ASSIGNED_CONTEXT((#428,#424,#423))
REPRESENTATION_CONTEXT('aaa321254_a','TOP_LEVEL_ASSEMBLY_PART')
);
#422=UNCERTAINTY_MEASURE_WITH_UNIT(LENGTH_MEASURE(2.E-005),#428,
'DISTANCE_ACCURACY_VALUE','Maximum Tolerance applied to model');
#423=(
NAMED_UNIT(*)
SI_UNIT($,.STERADIAN.)
SOLID_ANGLE_UNIT()
);
#424=(
CONVERSION_BASED_UNIT('DEGREE',#426)
NAMED_UNIT(#425)
PLANE_ANGLE_UNIT()
);
#425=DIMENSIONAL_EXPONENTS(0.,0.,0.,0.,0.,0.,0.);
#426=PLANE_ANGLE_MEASURE_WITH_UNIT(PLANE_ANGLE_MEASURE(0.0174532925),#427);
#427=(
NAMED_UNIT(*)
PLANE_ANGLE_UNIT()
SI_UNIT($,.RADIAN.)
);
#428=(
LENGTH_UNIT()
NAMED_UNIT(*)
SI_UNIT(.MILLI.,.METRE.)
);
ENDSEC;
END-ISO-10303-21;
