ISO-10303-21;
HEADER;
/* Generated by software containing ST-Developer
 * from STEP Tools, Inc. (www.steptools.com) 
 */
/* OPTION: using custom schema-name function */

FILE_DESCRIPTION(
/* description */ (''),
/* implementation_level */ '2;1');

FILE_NAME(
/* name */ 'aaa319320_a.stp',
/* time_stamp */ '2018-06-04T10:34:49+02:00',
/* author */ (''),
/* organization */ ('SMS'),
/* preprocessor_version */ 'ST-DEVELOPER v15',
/* originating_system */ 'SIEMENS PLM Software NX 8.5',
/* authorisation */ '');

FILE_SCHEMA (('AUTOMOTIVE_DESIGN { 1 0 10303 214 3 1 1 1 }'));
ENDSEC;

DATA;
#10=CONSTRUCTIVE_GEOMETRY_REPRESENTATION_RELATIONSHIP(
'supplemental geometry','',#26,#11);
#11=CONSTRUCTIVE_GEOMETRY_REPRESENTATION('supplemental geometry',(#317,
#318),#563);
#12=GEOMETRICALLY_BOUNDED_WIREFRAME_SHAPE_REPRESENTATION(
'AAA319320_A-None',(#27),#563);
#13=SHAPE_REPRESENTATION_RELATIONSHIP('None',
'relationship between AAA319320_A-None and AAA319320_A-None',#26,#15);
#14=SHAPE_REPRESENTATION_RELATIONSHIP('None',
'relationship between AAA319320_A-None and AAA319320_A-None',#26,#12);
#15=ADVANCED_BREP_SHAPE_REPRESENTATION('AAA319320_A-None',(#33),#563);
#16=SHAPE_DEFINITION_REPRESENTATION(#17,#26);
#17=PRODUCT_DEFINITION_SHAPE('','',#18);
#18=PRODUCT_DEFINITION(' ','',#20,#19);
#19=PRODUCT_DEFINITION_CONTEXT('part definition',#25,'design');
#20=PRODUCT_DEFINITION_FORMATION_WITH_SPECIFIED_SOURCE(' ',' ',#22,
 .NOT_KNOWN.);
#21=PRODUCT_RELATED_PRODUCT_CATEGORY('part','',(#22));
#22=PRODUCT('AAA319320_A','AAA319320_A','MASTER_INSERT',(#23));
#23=PRODUCT_CONTEXT(' ',#25,'mechanical');
#24=APPLICATION_PROTOCOL_DEFINITION('international standard',
'automotive_design',2010,#25);
#25=APPLICATION_CONTEXT(
'core data for automotive mechanical design processes');
#26=SHAPE_REPRESENTATION('AAA319320_A-None',(#316),#563);
#27=GEOMETRIC_CURVE_SET('None',(#441,#442,#296));
#28=SURFACE_STYLE_USAGE(.BOTH.,#29);
#29=SURFACE_SIDE_STYLE('',(#30));
#30=SURFACE_STYLE_FILL_AREA(#31);
#31=FILL_AREA_STYLE('',(#32));
#32=FILL_AREA_STYLE_COLOUR('',#315);
#33=MANIFOLD_SOLID_BREP('CUT',#34);
#34=CLOSED_SHELL('',(#65,#66,#67,#68,#69,#70,#71,#72,#73,#74,#75,#76,#77,
#78,#79,#80,#81));
#35=TOROIDAL_SURFACE('',#338,2.7874657561954,0.164999999999999);
#36=TOROIDAL_SURFACE('',#349,2.7874657561954,0.164999999999999);
#37=CONICAL_SURFACE('',#337,3.17597767569965,20.);
#38=CONICAL_SURFACE('',#348,3.17597767569965,20.);
#39=PLANE('',#328);
#40=PLANE('',#332);
#41=PLANE('',#334);
#42=PLANE('',#339);
#43=PLANE('',#343);
#44=PLANE('',#345);
#45=PLANE('',#350);
#46=PLANE('',#351);
#47=FACE_BOUND('',#97,.T.);
#48=FACE_BOUND('',#98,.T.);
#49=FACE_BOUND('',#102,.T.);
#50=FACE_BOUND('',#103,.T.);
#51=FACE_BOUND('',#104,.T.);
#52=FACE_BOUND('',#105,.T.);
#53=FACE_BOUND('',#106,.T.);
#54=FACE_BOUND('',#107,.T.);
#55=FACE_BOUND('',#111,.T.);
#56=FACE_BOUND('',#112,.T.);
#57=FACE_BOUND('',#113,.T.);
#58=FACE_BOUND('',#114,.T.);
#59=FACE_BOUND('',#115,.T.);
#60=FACE_BOUND('',#116,.T.);
#61=FACE_BOUND('',#117,.T.);
#62=FACE_BOUND('',#118,.T.);
#63=FACE_BOUND('',#119,.T.);
#64=FACE_BOUND('',#120,.T.);
#65=ADVANCED_FACE('',(#87),#82,.T.);
#66=ADVANCED_FACE('',(#88),#83,.T.);
#67=ADVANCED_FACE('',(#47,#48),#84,.F.);
#68=ADVANCED_FACE('',(#89),#39,.F.);
#69=ADVANCED_FACE('',(#90),#85,.T.);
#70=ADVANCED_FACE('',(#91),#40,.F.);
#71=ADVANCED_FACE('',(#49,#50),#41,.T.);
#72=ADVANCED_FACE('',(#51,#52),#37,.F.);
#73=ADVANCED_FACE('',(#53,#54),#35,.F.);
#74=ADVANCED_FACE('',(#92),#42,.F.);
#75=ADVANCED_FACE('',(#93),#86,.T.);
#76=ADVANCED_FACE('',(#94),#43,.F.);
#77=ADVANCED_FACE('',(#55,#56),#44,.T.);
#78=ADVANCED_FACE('',(#57,#58),#38,.F.);
#79=ADVANCED_FACE('',(#59,#60),#36,.F.);
#80=ADVANCED_FACE('',(#61,#62),#45,.F.);
#81=ADVANCED_FACE('',(#63,#64),#46,.F.);
#82=CYLINDRICAL_SURFACE('',#321,0.198400000000003);
#83=CYLINDRICAL_SURFACE('',#324,0.198400000000003);
#84=CYLINDRICAL_SURFACE('',#327,2.578);
#85=CYLINDRICAL_SURFACE('',#331,0.198400000000001);
#86=CYLINDRICAL_SURFACE('',#342,0.198400000000001);
#87=FACE_OUTER_BOUND('',#95,.T.);
#88=FACE_OUTER_BOUND('',#96,.T.);
#89=FACE_OUTER_BOUND('',#99,.T.);
#90=FACE_OUTER_BOUND('',#100,.T.);
#91=FACE_OUTER_BOUND('',#101,.T.);
#92=FACE_OUTER_BOUND('',#108,.T.);
#93=FACE_OUTER_BOUND('',#109,.T.);
#94=FACE_OUTER_BOUND('',#110,.T.);
#95=EDGE_LOOP('',(#137,#138,#139,#140));
#96=EDGE_LOOP('',(#141,#142,#143,#144));
#97=EDGE_LOOP('',(#145));
#98=EDGE_LOOP('',(#146));
#99=EDGE_LOOP('',(#147,#148,#149,#150));
#100=EDGE_LOOP('',(#151,#152,#153,#154));
#101=EDGE_LOOP('',(#155,#156,#157,#158));
#102=EDGE_LOOP('',(#159));
#103=EDGE_LOOP('',(#160));
#104=EDGE_LOOP('',(#161));
#105=EDGE_LOOP('',(#162));
#106=EDGE_LOOP('',(#163));
#107=EDGE_LOOP('',(#164));
#108=EDGE_LOOP('',(#165,#166,#167,#168));
#109=EDGE_LOOP('',(#169,#170,#171,#172));
#110=EDGE_LOOP('',(#173,#174,#175,#176));
#111=EDGE_LOOP('',(#177));
#112=EDGE_LOOP('',(#178));
#113=EDGE_LOOP('',(#179));
#114=EDGE_LOOP('',(#180));
#115=EDGE_LOOP('',(#181));
#116=EDGE_LOOP('',(#182));
#117=EDGE_LOOP('',(#183));
#118=EDGE_LOOP('',(#184,#185,#186,#187,#188,#189,#190,#191));
#119=EDGE_LOOP('',(#192));
#120=EDGE_LOOP('',(#193,#194,#195,#196,#197,#198,#199,#200));
#121=CIRCLE('',#319,0.198400000000003);
#122=CIRCLE('',#320,0.198400000000003);
#123=CIRCLE('',#322,0.198400000000003);
#124=CIRCLE('',#323,0.198400000000003);
#125=CIRCLE('',#325,2.578);
#126=CIRCLE('',#326,2.578);
#127=CIRCLE('',#329,0.198400000000001);
#128=CIRCLE('',#330,0.198400000000001);
#129=CIRCLE('',#333,2.7874657561954);
#130=CIRCLE('',#335,3.13230124758771);
#131=CIRCLE('',#336,2.94251503862507);
#132=CIRCLE('',#340,0.198400000000001);
#133=CIRCLE('',#341,0.198400000000001);
#134=CIRCLE('',#344,2.7874657561954);
#135=CIRCLE('',#346,3.17597767569965);
#136=CIRCLE('',#347,2.94251503862507);
#137=ORIENTED_EDGE('',*,*,#225,.T.);
#138=ORIENTED_EDGE('',*,*,#226,.T.);
#139=ORIENTED_EDGE('',*,*,#227,.T.);
#140=ORIENTED_EDGE('',*,*,#228,.T.);
#141=ORIENTED_EDGE('',*,*,#229,.T.);
#142=ORIENTED_EDGE('',*,*,#230,.T.);
#143=ORIENTED_EDGE('',*,*,#231,.F.);
#144=ORIENTED_EDGE('',*,*,#232,.T.);
#145=ORIENTED_EDGE('',*,*,#233,.F.);
#146=ORIENTED_EDGE('',*,*,#234,.F.);
#147=ORIENTED_EDGE('',*,*,#235,.T.);
#148=ORIENTED_EDGE('',*,*,#236,.T.);
#149=ORIENTED_EDGE('',*,*,#225,.F.);
#150=ORIENTED_EDGE('',*,*,#237,.T.);
#151=ORIENTED_EDGE('',*,*,#238,.F.);
#152=ORIENTED_EDGE('',*,*,#235,.F.);
#153=ORIENTED_EDGE('',*,*,#239,.F.);
#154=ORIENTED_EDGE('',*,*,#240,.T.);
#155=ORIENTED_EDGE('',*,*,#231,.T.);
#156=ORIENTED_EDGE('',*,*,#241,.T.);
#157=ORIENTED_EDGE('',*,*,#240,.F.);
#158=ORIENTED_EDGE('',*,*,#242,.T.);
#159=ORIENTED_EDGE('',*,*,#233,.T.);
#160=ORIENTED_EDGE('',*,*,#243,.T.);
#161=ORIENTED_EDGE('',*,*,#244,.F.);
#162=ORIENTED_EDGE('',*,*,#245,.F.);
#163=ORIENTED_EDGE('',*,*,#243,.F.);
#164=ORIENTED_EDGE('',*,*,#245,.T.);
#165=ORIENTED_EDGE('',*,*,#246,.T.);
#166=ORIENTED_EDGE('',*,*,#247,.T.);
#167=ORIENTED_EDGE('',*,*,#229,.F.);
#168=ORIENTED_EDGE('',*,*,#248,.T.);
#169=ORIENTED_EDGE('',*,*,#249,.F.);
#170=ORIENTED_EDGE('',*,*,#246,.F.);
#171=ORIENTED_EDGE('',*,*,#250,.F.);
#172=ORIENTED_EDGE('',*,*,#251,.T.);
#173=ORIENTED_EDGE('',*,*,#227,.F.);
#174=ORIENTED_EDGE('',*,*,#252,.T.);
#175=ORIENTED_EDGE('',*,*,#251,.F.);
#176=ORIENTED_EDGE('',*,*,#253,.T.);
#177=ORIENTED_EDGE('',*,*,#234,.T.);
#178=ORIENTED_EDGE('',*,*,#254,.T.);
#179=ORIENTED_EDGE('',*,*,#255,.F.);
#180=ORIENTED_EDGE('',*,*,#256,.F.);
#181=ORIENTED_EDGE('',*,*,#254,.F.);
#182=ORIENTED_EDGE('',*,*,#256,.T.);
#183=ORIENTED_EDGE('',*,*,#244,.T.);
#184=ORIENTED_EDGE('',*,*,#228,.F.);
#185=ORIENTED_EDGE('',*,*,#253,.F.);
#186=ORIENTED_EDGE('',*,*,#250,.T.);
#187=ORIENTED_EDGE('',*,*,#248,.F.);
#188=ORIENTED_EDGE('',*,*,#232,.F.);
#189=ORIENTED_EDGE('',*,*,#242,.F.);
#190=ORIENTED_EDGE('',*,*,#239,.T.);
#191=ORIENTED_EDGE('',*,*,#237,.F.);
#192=ORIENTED_EDGE('',*,*,#255,.T.);
#193=ORIENTED_EDGE('',*,*,#238,.T.);
#194=ORIENTED_EDGE('',*,*,#241,.F.);
#195=ORIENTED_EDGE('',*,*,#230,.F.);
#196=ORIENTED_EDGE('',*,*,#247,.F.);
#197=ORIENTED_EDGE('',*,*,#249,.T.);
#198=ORIENTED_EDGE('',*,*,#252,.F.);
#199=ORIENTED_EDGE('',*,*,#226,.F.);
#200=ORIENTED_EDGE('',*,*,#236,.F.);
#201=VERTEX_POINT('',#490);
#202=VERTEX_POINT('',#491);
#203=VERTEX_POINT('',#493);
#204=VERTEX_POINT('',#495);
#205=VERTEX_POINT('',#499);
#206=VERTEX_POINT('',#500);
#207=VERTEX_POINT('',#502);
#208=VERTEX_POINT('',#504);
#209=VERTEX_POINT('',#508);
#210=VERTEX_POINT('',#510);
#211=VERTEX_POINT('',#513);
#212=VERTEX_POINT('',#514);
#213=VERTEX_POINT('',#519);
#214=VERTEX_POINT('',#521);
#215=VERTEX_POINT('',#528);
#216=VERTEX_POINT('',#531);
#217=VERTEX_POINT('',#533);
#218=VERTEX_POINT('',#537);
#219=VERTEX_POINT('',#538);
#220=VERTEX_POINT('',#543);
#221=VERTEX_POINT('',#545);
#222=VERTEX_POINT('',#552);
#223=VERTEX_POINT('',#555);
#224=VERTEX_POINT('',#557);
#225=EDGE_CURVE('',#201,#202,#257,.T.);
#226=EDGE_CURVE('',#202,#203,#121,.T.);
#227=EDGE_CURVE('',#203,#204,#258,.T.);
#228=EDGE_CURVE('',#204,#201,#122,.T.);
#229=EDGE_CURVE('',#205,#206,#259,.T.);
#230=EDGE_CURVE('',#206,#207,#123,.T.);
#231=EDGE_CURVE('',#208,#207,#260,.T.);
#232=EDGE_CURVE('',#208,#205,#124,.T.);
#233=EDGE_CURVE('',#209,#209,#125,.T.);
#234=EDGE_CURVE('',#210,#210,#126,.T.);
#235=EDGE_CURVE('',#211,#212,#261,.T.);
#236=EDGE_CURVE('',#212,#202,#262,.T.);
#237=EDGE_CURVE('',#201,#211,#263,.T.);
#238=EDGE_CURVE('',#212,#213,#127,.T.);
#239=EDGE_CURVE('',#214,#211,#128,.T.);
#240=EDGE_CURVE('',#214,#213,#264,.T.);
#241=EDGE_CURVE('',#207,#213,#265,.T.);
#242=EDGE_CURVE('',#214,#208,#266,.T.);
#243=EDGE_CURVE('',#215,#215,#129,.T.);
#244=EDGE_CURVE('',#216,#216,#130,.T.);
#245=EDGE_CURVE('',#217,#217,#131,.T.);
#246=EDGE_CURVE('',#218,#219,#267,.T.);
#247=EDGE_CURVE('',#219,#206,#268,.T.);
#248=EDGE_CURVE('',#205,#218,#269,.T.);
#249=EDGE_CURVE('',#219,#220,#132,.T.);
#250=EDGE_CURVE('',#221,#218,#133,.T.);
#251=EDGE_CURVE('',#221,#220,#270,.T.);
#252=EDGE_CURVE('',#203,#220,#271,.T.);
#253=EDGE_CURVE('',#221,#204,#272,.T.);
#254=EDGE_CURVE('',#222,#222,#134,.T.);
#255=EDGE_CURVE('',#223,#223,#135,.T.);
#256=EDGE_CURVE('',#224,#224,#136,.T.);
#257=LINE('',#489,#273);
#258=LINE('',#494,#274);
#259=LINE('',#498,#275);
#260=LINE('',#503,#276);
#261=LINE('',#512,#277);
#262=LINE('',#515,#278);
#263=LINE('',#516,#279);
#264=LINE('',#522,#280);
#265=LINE('',#524,#281);
#266=LINE('',#525,#282);
#267=LINE('',#536,#283);
#268=LINE('',#539,#284);
#269=LINE('',#540,#285);
#270=LINE('',#546,#286);
#271=LINE('',#548,#287);
#272=LINE('',#549,#288);
#273=VECTOR('',#358,1.);
#274=VECTOR('',#361,1.);
#275=VECTOR('',#366,1.);
#276=VECTOR('',#369,1.);
#277=VECTOR('',#380,1.);
#278=VECTOR('',#381,1.);
#279=VECTOR('',#382,1.);
#280=VECTOR('',#389,1.);
#281=VECTOR('',#392,1.);
#282=VECTOR('',#393,1.);
#283=VECTOR('',#408,1.);
#284=VECTOR('',#409,1.);
#285=VECTOR('',#410,1.);
#286=VECTOR('',#417,1.);
#287=VECTOR('',#420,1.);
#288=VECTOR('',#421,1.);
#289=CURVE_STYLE('',#293,POSITIVE_LENGTH_MEASURE(0.18),#292);
#290=CURVE_STYLE('',#294,POSITIVE_LENGTH_MEASURE(0.18),#314);
#291=CURVE_STYLE('',#295,POSITIVE_LENGTH_MEASURE(0.18),#314);
#292=DRAUGHTING_PRE_DEFINED_COLOUR('blue');
#293=DRAUGHTING_PRE_DEFINED_CURVE_FONT('continuous');
#294=DRAUGHTING_PRE_DEFINED_CURVE_FONT('continuous');
#295=DRAUGHTING_PRE_DEFINED_CURVE_FONT('continuous');
#296=B_SPLINE_CURVE_WITH_KNOTS('CUTTING EDGE LINE',3,(#443,#444,#445,#446,
#447,#448,#449,#450,#451,#452,#453,#454,#455,#456,#457,#458,#459,#460,#461,
#462,#463,#464,#465,#466,#467,#468,#469,#470,#471,#472,#473,#474,#475,#476,
#477,#478,#479,#480,#481,#482,#483,#484,#485,#486),.UNSPECIFIED.,.F.,.F.,
(1,1,2,1,1,1,1,1,1,1,1,1,1,1,1,1,1,1,1,1,1,1,1,1,1,1,1,1,1,1,1,1,1,1,1,
1,1,1,1,1,1,1,1,2,1,1),(-0.00338034929999997,-0.00169017464999999,0.,0.1219576856,
0.243610476986,0.2439153712,0.244591441075,0.24526751095,0.2466196507,0.24797179045,
0.248647860325,0.2493239302,0.2497050479675,0.310302773,0.3712816158,0.492781960079,
0.4932393014,0.494084388725,0.49492947605,0.4966196507,0.49830982535,0.499154912675,
0.5,0.5003811177675,0.5609788428,0.6219576856,0.743610476986,0.7439153712,
0.744591441075,0.74526751095,0.7466196507,0.74797179045,0.748647860325,
0.7493239302,0.7497050479675,0.810302773,0.8712816158,0.992781960079,0.9932393014,
0.994084388725,0.99492947605,0.9966196507,0.99830982535,1.,1.1219576856,
1.243610476986),.UNSPECIFIED.);
#297=PRESENTATION_LAYER_ASSIGNMENT('1','Layer 1',(#441,#442,#296,#317,#318,
#33));
#298=STYLED_ITEM('',(#304),#441);
#299=STYLED_ITEM('',(#305),#442);
#300=STYLED_ITEM('',(#306),#296);
#301=STYLED_ITEM('',(#307),#317);
#302=STYLED_ITEM('',(#308),#318);
#303=STYLED_ITEM('',(#309),#33);
#304=PRESENTATION_STYLE_ASSIGNMENT((#310));
#305=PRESENTATION_STYLE_ASSIGNMENT((#311));
#306=PRESENTATION_STYLE_ASSIGNMENT((#289));
#307=PRESENTATION_STYLE_ASSIGNMENT((#290));
#308=PRESENTATION_STYLE_ASSIGNMENT((#291));
#309=PRESENTATION_STYLE_ASSIGNMENT((#28));
#310=POINT_STYLE('',#312,POSITIVE_LENGTH_MEASURE(3.),#314);
#311=POINT_STYLE('',#313,POSITIVE_LENGTH_MEASURE(3.),#314);
#312=PRE_DEFINED_POINT_MARKER_SYMBOL('plus');
#313=PRE_DEFINED_POINT_MARKER_SYMBOL('plus');
#314=COLOUR_RGB('Medium Maroon',0.6,0.4,0.4);
#315=COLOUR_RGB('Light Gray',0.8,0.8,0.8);
#316=AXIS2_PLACEMENT_3D('',#440,#352,#353);
#317=AXIS2_PLACEMENT_3D('PCS',#487,#354,#355);
#318=AXIS2_PLACEMENT_3D('MCS',#488,#356,#357);
#319=AXIS2_PLACEMENT_3D('',#492,#359,#360);
#320=AXIS2_PLACEMENT_3D('',#496,#362,#363);
#321=AXIS2_PLACEMENT_3D('',#497,#364,#365);
#322=AXIS2_PLACEMENT_3D('',#501,#367,#368);
#323=AXIS2_PLACEMENT_3D('',#505,#370,#371);
#324=AXIS2_PLACEMENT_3D('',#506,#372,#373);
#325=AXIS2_PLACEMENT_3D('',#507,#374,#375);
#326=AXIS2_PLACEMENT_3D('',#509,#376,#377);
#327=AXIS2_PLACEMENT_3D('',#511,#378,#379);
#328=AXIS2_PLACEMENT_3D('',#517,#383,#384);
#329=AXIS2_PLACEMENT_3D('',#518,#385,#386);
#330=AXIS2_PLACEMENT_3D('',#520,#387,#388);
#331=AXIS2_PLACEMENT_3D('',#523,#390,#391);
#332=AXIS2_PLACEMENT_3D('',#526,#394,#395);
#333=AXIS2_PLACEMENT_3D('',#527,#396,#397);
#334=AXIS2_PLACEMENT_3D('',#529,#398,#399);
#335=AXIS2_PLACEMENT_3D('',#530,#400,#401);
#336=AXIS2_PLACEMENT_3D('',#532,#402,#403);
#337=AXIS2_PLACEMENT_3D('',#534,#404,#405);
#338=AXIS2_PLACEMENT_3D('',#535,#406,#407);
#339=AXIS2_PLACEMENT_3D('',#541,#411,#412);
#340=AXIS2_PLACEMENT_3D('',#542,#413,#414);
#341=AXIS2_PLACEMENT_3D('',#544,#415,#416);
#342=AXIS2_PLACEMENT_3D('',#547,#418,#419);
#343=AXIS2_PLACEMENT_3D('',#550,#422,#423);
#344=AXIS2_PLACEMENT_3D('',#551,#424,#425);
#345=AXIS2_PLACEMENT_3D('',#553,#426,#427);
#346=AXIS2_PLACEMENT_3D('',#554,#428,#429);
#347=AXIS2_PLACEMENT_3D('',#556,#430,#431);
#348=AXIS2_PLACEMENT_3D('',#558,#432,#433);
#349=AXIS2_PLACEMENT_3D('',#559,#434,#435);
#350=AXIS2_PLACEMENT_3D('',#560,#436,#437);
#351=AXIS2_PLACEMENT_3D('',#561,#438,#439);
#352=DIRECTION('',(0.,0.,1.));
#353=DIRECTION('',(1.,0.,0.));
#354=DIRECTION('',(0.,0.,1.));
#355=DIRECTION('',(1.17145536458252E-015,-1.,0.));
#356=DIRECTION('',(0.,0.,1.));
#357=DIRECTION('',(1.17145536458252E-015,-1.,0.));
#358=DIRECTION('',(0.,0.,-1.));
#359=DIRECTION('',(0.,0.,1.));
#360=DIRECTION('',(1.,0.,0.));
#361=DIRECTION('',(0.,0.,1.));
#362=DIRECTION('',(0.,0.,-1.));
#363=DIRECTION('',(-1.,0.,0.));
#364=DIRECTION('',(0.,0.,-1.));
#365=DIRECTION('',(-1.,0.,0.));
#366=DIRECTION('',(0.,0.,-1.));
#367=DIRECTION('',(0.,0.,1.));
#368=DIRECTION('',(1.,0.,0.));
#369=DIRECTION('',(0.,0.,-1.));
#370=DIRECTION('',(0.,0.,-1.));
#371=DIRECTION('',(-1.,0.,0.));
#372=DIRECTION('',(0.,0.,-1.));
#373=DIRECTION('',(0.173648177666932,0.984807753012208,0.));
#374=DIRECTION('',(0.,0.,-1.));
#375=DIRECTION('',(1.,0.,0.));
#376=DIRECTION('',(0.,0.,1.));
#377=DIRECTION('',(-0.17364817766693,-0.984807753012208,0.));
#378=DIRECTION('',(0.,0.,1.));
#379=DIRECTION('',(1.,0.,0.));
#380=DIRECTION('',(0.,0.,-1.));
#381=DIRECTION('',(0.,-1.,0.));
#382=DIRECTION('',(0.,1.,0.));
#383=DIRECTION('',(1.,0.,0.));
#384=DIRECTION('',(0.,0.,-1.));
#385=DIRECTION('',(0.,0.,-1.));
#386=DIRECTION('',(1.,0.,0.));
#387=DIRECTION('',(0.,0.,1.));
#388=DIRECTION('',(-1.,0.,0.));
#389=DIRECTION('',(0.,0.,-1.));
#390=DIRECTION('',(0.,0.,1.));
#391=DIRECTION('',(1.,0.,0.));
#392=DIRECTION('',(-0.984807753012208,0.173648177666931,0.));
#393=DIRECTION('',(0.984807753012208,-0.173648177666931,0.));
#394=DIRECTION('',(-0.173648177666931,-0.984807753012208,0.));
#395=DIRECTION('',(0.,0.,-1.));
#396=DIRECTION('',(0.,0.,1.));
#397=DIRECTION('',(-0.642787609686539,0.766044443118978,0.));
#398=DIRECTION('',(0.,0.,1.));
#399=DIRECTION('',(0.642787609686539,-0.766044443118978,0.));
#400=DIRECTION('',(0.,0.,-1.));
#401=DIRECTION('',(-1.,0.,0.));
#402=DIRECTION('',(0.,0.,1.));
#403=DIRECTION('',(-0.642787609686539,0.766044443118978,0.));
#404=DIRECTION('',(0.,0.,1.));
#405=DIRECTION('',(0.642787609686539,-0.766044443118978,-2.78214492899233E-016));
#406=DIRECTION('',(0.,0.,-1.));
#407=DIRECTION('',(-0.642787609686539,0.766044443118978,0.));
#408=DIRECTION('',(0.,0.,-1.));
#409=DIRECTION('',(0.,1.,0.));
#410=DIRECTION('',(0.,-1.,0.));
#411=DIRECTION('',(-1.,0.,0.));
#412=DIRECTION('',(0.,0.,-1.));
#413=DIRECTION('',(0.,0.,-1.));
#414=DIRECTION('',(1.,0.,0.));
#415=DIRECTION('',(0.,0.,1.));
#416=DIRECTION('',(-1.,0.,0.));
#417=DIRECTION('',(0.,0.,-1.));
#418=DIRECTION('',(0.,0.,1.));
#419=DIRECTION('',(-1.,0.,0.));
#420=DIRECTION('',(0.984807753012208,-0.173648177666931,0.));
#421=DIRECTION('',(-0.984807753012208,0.173648177666931,0.));
#422=DIRECTION('',(0.173648177666931,0.984807753012208,0.));
#423=DIRECTION('',(0.,0.,-1.));
#424=DIRECTION('',(0.,0.,-1.));
#425=DIRECTION('',(-0.642787609686539,0.766044443118978,0.));
#426=DIRECTION('',(0.,0.,-1.));
#427=DIRECTION('',(0.642787609686539,-0.766044443118978,0.));
#428=DIRECTION('',(0.,0.,1.));
#429=DIRECTION('',(1.,0.,0.));
#430=DIRECTION('',(0.,0.,-1.));
#431=DIRECTION('',(-0.642787609686539,0.766044443118978,0.));
#432=DIRECTION('',(0.,0.,-1.));
#433=DIRECTION('',(0.642787609686539,-0.766044443118978,-2.66955978857271E-016));
#434=DIRECTION('',(0.,0.,1.));
#435=DIRECTION('',(-0.642787609686539,0.766044443118978,0.));
#436=DIRECTION('',(0.,0.,-1.));
#437=DIRECTION('',(-1.,0.,0.));
#438=DIRECTION('',(0.,0.,1.));
#439=DIRECTION('',(1.,0.,0.));
#440=CARTESIAN_POINT('',(0.,0.,0.));
#441=CARTESIAN_POINT('',(-6.35,7.56763531297324,0.));
#442=CARTESIAN_POINT('',(0.,0.,0.));
#443=CARTESIAN_POINT('',(-6.35,7.36004751050218,0.));
#444=CARTESIAN_POINT('',(-6.35,5.24902528497715,0.));
#445=CARTESIAN_POINT('',(-6.35,1.08989846981429,0.));
#446=CARTESIAN_POINT('',(-6.35,-3.07443376063663,0.));
#447=CARTESIAN_POINT('',(-6.35022946208571,-5.1681424897951,0.));
#448=CARTESIAN_POINT('',(-6.34796477077652,-5.19643111809122,0.));
#449=CARTESIAN_POINT('',(-6.33599946418699,-5.24120341069064,0.));
#450=CARTESIAN_POINT('',(-6.30670136959154,-5.29195079316748,0.));
#451=CARTESIAN_POINT('',(-6.2618125146124,-5.3296159743668,0.));
#452=CARTESIAN_POINT('',(-6.21979816742789,-5.34917412808165,0.));
#453=CARTESIAN_POINT('',(-6.19106098635915,-5.35659914675303,0.));
#454=CARTESIAN_POINT('',(-5.15437721511577,-5.53910321370061,0.));
#455=CARTESIAN_POINT('',(-3.10384388178244,-5.90066756520935,0.));
#456=CARTESIAN_POINT('',(0.983125368217557,-6.62131051331018,0.));
#457=CARTESIAN_POINT('',(4.05892536821755,-7.16365704057328,0.));
#458=CARTESIAN_POINT('',(6.12359304635142,-7.52815307684154,0.));
#459=CARTESIAN_POINT('',(6.16032555110524,-7.53094271443954,0.));
#460=CARTESIAN_POINT('',(6.21771053305676,-7.5221847171707,0.));
#461=CARTESIAN_POINT('',(6.28324101667193,-7.48807505475717,0.));
#462=CARTESIAN_POINT('',(6.32821172573638,-7.42946320714463,0.));
#463=CARTESIAN_POINT('',(6.34680146688731,-7.37447084228221,0.));
#464=CARTESIAN_POINT('',(6.35036061888609,-7.33911321865261,0.));
#465=CARTESIAN_POINT('',(6.35,-6.2836015734798,0.));
#466=CARTESIAN_POINT('',(6.35,-4.20143545825434,0.));
#467=CARTESIAN_POINT('',(6.35,-0.0488154122015612,0.));
#468=CARTESIAN_POINT('',(6.35,3.07443376063663,0.));
#469=CARTESIAN_POINT('',(6.35022946208571,5.1681424897951,0.));
#470=CARTESIAN_POINT('',(6.34796477077652,5.19643111809122,0.));
#471=CARTESIAN_POINT('',(6.33599946418699,5.24120341069064,0.));
#472=CARTESIAN_POINT('',(6.30670136959155,5.29195079316747,0.));
#473=CARTESIAN_POINT('',(6.2618125146124,5.3296159743668,0.));
#474=CARTESIAN_POINT('',(6.21979816742789,5.34917412808165,0.));
#475=CARTESIAN_POINT('',(6.19106098635915,5.35659914675303,0.));
#476=CARTESIAN_POINT('',(5.15437721511577,5.53910321370061,0.));
#477=CARTESIAN_POINT('',(3.10384388178244,5.90066756520935,0.));
#478=CARTESIAN_POINT('',(-0.983125368217555,6.62131051331018,0.));
#479=CARTESIAN_POINT('',(-4.05892536821755,7.16365704057328,0.));
#480=CARTESIAN_POINT('',(-6.12359304635142,7.52815307684153,0.));
#481=CARTESIAN_POINT('',(-6.16032555110524,7.53094271443954,0.));
#482=CARTESIAN_POINT('',(-6.21771053305678,7.52218471717069,0.));
#483=CARTESIAN_POINT('',(-6.28324101667196,7.48807505475715,0.));
#484=CARTESIAN_POINT('',(-6.3372058675493,7.41774083762207,0.));
#485=CARTESIAN_POINT('',(-6.35,7.36004751050218,0.));
#486=CARTESIAN_POINT('',(-6.35,5.24902528497715,0.));
#487=CARTESIAN_POINT('',(-6.35,7.56763531297324,0.));
#488=CARTESIAN_POINT('',(0.,0.,0.));
#489=CARTESIAN_POINT('',(-6.35,-5.16180529115015,-2.73683069614416));
#490=CARTESIAN_POINT('',(-6.35,-5.16180529115015,0.));
#491=CARTESIAN_POINT('',(-6.35,-5.16180529115015,-4.76));
#492=CARTESIAN_POINT('',(-6.1516,-5.16180529115016,-4.76));
#493=CARTESIAN_POINT('',(-6.1860517984491,-5.35719114934778,-4.76));
#494=CARTESIAN_POINT('',(-6.1860517984491,-5.35719114934778,0.));
#495=CARTESIAN_POINT('',(-6.1860517984491,-5.35719114934778,0.));
#496=CARTESIAN_POINT('',(-6.1516,-5.16180529115016,0.));
#497=CARTESIAN_POINT('',(-6.1516,-5.16180529115016,-2.73683069614416));
#498=CARTESIAN_POINT('',(6.35000000000001,5.16180529115015,-2.73683069614416));
#499=CARTESIAN_POINT('',(6.35000000000001,5.16180529115015,0.));
#500=CARTESIAN_POINT('',(6.35000000000001,5.16180529115015,-4.76));
#501=CARTESIAN_POINT('',(6.1516,5.16180529115016,-4.76));
#502=CARTESIAN_POINT('',(6.1860517984491,5.35719114934778,-4.76));
#503=CARTESIAN_POINT('',(6.1860517984491,5.35719114934778,0.));
#504=CARTESIAN_POINT('',(6.1860517984491,5.35719114934778,0.));
#505=CARTESIAN_POINT('',(6.1516,5.16180529115016,0.));
#506=CARTESIAN_POINT('',(6.1516,5.16180529115016,-2.73683069614416));
#507=CARTESIAN_POINT('',(0.,0.,-0.63));
#508=CARTESIAN_POINT('',(2.578,0.,-0.63));
#509=CARTESIAN_POINT('',(-3.82841992001039E-015,-3.21242574287247E-015,
-4.01));
#510=CARTESIAN_POINT('',(-0.44766500202535,-2.53883438726548,-4.01));
#511=CARTESIAN_POINT('',(0.,0.,0.22));
#512=CARTESIAN_POINT('',(-6.35,7.33119140020261,0.));
#513=CARTESIAN_POINT('',(-6.35,7.33119140020261,0.));
#514=CARTESIAN_POINT('',(-6.35,7.33119140020261,-4.76));
#515=CARTESIAN_POINT('',(-6.35,-7.72198,-4.76));
#516=CARTESIAN_POINT('',(-6.35,-7.72198,0.));
#517=CARTESIAN_POINT('',(-6.35,-7.72198,0.));
#518=CARTESIAN_POINT('',(-6.1516,7.33119140020254,-4.76));
#519=CARTESIAN_POINT('',(-6.11714820155089,7.52657725840017,-4.76));
#520=CARTESIAN_POINT('',(-6.1516,7.33119140020254,0.));
#521=CARTESIAN_POINT('',(-6.11714820155089,7.52657725840017,0.));
#522=CARTESIAN_POINT('',(-6.11714820155089,7.52657725840017,-2.21504809527149));
#523=CARTESIAN_POINT('',(-6.1516,7.33119140020254,-2.21504809527149));
#524=CARTESIAN_POINT('',(8.70733170079022,4.91262147664704,-4.76));
#525=CARTESIAN_POINT('',(8.70733170079022,4.91262147664704,0.));
#526=CARTESIAN_POINT('',(8.70733170079022,4.91262147664704,0.));
#527=CARTESIAN_POINT('',(-1.77635683940025E-015,1.77635683940025E-015,-0.63));
#528=CARTESIAN_POINT('',(-1.79174845050792,2.13532265291793,-0.63));
#529=CARTESIAN_POINT('',(-1.97486257436073,-1.6571064577719,-0.63));
#530=CARTESIAN_POINT('',(-1.77635683940025E-015,1.77635683940025E-015,0.));
#531=CARTESIAN_POINT('',(-3.13230124758771,1.77635683940025E-015,0.));
#532=CARTESIAN_POINT('',(-1.77635683940025E-015,1.77635683940025E-015,-0.521433323648735));
#533=CARTESIAN_POINT('',(-1.89141220814451,2.25409729413276,-0.521433323648735));
#534=CARTESIAN_POINT('',(-1.77635683940025E-015,1.77635683940025E-015,0.12));
#535=CARTESIAN_POINT('',(-1.77635683940025E-015,1.77635683940025E-015,-0.465));
#536=CARTESIAN_POINT('',(6.35,-7.33119140020261,0.));
#537=CARTESIAN_POINT('',(6.35,-7.33119140020261,0.));
#538=CARTESIAN_POINT('',(6.35,-7.33119140020261,-4.76));
#539=CARTESIAN_POINT('',(6.35,7.72198,-4.76));
#540=CARTESIAN_POINT('',(6.35,7.72198,0.));
#541=CARTESIAN_POINT('',(6.35,7.72198,0.));
#542=CARTESIAN_POINT('',(6.1516,-7.33119140020254,-4.76));
#543=CARTESIAN_POINT('',(6.11714820155089,-7.52657725840017,-4.76));
#544=CARTESIAN_POINT('',(6.1516,-7.33119140020254,0.));
#545=CARTESIAN_POINT('',(6.11714820155089,-7.52657725840017,0.));
#546=CARTESIAN_POINT('',(6.11714820155089,-7.52657725840017,-2.21504809527149));
#547=CARTESIAN_POINT('',(6.1516,-7.33119140020254,-2.21504809527149));
#548=CARTESIAN_POINT('',(-8.70733170079022,-4.91262147664704,-4.76));
#549=CARTESIAN_POINT('',(-8.70733170079022,-4.91262147664704,0.));
#550=CARTESIAN_POINT('',(-8.70733170079022,-4.91262147664704,0.));
#551=CARTESIAN_POINT('',(-5.26932877951997E-015,-1.1545946272668E-015,-4.01));
#552=CARTESIAN_POINT('',(-1.79174845050793,2.13532265291792,-4.01));
#553=CARTESIAN_POINT('',(1.97486257436072,1.6571064577719,-4.01));
#554=CARTESIAN_POINT('',(-5.26932877951997E-015,-1.1545946272668E-015,-4.76));
#555=CARTESIAN_POINT('',(3.17597767569965,-1.1545946272668E-015,-4.76));
#556=CARTESIAN_POINT('',(-5.26932877951997E-015,-1.1545946272668E-015,-4.11856667635126));
#557=CARTESIAN_POINT('',(-1.89141220814451,2.25409729413276,-4.11856667635126));
#558=CARTESIAN_POINT('',(-5.26932877951997E-015,-1.1545946272668E-015,-4.76));
#559=CARTESIAN_POINT('',(-5.26932877951997E-015,-1.1545946272668E-015,-4.175));
#560=CARTESIAN_POINT('',(0.,0.,0.));
#561=CARTESIAN_POINT('',(-3.82841992001039E-015,-3.21242574287247E-015,
-4.76));
#562=MECHANICAL_DESIGN_GEOMETRIC_PRESENTATION_REPRESENTATION('',(#298,#299,
#300,#301,#302,#303),#563);
#563=(
GEOMETRIC_REPRESENTATION_CONTEXT(3)
GLOBAL_UNCERTAINTY_ASSIGNED_CONTEXT((#564))
GLOBAL_UNIT_ASSIGNED_CONTEXT((#570,#566,#565))
REPRESENTATION_CONTEXT('aaa319320_a','TOP_LEVEL_ASSEMBLY_PART')
);
#564=UNCERTAINTY_MEASURE_WITH_UNIT(LENGTH_MEASURE(2.E-005),#570,
'DISTANCE_ACCURACY_VALUE','Maximum Tolerance applied to model');
#565=(
NAMED_UNIT(*)
SI_UNIT($,.STERADIAN.)
SOLID_ANGLE_UNIT()
);
#566=(
CONVERSION_BASED_UNIT('DEGREE',#568)
NAMED_UNIT(#567)
PLANE_ANGLE_UNIT()
);
#567=DIMENSIONAL_EXPONENTS(0.,0.,0.,0.,0.,0.,0.);
#568=PLANE_ANGLE_MEASURE_WITH_UNIT(PLANE_ANGLE_MEASURE(0.0174532925),#569);
#569=(
NAMED_UNIT(*)
PLANE_ANGLE_UNIT()
SI_UNIT($,.RADIAN.)
);
#570=(
LENGTH_UNIT()
NAMED_UNIT(*)
SI_UNIT(.MILLI.,.METRE.)
);
ENDSEC;
END-ISO-10303-21;
