ISO-10303-21;
HEADER;
/* Generated by software containing ST-Developer
 * from STEP Tools, Inc. (www.steptools.com) 
 */
/* OPTION: using custom schema-name function */

FILE_DESCRIPTION(
/* description */ (''),
/* implementation_level */ '2;1');

FILE_NAME(
/* name */ '1525692211344.stp',
/* time_stamp */ '2018-05-07T13:23:41+02:00',
/* author */ (''),
/* organization */ ('SMS'),
/* preprocessor_version */ 'ST-DEVELOPER v15',
/* originating_system */ 'SIEMENS PLM Software NX 8.5',
/* authorisation */ '');

FILE_SCHEMA (('AUTOMOTIVE_DESIGN { 1 0 10303 214 3 1 1 1 }'));
ENDSEC;

DATA;
#10=CONSTRUCTIVE_GEOMETRY_REPRESENTATION_RELATIONSHIP(
'supplemental geometry','',#26,#11);
#11=CONSTRUCTIVE_GEOMETRY_REPRESENTATION('supplemental geometry',(#243,
#244,#245),#410);
#12=GEOMETRICALLY_BOUNDED_WIREFRAME_SHAPE_REPRESENTATION(
'201637334mod000_00-None',(#27),#410);
#13=SHAPE_REPRESENTATION_RELATIONSHIP('None',
'relationship between 201637334mod000_00-None and 201637334mod000_00-N
one',#26,#15);
#14=SHAPE_REPRESENTATION_RELATIONSHIP('None',
'relationship between 201637334mod000_00-None and 201637334mod000_00-N
one',#26,#12);
#15=ADVANCED_BREP_SHAPE_REPRESENTATION('201637334mod000_00-None',(#33),
#410);
#16=SHAPE_DEFINITION_REPRESENTATION(#17,#26);
#17=PRODUCT_DEFINITION_SHAPE('','',#18);
#18=PRODUCT_DEFINITION(' ','',#20,#19);
#19=PRODUCT_DEFINITION_CONTEXT('part definition',#25,'design');
#20=PRODUCT_DEFINITION_FORMATION_WITH_SPECIFIED_SOURCE(' ',' ',#22,
 .NOT_KNOWN.);
#21=PRODUCT_RELATED_PRODUCT_CATEGORY('part','',(#22));
#22=PRODUCT('201637334mod000_00','201637334mod000_00',' ',(#23));
#23=PRODUCT_CONTEXT(' ',#25,'mechanical');
#24=APPLICATION_PROTOCOL_DEFINITION('international standard',
'automotive_design',2010,#25);
#25=APPLICATION_CONTEXT(
'core data for automotive mechanical design processes');
#26=SHAPE_REPRESENTATION('201637334mod000_00-None',(#242),#410);
#27=GEOMETRIC_CURVE_SET('None',(#354,#355,#356));
#28=SURFACE_STYLE_USAGE(.BOTH.,#29);
#29=SURFACE_SIDE_STYLE('',(#30));
#30=SURFACE_STYLE_FILL_AREA(#31);
#31=FILL_AREA_STYLE('',(#32));
#32=FILL_AREA_STYLE_COLOUR('',#241);
#33=MANIFOLD_SOLID_BREP('NOCUT',#34);
#34=CLOSED_SHELL('',(#49,#50,#51,#52,#53,#54,#55,#56,#57,#58,#59,#60,#61,
#62,#63,#64,#65));
#35=TOROIDAL_SURFACE('',#273,16.05,0.8);
#36=CONICAL_SURFACE('',#254,15.354300000003,36.8698976456218);
#37=CONICAL_SURFACE('',#260,16.5354,45.0000000000074);
#38=CONICAL_SURFACE('',#264,17.2974,45.0000000000001);
#39=CONICAL_SURFACE('',#269,9.99871,44.9999999999993);
#40=CONICAL_SURFACE('',#277,16.85,60.);
#41=PLANE('',#250);
#42=PLANE('',#252);
#43=PLANE('',#258);
#44=PLANE('',#266);
#45=PLANE('',#271);
#46=PLANE('',#278);
#47=FACE_OUTER_BOUND('',#103,.T.);
#48=FACE_OUTER_BOUND('',#132,.T.);
#49=ADVANCED_FACE('',(#71,#72),#66,.T.);
#50=ADVANCED_FACE('',(#47),#41,.T.);
#51=ADVANCED_FACE('',(#73,#74),#42,.T.);
#52=ADVANCED_FACE('',(#75,#76),#36,.T.);
#53=ADVANCED_FACE('',(#77,#78),#67,.T.);
#54=ADVANCED_FACE('',(#79,#80),#43,.T.);
#55=ADVANCED_FACE('',(#81,#82),#37,.T.);
#56=ADVANCED_FACE('',(#83,#84),#68,.T.);
#57=ADVANCED_FACE('',(#85,#86),#38,.T.);
#58=ADVANCED_FACE('',(#87,#88),#44,.T.);
#59=ADVANCED_FACE('',(#89,#90),#69,.T.);
#60=ADVANCED_FACE('',(#91,#92),#39,.T.);
#61=ADVANCED_FACE('',(#93,#94),#45,.F.);
#62=ADVANCED_FACE('',(#95,#96),#35,.T.);
#63=ADVANCED_FACE('',(#97,#98),#70,.T.);
#64=ADVANCED_FACE('',(#99,#100),#40,.T.);
#65=ADVANCED_FACE('',(#48),#46,.F.);
#66=CYLINDRICAL_SURFACE('',#248,12.4332999926494);
#67=CYLINDRICAL_SURFACE('',#256,15.7353);
#68=CYLINDRICAL_SURFACE('',#262,17.2974);
#69=CYLINDRICAL_SURFACE('',#268,9.99871);
#70=CYLINDRICAL_SURFACE('',#275,16.85);
#71=FACE_BOUND('',#101,.T.);
#72=FACE_BOUND('',#102,.T.);
#73=FACE_BOUND('',#104,.T.);
#74=FACE_BOUND('',#105,.T.);
#75=FACE_BOUND('',#106,.T.);
#76=FACE_BOUND('',#107,.T.);
#77=FACE_BOUND('',#108,.T.);
#78=FACE_BOUND('',#109,.T.);
#79=FACE_BOUND('',#110,.T.);
#80=FACE_BOUND('',#111,.T.);
#81=FACE_BOUND('',#112,.T.);
#82=FACE_BOUND('',#113,.T.);
#83=FACE_BOUND('',#114,.T.);
#84=FACE_BOUND('',#115,.T.);
#85=FACE_BOUND('',#116,.T.);
#86=FACE_BOUND('',#117,.T.);
#87=FACE_BOUND('',#118,.T.);
#88=FACE_BOUND('',#119,.T.);
#89=FACE_BOUND('',#120,.T.);
#90=FACE_BOUND('',#121,.T.);
#91=FACE_BOUND('',#122,.T.);
#92=FACE_BOUND('',#123,.T.);
#93=FACE_BOUND('',#124,.T.);
#94=FACE_BOUND('',#125,.T.);
#95=FACE_BOUND('',#126,.T.);
#96=FACE_BOUND('',#127,.T.);
#97=FACE_BOUND('',#128,.T.);
#98=FACE_BOUND('',#129,.T.);
#99=FACE_BOUND('',#130,.T.);
#100=FACE_BOUND('',#131,.T.);
#101=EDGE_LOOP('',(#133));
#102=EDGE_LOOP('',(#134));
#103=EDGE_LOOP('',(#135));
#104=EDGE_LOOP('',(#136));
#105=EDGE_LOOP('',(#137));
#106=EDGE_LOOP('',(#138));
#107=EDGE_LOOP('',(#139));
#108=EDGE_LOOP('',(#140));
#109=EDGE_LOOP('',(#141));
#110=EDGE_LOOP('',(#142));
#111=EDGE_LOOP('',(#143));
#112=EDGE_LOOP('',(#144));
#113=EDGE_LOOP('',(#145));
#114=EDGE_LOOP('',(#146));
#115=EDGE_LOOP('',(#147));
#116=EDGE_LOOP('',(#148));
#117=EDGE_LOOP('',(#149));
#118=EDGE_LOOP('',(#150));
#119=EDGE_LOOP('',(#151));
#120=EDGE_LOOP('',(#152));
#121=EDGE_LOOP('',(#153));
#122=EDGE_LOOP('',(#154));
#123=EDGE_LOOP('',(#155));
#124=EDGE_LOOP('',(#156));
#125=EDGE_LOOP('',(#157));
#126=EDGE_LOOP('',(#158));
#127=EDGE_LOOP('',(#159));
#128=EDGE_LOOP('',(#160));
#129=EDGE_LOOP('',(#161));
#130=EDGE_LOOP('',(#162));
#131=EDGE_LOOP('',(#163));
#132=EDGE_LOOP('',(#164));
#133=ORIENTED_EDGE('',*,*,#181,.T.);
#134=ORIENTED_EDGE('',*,*,#182,.T.);
#135=ORIENTED_EDGE('',*,*,#183,.F.);
#136=ORIENTED_EDGE('',*,*,#184,.T.);
#137=ORIENTED_EDGE('',*,*,#181,.F.);
#138=ORIENTED_EDGE('',*,*,#185,.T.);
#139=ORIENTED_EDGE('',*,*,#184,.F.);
#140=ORIENTED_EDGE('',*,*,#186,.T.);
#141=ORIENTED_EDGE('',*,*,#185,.F.);
#142=ORIENTED_EDGE('',*,*,#187,.T.);
#143=ORIENTED_EDGE('',*,*,#186,.F.);
#144=ORIENTED_EDGE('',*,*,#188,.T.);
#145=ORIENTED_EDGE('',*,*,#187,.F.);
#146=ORIENTED_EDGE('',*,*,#189,.T.);
#147=ORIENTED_EDGE('',*,*,#188,.F.);
#148=ORIENTED_EDGE('',*,*,#190,.T.);
#149=ORIENTED_EDGE('',*,*,#189,.F.);
#150=ORIENTED_EDGE('',*,*,#191,.T.);
#151=ORIENTED_EDGE('',*,*,#190,.F.);
#152=ORIENTED_EDGE('',*,*,#192,.T.);
#153=ORIENTED_EDGE('',*,*,#191,.F.);
#154=ORIENTED_EDGE('',*,*,#183,.T.);
#155=ORIENTED_EDGE('',*,*,#192,.F.);
#156=ORIENTED_EDGE('',*,*,#182,.F.);
#157=ORIENTED_EDGE('',*,*,#193,.F.);
#158=ORIENTED_EDGE('',*,*,#193,.T.);
#159=ORIENTED_EDGE('',*,*,#194,.F.);
#160=ORIENTED_EDGE('',*,*,#195,.F.);
#161=ORIENTED_EDGE('',*,*,#194,.T.);
#162=ORIENTED_EDGE('',*,*,#196,.F.);
#163=ORIENTED_EDGE('',*,*,#195,.T.);
#164=ORIENTED_EDGE('',*,*,#196,.T.);
#165=VERTEX_POINT('',#361);
#166=VERTEX_POINT('',#363);
#167=VERTEX_POINT('',#366);
#168=VERTEX_POINT('',#369);
#169=VERTEX_POINT('',#372);
#170=VERTEX_POINT('',#375);
#171=VERTEX_POINT('',#378);
#172=VERTEX_POINT('',#381);
#173=VERTEX_POINT('',#384);
#174=VERTEX_POINT('',#387);
#175=VERTEX_POINT('',#390);
#176=VERTEX_POINT('',#393);
#177=VERTEX_POINT('',#397);
#178=VERTEX_POINT('',#400);
#179=VERTEX_POINT('',#403);
#180=VERTEX_POINT('',#406);
#181=EDGE_CURVE('',#165,#165,#197,.T.);
#182=EDGE_CURVE('',#166,#166,#198,.T.);
#183=EDGE_CURVE('',#167,#167,#199,.T.);
#184=EDGE_CURVE('',#168,#168,#200,.T.);
#185=EDGE_CURVE('',#169,#169,#201,.T.);
#186=EDGE_CURVE('',#170,#170,#202,.T.);
#187=EDGE_CURVE('',#171,#171,#203,.T.);
#188=EDGE_CURVE('',#172,#172,#204,.T.);
#189=EDGE_CURVE('',#173,#173,#205,.T.);
#190=EDGE_CURVE('',#174,#174,#206,.T.);
#191=EDGE_CURVE('',#175,#175,#207,.T.);
#192=EDGE_CURVE('',#176,#176,#208,.T.);
#193=EDGE_CURVE('',#177,#177,#209,.T.);
#194=EDGE_CURVE('',#178,#178,#210,.T.);
#195=EDGE_CURVE('',#179,#179,#211,.T.);
#196=EDGE_CURVE('',#180,#180,#212,.T.);
#197=CIRCLE('',#246,12.4332999926494);
#198=CIRCLE('',#247,12.4332999926494);
#199=CIRCLE('',#249,9.49071);
#200=CIRCLE('',#251,15.354300000003);
#201=CIRCLE('',#253,15.7353);
#202=CIRCLE('',#255,15.7353);
#203=CIRCLE('',#257,16.5354);
#204=CIRCLE('',#259,17.2974);
#205=CIRCLE('',#261,17.2974);
#206=CIRCLE('',#263,16.5354);
#207=CIRCLE('',#265,9.99871);
#208=CIRCLE('',#267,9.99871);
#209=CIRCLE('',#270,16.05);
#210=CIRCLE('',#272,16.85);
#211=CIRCLE('',#274,16.85);
#212=CIRCLE('',#276,13.3858983848622);
#213=CURVE_STYLE('',#216,POSITIVE_LENGTH_MEASURE(0.18),#240);
#214=CURVE_STYLE('',#217,POSITIVE_LENGTH_MEASURE(0.18),#240);
#215=CURVE_STYLE('',#218,POSITIVE_LENGTH_MEASURE(0.18),#240);
#216=DRAUGHTING_PRE_DEFINED_CURVE_FONT('continuous');
#217=DRAUGHTING_PRE_DEFINED_CURVE_FONT('continuous');
#218=DRAUGHTING_PRE_DEFINED_CURVE_FONT('continuous');
#219=PRESENTATION_LAYER_ASSIGNMENT('1','Layer 1',(#354,#355,#356,#243,#244,
#245,#33));
#220=STYLED_ITEM('',(#227),#354);
#221=STYLED_ITEM('',(#228),#355);
#222=STYLED_ITEM('',(#229),#356);
#223=STYLED_ITEM('',(#230),#243);
#224=STYLED_ITEM('',(#231),#244);
#225=STYLED_ITEM('',(#232),#245);
#226=STYLED_ITEM('',(#233),#33);
#227=PRESENTATION_STYLE_ASSIGNMENT((#234));
#228=PRESENTATION_STYLE_ASSIGNMENT((#235));
#229=PRESENTATION_STYLE_ASSIGNMENT((#236));
#230=PRESENTATION_STYLE_ASSIGNMENT((#213));
#231=PRESENTATION_STYLE_ASSIGNMENT((#214));
#232=PRESENTATION_STYLE_ASSIGNMENT((#215));
#233=PRESENTATION_STYLE_ASSIGNMENT((#28));
#234=POINT_STYLE('',#237,POSITIVE_LENGTH_MEASURE(3.),#240);
#235=POINT_STYLE('',#238,POSITIVE_LENGTH_MEASURE(3.),#240);
#236=POINT_STYLE('',#239,POSITIVE_LENGTH_MEASURE(3.),#240);
#237=PRE_DEFINED_POINT_MARKER_SYMBOL('plus');
#238=PRE_DEFINED_POINT_MARKER_SYMBOL('plus');
#239=PRE_DEFINED_POINT_MARKER_SYMBOL('plus');
#240=COLOUR_RGB('Strong Stone',0.576470588235294,0.54508278019379,0.392156862745098);
#241=COLOUR_RGB('TLS_NOCUT',0.501960784313725,0.501960784313725,0.501960784313725);
#242=AXIS2_PLACEMENT_3D('',#353,#279,#280);
#243=AXIS2_PLACEMENT_3D('PCS',#357,#281,#282);
#244=AXIS2_PLACEMENT_3D('MCS',#358,#283,#284);
#245=AXIS2_PLACEMENT_3D('CSW',#359,#285,#286);
#246=AXIS2_PLACEMENT_3D('',#360,#287,#288);
#247=AXIS2_PLACEMENT_3D('',#362,#289,#290);
#248=AXIS2_PLACEMENT_3D('',#364,#291,#292);
#249=AXIS2_PLACEMENT_3D('',#365,#293,#294);
#250=AXIS2_PLACEMENT_3D('',#367,#295,#296);
#251=AXIS2_PLACEMENT_3D('',#368,#297,#298);
#252=AXIS2_PLACEMENT_3D('',#370,#299,#300);
#253=AXIS2_PLACEMENT_3D('',#371,#301,#302);
#254=AXIS2_PLACEMENT_3D('',#373,#303,#304);
#255=AXIS2_PLACEMENT_3D('',#374,#305,#306);
#256=AXIS2_PLACEMENT_3D('',#376,#307,#308);
#257=AXIS2_PLACEMENT_3D('',#377,#309,#310);
#258=AXIS2_PLACEMENT_3D('',#379,#311,#312);
#259=AXIS2_PLACEMENT_3D('',#380,#313,#314);
#260=AXIS2_PLACEMENT_3D('',#382,#315,#316);
#261=AXIS2_PLACEMENT_3D('',#383,#317,#318);
#262=AXIS2_PLACEMENT_3D('',#385,#319,#320);
#263=AXIS2_PLACEMENT_3D('',#386,#321,#322);
#264=AXIS2_PLACEMENT_3D('',#388,#323,#324);
#265=AXIS2_PLACEMENT_3D('',#389,#325,#326);
#266=AXIS2_PLACEMENT_3D('',#391,#327,#328);
#267=AXIS2_PLACEMENT_3D('',#392,#329,#330);
#268=AXIS2_PLACEMENT_3D('',#394,#331,#332);
#269=AXIS2_PLACEMENT_3D('',#395,#333,#334);
#270=AXIS2_PLACEMENT_3D('',#396,#335,#336);
#271=AXIS2_PLACEMENT_3D('',#398,#337,#338);
#272=AXIS2_PLACEMENT_3D('',#399,#339,#340);
#273=AXIS2_PLACEMENT_3D('',#401,#341,#342);
#274=AXIS2_PLACEMENT_3D('',#402,#343,#344);
#275=AXIS2_PLACEMENT_3D('',#404,#345,#346);
#276=AXIS2_PLACEMENT_3D('',#405,#347,#348);
#277=AXIS2_PLACEMENT_3D('',#407,#349,#350);
#278=AXIS2_PLACEMENT_3D('',#408,#351,#352);
#279=DIRECTION('',(0.,0.,1.));
#280=DIRECTION('',(1.,0.,0.));
#281=DIRECTION('',(0.,0.,1.));
#282=DIRECTION('',(1.,0.,0.));
#283=DIRECTION('',(0.,0.,1.));
#284=DIRECTION('',(1.,0.,0.));
#285=DIRECTION('',(0.,0.,1.));
#286=DIRECTION('',(1.,0.,0.));
#287=DIRECTION('',(0.,0.,-1.));
#288=DIRECTION('',(-1.,0.,0.));
#289=DIRECTION('',(0.,0.,1.));
#290=DIRECTION('',(-1.,0.,0.));
#291=DIRECTION('',(0.,0.,-1.));
#292=DIRECTION('',(-1.,0.,0.));
#293=DIRECTION('',(0.,0.,-1.));
#294=DIRECTION('',(-1.,0.,0.));
#295=DIRECTION('',(0.,0.,1.));
#296=DIRECTION('',(1.,0.,0.));
#297=DIRECTION('',(0.,0.,-1.));
#298=DIRECTION('',(-1.,0.,0.));
#299=DIRECTION('',(0.,0.,-1.));
#300=DIRECTION('',(-1.,0.,0.));
#301=DIRECTION('',(0.,0.,-1.));
#302=DIRECTION('',(-1.,0.,0.));
#303=DIRECTION('',(0.,0.,1.));
#304=DIRECTION('',(1.,0.,-3.6265002516937E-017));
#305=DIRECTION('',(0.,0.,-1.));
#306=DIRECTION('',(-1.,0.,0.));
#307=DIRECTION('',(0.,0.,-1.));
#308=DIRECTION('',(-1.,0.,0.));
#309=DIRECTION('',(0.,0.,-1.));
#310=DIRECTION('',(-1.,0.,0.));
#311=DIRECTION('',(0.,0.,-1.));
#312=DIRECTION('',(-1.,0.,0.));
#313=DIRECTION('',(0.,0.,-1.));
#314=DIRECTION('',(-1.,0.,0.));
#315=DIRECTION('',(0.,0.,1.));
#316=DIRECTION('',(1.,0.,-4.09561373105479E-017));
#317=DIRECTION('',(0.,0.,-1.));
#318=DIRECTION('',(-1.,0.,0.));
#319=DIRECTION('',(0.,0.,-1.));
#320=DIRECTION('',(-1.,0.,0.));
#321=DIRECTION('',(0.,0.,-1.));
#322=DIRECTION('',(-1.,0.,0.));
#323=DIRECTION('',(0.,0.,-1.));
#324=DIRECTION('',(-1.,0.,-1.09134558352862E-016));
#325=DIRECTION('',(0.,0.,-1.));
#326=DIRECTION('',(-1.,0.,0.));
#327=DIRECTION('',(0.,0.,1.));
#328=DIRECTION('',(1.,0.,0.));
#329=DIRECTION('',(0.,0.,-1.));
#330=DIRECTION('',(-1.,0.,0.));
#331=DIRECTION('',(0.,0.,-1.));
#332=DIRECTION('',(-1.,0.,0.));
#333=DIRECTION('',(0.,0.,-1.));
#334=DIRECTION('',(-1.,0.,4.65885488961387E-017));
#335=DIRECTION('',(0.,0.,-1.));
#336=DIRECTION('',(0.,1.,0.));
#337=DIRECTION('',(0.,0.,-1.));
#338=DIRECTION('',(0.,1.,0.));
#339=DIRECTION('',(0.,0.,-1.));
#340=DIRECTION('',(0.,1.,0.));
#341=DIRECTION('',(0.,0.,-1.));
#342=DIRECTION('',(0.,1.,0.));
#343=DIRECTION('',(0.,0.,-1.));
#344=DIRECTION('',(0.,1.,0.));
#345=DIRECTION('',(0.,0.,-1.));
#346=DIRECTION('',(0.,1.,0.));
#347=DIRECTION('',(0.,0.,-1.));
#348=DIRECTION('',(0.,1.,0.));
#349=DIRECTION('',(0.,0.,1.));
#350=DIRECTION('',(0.,-1.,-2.38054458224634E-017));
#351=DIRECTION('',(0.,0.,1.));
#352=DIRECTION('',(0.,-1.,0.));
#353=CARTESIAN_POINT('',(0.,0.,0.));
#354=CARTESIAN_POINT('PCS',(0.,0.,0.));
#355=CARTESIAN_POINT('MCS',(0.,0.,-50.8));
#356=CARTESIAN_POINT('CSW',(0.,0.,-106.5));
#357=CARTESIAN_POINT('',(0.,0.,0.));
#358=CARTESIAN_POINT('',(0.,0.,-50.8));
#359=CARTESIAN_POINT('',(0.,0.,-106.5));
#360=CARTESIAN_POINT('',(0.,0.,-84.836));
#361=CARTESIAN_POINT('',(-12.4332999926494,0.,-84.836));
#362=CARTESIAN_POINT('',(0.,0.,-95.5));
#363=CARTESIAN_POINT('',(-12.4332999926494,0.,-95.5));
#364=CARTESIAN_POINT('',(0.,0.,-6.93889390390723E-015));
#365=CARTESIAN_POINT('',(0.,0.,-6.93889390390723E-015));
#366=CARTESIAN_POINT('',(-9.49071,0.,-6.93889390390723E-015));
#367=CARTESIAN_POINT('',(9.48926451889772,0.165635728298401,-6.93889390390723E-015));
#368=CARTESIAN_POINT('',(0.,0.,-84.836));
#369=CARTESIAN_POINT('',(-15.354300000003,0.,-84.836));
#370=CARTESIAN_POINT('',(12.431406340831,0.216991004828174,-84.836));
#371=CARTESIAN_POINT('',(0.,0.,-84.328));
#372=CARTESIAN_POINT('',(-15.7353,0.,-84.328));
#373=CARTESIAN_POINT('',(0.,0.,-84.836));
#374=CARTESIAN_POINT('',(0.,0.,-79.250861937833));
#375=CARTESIAN_POINT('',(-15.7353,0.,-79.250861937833));
#376=CARTESIAN_POINT('',(0.,0.,-6.93889390390723E-015));
#377=CARTESIAN_POINT('',(0.,0.,-79.250861937833));
#378=CARTESIAN_POINT('',(-16.5354,0.,-79.250861937833));
#379=CARTESIAN_POINT('',(15.7329034375944,0.274618851012573,-79.250861937833));
#380=CARTESIAN_POINT('',(0.,0.,-78.488861937833));
#381=CARTESIAN_POINT('',(-17.2974,0.,-78.488861937833));
#382=CARTESIAN_POINT('',(0.,0.,-79.250861937833));
#383=CARTESIAN_POINT('',(0.,0.,-51.562));
#384=CARTESIAN_POINT('',(-17.2974,0.,-51.562));
#385=CARTESIAN_POINT('',(0.,0.,-6.93889390390723E-015));
#386=CARTESIAN_POINT('',(0.,0.,-50.8));
#387=CARTESIAN_POINT('',(-16.5354,0.,-50.8));
#388=CARTESIAN_POINT('',(0.,0.,-51.562));
#389=CARTESIAN_POINT('',(0.,0.,-50.8));
#390=CARTESIAN_POINT('',(-9.99871,0.,-50.8));
#391=CARTESIAN_POINT('',(16.532881578489,0.288582521403054,-50.8));
#392=CARTESIAN_POINT('',(0.,0.,-0.508));
#393=CARTESIAN_POINT('',(-9.99871,0.,-0.508));
#394=CARTESIAN_POINT('',(0.,0.,-6.93889390390723E-015));
#395=CARTESIAN_POINT('',(0.,0.,-0.508));
#396=CARTESIAN_POINT('',(0.,0.,-95.5));
#397=CARTESIAN_POINT('',(0.,16.05,-95.5));
#398=CARTESIAN_POINT('',(-11.75,0.,-95.5));
#399=CARTESIAN_POINT('',(0.,0.,-96.3));
#400=CARTESIAN_POINT('',(0.,16.85,-96.3));
#401=CARTESIAN_POINT('',(0.,0.,-96.3));
#402=CARTESIAN_POINT('',(0.,0.,-112.5));
#403=CARTESIAN_POINT('',(0.,16.85,-112.5));
#404=CARTESIAN_POINT('',(0.,0.,-95.5));
#405=CARTESIAN_POINT('',(0.,0.,-114.5));
#406=CARTESIAN_POINT('',(0.,13.3858983848622,-114.5));
#407=CARTESIAN_POINT('',(0.,0.,-112.5));
#408=CARTESIAN_POINT('',(-13.3858983848622,0.,-114.5));
#409=MECHANICAL_DESIGN_GEOMETRIC_PRESENTATION_REPRESENTATION('',(#220,#221,
#222,#223,#224,#225,#226),#410);
#410=(
GEOMETRIC_REPRESENTATION_CONTEXT(3)
GLOBAL_UNCERTAINTY_ASSIGNED_CONTEXT((#411))
GLOBAL_UNIT_ASSIGNED_CONTEXT((#417,#413,#412))
REPRESENTATION_CONTEXT('1525692211344','TOP_LEVEL_ASSEMBLY_PART')
);
#411=UNCERTAINTY_MEASURE_WITH_UNIT(LENGTH_MEASURE(2.E-005),#417,
'DISTANCE_ACCURACY_VALUE','Maximum Tolerance applied to model');
#412=(
NAMED_UNIT(*)
SI_UNIT($,.STERADIAN.)
SOLID_ANGLE_UNIT()
);
#413=(
CONVERSION_BASED_UNIT('DEGREE',#415)
NAMED_UNIT(#414)
PLANE_ANGLE_UNIT()
);
#414=DIMENSIONAL_EXPONENTS(0.,0.,0.,0.,0.,0.,0.);
#415=PLANE_ANGLE_MEASURE_WITH_UNIT(PLANE_ANGLE_MEASURE(0.0174532925),#416);
#416=(
NAMED_UNIT(*)
PLANE_ANGLE_UNIT()
SI_UNIT($,.RADIAN.)
);
#417=(
LENGTH_UNIT()
NAMED_UNIT(*)
SI_UNIT(.MILLI.,.METRE.)
);
ENDSEC;
END-ISO-10303-21;
