ISO-10303-21;
HEADER;
/* Generated by software containing ST-Developer
 * from STEP Tools, Inc. (www.steptools.com) 
 */
/* OPTION: using custom schema-name function */

FILE_DESCRIPTION(
/* description */ (''),
/* implementation_level */ '2;1');

FILE_NAME(
/* name */ '1525683416174.stp',
/* time_stamp */ '2018-05-07T10:57:18+02:00',
/* author */ (''),
/* organization */ ('SMS'),
/* preprocessor_version */ 'ST-DEVELOPER v15',
/* originating_system */ 'SIEMENS PLM Software NX 8.5',
/* authorisation */ '');

FILE_SCHEMA (('AUTOMOTIVE_DESIGN { 1 0 10303 214 3 1 1 1 }'));
ENDSEC;

DATA;
#10=CONSTRUCTIVE_GEOMETRY_REPRESENTATION_RELATIONSHIP(
'supplemental geometry','',#26,#11);
#11=CONSTRUCTIVE_GEOMETRY_REPRESENTATION('supplemental geometry',(#166,
#167,#168),#270);
#12=GEOMETRICALLY_BOUNDED_WIREFRAME_SHAPE_REPRESENTATION(
'201633220mod000_00-None',(#27),#270);
#13=SHAPE_REPRESENTATION_RELATIONSHIP('None',
'relationship between 201633220mod000_00-None and 201633220mod000_00-N
one',#26,#15);
#14=SHAPE_REPRESENTATION_RELATIONSHIP('None',
'relationship between 201633220mod000_00-None and 201633220mod000_00-N
one',#26,#12);
#15=ADVANCED_BREP_SHAPE_REPRESENTATION('201633220mod000_00-None',(#33),
#270);
#16=SHAPE_DEFINITION_REPRESENTATION(#17,#26);
#17=PRODUCT_DEFINITION_SHAPE('','',#18);
#18=PRODUCT_DEFINITION(' ','',#20,#19);
#19=PRODUCT_DEFINITION_CONTEXT('part definition',#25,'design');
#20=PRODUCT_DEFINITION_FORMATION_WITH_SPECIFIED_SOURCE(' ',' ',#22,
 .NOT_KNOWN.);
#21=PRODUCT_RELATED_PRODUCT_CATEGORY('part','',(#22));
#22=PRODUCT('201633220mod000_00','201633220mod000_00',' ',(#23));
#23=PRODUCT_CONTEXT(' ',#25,'mechanical');
#24=APPLICATION_PROTOCOL_DEFINITION('international standard',
'automotive_design',2010,#25);
#25=APPLICATION_CONTEXT(
'core data for automotive mechanical design processes');
#26=SHAPE_REPRESENTATION('201633220mod000_00-None',(#165),#270);
#27=GEOMETRIC_CURVE_SET('None',(#235,#236,#237));
#28=SURFACE_STYLE_USAGE(.BOTH.,#29);
#29=SURFACE_SIDE_STYLE('',(#30));
#30=SURFACE_STYLE_FILL_AREA(#31);
#31=FILL_AREA_STYLE('',(#32));
#32=FILL_AREA_STYLE_COLOUR('',#164);
#33=MANIFOLD_SOLID_BREP('NOCUT',#34);
#34=CLOSED_SHELL('',(#42,#43,#44,#45,#46,#47,#48,#49,#50,#51));
#35=CONICAL_SURFACE('',#187,5.5,45.);
#36=CYLINDRICAL_SURFACE('',#174,6.);
#37=CYLINDRICAL_SURFACE('',#178,5.75);
#38=CYLINDRICAL_SURFACE('',#180,4.65);
#39=CYLINDRICAL_SURFACE('',#186,6.);
#40=FACE_OUTER_BOUND('',#75,.T.);
#41=FACE_OUTER_BOUND('',#84,.T.);
#42=ADVANCED_FACE('',(#57,#58),#52,.T.);
#43=ADVANCED_FACE('',(#40),#53,.T.);
#44=ADVANCED_FACE('',(#59,#60),#36,.T.);
#45=ADVANCED_FACE('',(#61,#62),#54,.T.);
#46=ADVANCED_FACE('',(#63,#64),#37,.T.);
#47=ADVANCED_FACE('',(#65,#66),#38,.T.);
#48=ADVANCED_FACE('',(#41),#55,.T.);
#49=ADVANCED_FACE('',(#67,#68),#56,.T.);
#50=ADVANCED_FACE('',(#69,#70),#39,.T.);
#51=ADVANCED_FACE('',(#71,#72),#35,.T.);
#52=PLANE('',#171);
#53=PLANE('',#173);
#54=PLANE('',#177);
#55=PLANE('',#182);
#56=PLANE('',#184);
#57=FACE_BOUND('',#73,.T.);
#58=FACE_BOUND('',#74,.T.);
#59=FACE_BOUND('',#76,.T.);
#60=FACE_BOUND('',#77,.T.);
#61=FACE_BOUND('',#78,.T.);
#62=FACE_BOUND('',#79,.T.);
#63=FACE_BOUND('',#80,.T.);
#64=FACE_BOUND('',#81,.T.);
#65=FACE_BOUND('',#82,.T.);
#66=FACE_BOUND('',#83,.T.);
#67=FACE_BOUND('',#85,.T.);
#68=FACE_BOUND('',#86,.T.);
#69=FACE_BOUND('',#87,.T.);
#70=FACE_BOUND('',#88,.T.);
#71=FACE_BOUND('',#89,.T.);
#72=FACE_BOUND('',#90,.T.);
#73=EDGE_LOOP('',(#91));
#74=EDGE_LOOP('',(#92));
#75=EDGE_LOOP('',(#93));
#76=EDGE_LOOP('',(#94));
#77=EDGE_LOOP('',(#95));
#78=EDGE_LOOP('',(#96));
#79=EDGE_LOOP('',(#97));
#80=EDGE_LOOP('',(#98));
#81=EDGE_LOOP('',(#99));
#82=EDGE_LOOP('',(#100));
#83=EDGE_LOOP('',(#101));
#84=EDGE_LOOP('',(#102));
#85=EDGE_LOOP('',(#103));
#86=EDGE_LOOP('',(#104));
#87=EDGE_LOOP('',(#105));
#88=EDGE_LOOP('',(#106));
#89=EDGE_LOOP('',(#107));
#90=EDGE_LOOP('',(#108));
#91=ORIENTED_EDGE('',*,*,#118,.F.);
#92=ORIENTED_EDGE('',*,*,#119,.F.);
#93=ORIENTED_EDGE('',*,*,#120,.F.);
#94=ORIENTED_EDGE('',*,*,#119,.T.);
#95=ORIENTED_EDGE('',*,*,#120,.T.);
#96=ORIENTED_EDGE('',*,*,#121,.F.);
#97=ORIENTED_EDGE('',*,*,#122,.T.);
#98=ORIENTED_EDGE('',*,*,#122,.F.);
#99=ORIENTED_EDGE('',*,*,#118,.T.);
#100=ORIENTED_EDGE('',*,*,#123,.F.);
#101=ORIENTED_EDGE('',*,*,#121,.T.);
#102=ORIENTED_EDGE('',*,*,#124,.T.);
#103=ORIENTED_EDGE('',*,*,#123,.T.);
#104=ORIENTED_EDGE('',*,*,#125,.F.);
#105=ORIENTED_EDGE('',*,*,#126,.T.);
#106=ORIENTED_EDGE('',*,*,#125,.T.);
#107=ORIENTED_EDGE('',*,*,#126,.F.);
#108=ORIENTED_EDGE('',*,*,#124,.F.);
#109=VERTEX_POINT('',#242);
#110=VERTEX_POINT('',#244);
#111=VERTEX_POINT('',#247);
#112=VERTEX_POINT('',#251);
#113=VERTEX_POINT('',#253);
#114=VERTEX_POINT('',#257);
#115=VERTEX_POINT('',#260);
#116=VERTEX_POINT('',#263);
#117=VERTEX_POINT('',#266);
#118=EDGE_CURVE('',#109,#109,#127,.T.);
#119=EDGE_CURVE('',#110,#110,#128,.T.);
#120=EDGE_CURVE('',#111,#111,#129,.T.);
#121=EDGE_CURVE('',#112,#112,#130,.T.);
#122=EDGE_CURVE('',#113,#113,#131,.T.);
#123=EDGE_CURVE('',#114,#114,#132,.T.);
#124=EDGE_CURVE('',#115,#115,#133,.T.);
#125=EDGE_CURVE('',#116,#116,#134,.T.);
#126=EDGE_CURVE('',#117,#117,#135,.T.);
#127=CIRCLE('',#169,5.75);
#128=CIRCLE('',#170,6.);
#129=CIRCLE('',#172,6.);
#130=CIRCLE('',#175,4.65);
#131=CIRCLE('',#176,5.75);
#132=CIRCLE('',#179,4.65);
#133=CIRCLE('',#181,5.5);
#134=CIRCLE('',#183,6.);
#135=CIRCLE('',#185,6.);
#136=CURVE_STYLE('',#139,POSITIVE_LENGTH_MEASURE(0.18),#163);
#137=CURVE_STYLE('',#140,POSITIVE_LENGTH_MEASURE(0.18),#163);
#138=CURVE_STYLE('',#141,POSITIVE_LENGTH_MEASURE(0.18),#163);
#139=DRAUGHTING_PRE_DEFINED_CURVE_FONT('continuous');
#140=DRAUGHTING_PRE_DEFINED_CURVE_FONT('continuous');
#141=DRAUGHTING_PRE_DEFINED_CURVE_FONT('continuous');
#142=PRESENTATION_LAYER_ASSIGNMENT('1','Layer 1',(#235,#236,#237,#166,#167,
#168,#33));
#143=STYLED_ITEM('',(#150),#235);
#144=STYLED_ITEM('',(#151),#236);
#145=STYLED_ITEM('',(#152),#237);
#146=STYLED_ITEM('',(#153),#166);
#147=STYLED_ITEM('',(#154),#167);
#148=STYLED_ITEM('',(#155),#168);
#149=STYLED_ITEM('',(#156),#33);
#150=PRESENTATION_STYLE_ASSIGNMENT((#157));
#151=PRESENTATION_STYLE_ASSIGNMENT((#158));
#152=PRESENTATION_STYLE_ASSIGNMENT((#159));
#153=PRESENTATION_STYLE_ASSIGNMENT((#136));
#154=PRESENTATION_STYLE_ASSIGNMENT((#137));
#155=PRESENTATION_STYLE_ASSIGNMENT((#138));
#156=PRESENTATION_STYLE_ASSIGNMENT((#28));
#157=POINT_STYLE('',#160,POSITIVE_LENGTH_MEASURE(3.),#163);
#158=POINT_STYLE('',#161,POSITIVE_LENGTH_MEASURE(3.),#163);
#159=POINT_STYLE('',#162,POSITIVE_LENGTH_MEASURE(3.),#163);
#160=PRE_DEFINED_POINT_MARKER_SYMBOL('plus');
#161=PRE_DEFINED_POINT_MARKER_SYMBOL('plus');
#162=PRE_DEFINED_POINT_MARKER_SYMBOL('plus');
#163=COLOUR_RGB('Dark Red Pink',0.8,0.,0.2);
#164=COLOUR_RGB('TLS_NOCUT',0.501960784313725,0.501960784313725,0.501960784313725);
#165=AXIS2_PLACEMENT_3D('',#234,#188,#189);
#166=AXIS2_PLACEMENT_3D('PCS',#238,#190,#191);
#167=AXIS2_PLACEMENT_3D('MCS',#239,#192,#193);
#168=AXIS2_PLACEMENT_3D('CSW',#240,#194,#195);
#169=AXIS2_PLACEMENT_3D('',#241,#196,#197);
#170=AXIS2_PLACEMENT_3D('',#243,#198,#199);
#171=AXIS2_PLACEMENT_3D('',#245,#200,#201);
#172=AXIS2_PLACEMENT_3D('',#246,#202,#203);
#173=AXIS2_PLACEMENT_3D('',#248,#204,#205);
#174=AXIS2_PLACEMENT_3D('',#249,#206,#207);
#175=AXIS2_PLACEMENT_3D('',#250,#208,#209);
#176=AXIS2_PLACEMENT_3D('',#252,#210,#211);
#177=AXIS2_PLACEMENT_3D('',#254,#212,#213);
#178=AXIS2_PLACEMENT_3D('',#255,#214,#215);
#179=AXIS2_PLACEMENT_3D('',#256,#216,#217);
#180=AXIS2_PLACEMENT_3D('',#258,#218,#219);
#181=AXIS2_PLACEMENT_3D('',#259,#220,#221);
#182=AXIS2_PLACEMENT_3D('',#261,#222,#223);
#183=AXIS2_PLACEMENT_3D('',#262,#224,#225);
#184=AXIS2_PLACEMENT_3D('',#264,#226,#227);
#185=AXIS2_PLACEMENT_3D('',#265,#228,#229);
#186=AXIS2_PLACEMENT_3D('',#267,#230,#231);
#187=AXIS2_PLACEMENT_3D('',#268,#232,#233);
#188=DIRECTION('',(0.,0.,1.));
#189=DIRECTION('',(1.,0.,0.));
#190=DIRECTION('',(0.,0.,1.));
#191=DIRECTION('',(1.,0.,0.));
#192=DIRECTION('',(0.,0.,1.));
#193=DIRECTION('',(1.,0.,0.));
#194=DIRECTION('',(0.,0.,1.));
#195=DIRECTION('',(1.,0.,0.));
#196=DIRECTION('',(0.,0.,-1.));
#197=DIRECTION('',(-1.,0.,0.));
#198=DIRECTION('',(0.,0.,1.));
#199=DIRECTION('',(1.,0.,0.));
#200=DIRECTION('',(0.,0.,-1.));
#201=DIRECTION('',(-1.,0.,0.));
#202=DIRECTION('',(0.,0.,-1.));
#203=DIRECTION('',(1.,0.,0.));
#204=DIRECTION('',(0.,0.,1.));
#205=DIRECTION('',(1.,0.,0.));
#206=DIRECTION('',(0.,0.,-1.));
#207=DIRECTION('',(1.,0.,0.));
#208=DIRECTION('',(0.,0.,-1.));
#209=DIRECTION('',(-1.,0.,0.));
#210=DIRECTION('',(0.,0.,-1.));
#211=DIRECTION('',(-1.,0.,0.));
#212=DIRECTION('',(0.,0.,-1.));
#213=DIRECTION('',(-1.,0.,0.));
#214=DIRECTION('',(0.,0.,-1.));
#215=DIRECTION('',(-1.,0.,0.));
#216=DIRECTION('',(0.,0.,-1.));
#217=DIRECTION('',(-1.,0.,0.));
#218=DIRECTION('',(0.,0.,-1.));
#219=DIRECTION('',(-1.,0.,0.));
#220=DIRECTION('',(0.,0.,-1.));
#221=DIRECTION('',(-1.,0.,0.));
#222=DIRECTION('',(0.,0.,-1.));
#223=DIRECTION('',(-1.,0.,0.));
#224=DIRECTION('',(0.,0.,-1.));
#225=DIRECTION('',(-1.,0.,0.));
#226=DIRECTION('',(0.,0.,1.));
#227=DIRECTION('',(1.,0.,0.));
#228=DIRECTION('',(0.,0.,1.));
#229=DIRECTION('',(-1.,0.,0.));
#230=DIRECTION('',(0.,0.,-1.));
#231=DIRECTION('',(-1.,0.,0.));
#232=DIRECTION('',(0.,0.,1.));
#233=DIRECTION('',(1.,0.,2.76037549633306E-017));
#234=CARTESIAN_POINT('',(0.,0.,0.));
#235=CARTESIAN_POINT('PCS',(0.,0.,0.));
#236=CARTESIAN_POINT('MCS',(0.,0.,-45.));
#237=CARTESIAN_POINT('CSW',(0.,0.,-94.));
#238=CARTESIAN_POINT('',(0.,0.,0.));
#239=CARTESIAN_POINT('',(0.,0.,-45.));
#240=CARTESIAN_POINT('',(0.,0.,-94.));
#241=CARTESIAN_POINT('',(0.,-2.16840434497101E-016,-71.7));
#242=CARTESIAN_POINT('',(-5.75,-2.16840434497101E-016,-71.7));
#243=CARTESIAN_POINT('',(0.,0.,-71.7));
#244=CARTESIAN_POINT('',(6.,0.,-71.7));
#245=CARTESIAN_POINT('',(0.,0.,-71.7));
#246=CARTESIAN_POINT('',(0.,0.,0.));
#247=CARTESIAN_POINT('',(6.,0.,0.));
#248=CARTESIAN_POINT('',(0.,0.,0.));
#249=CARTESIAN_POINT('',(0.,0.,0.));
#250=CARTESIAN_POINT('',(-2.16840434497101E-016,-2.16840434497101E-016,
-81.8));
#251=CARTESIAN_POINT('',(-4.65,-2.16840434497101E-016,-81.8));
#252=CARTESIAN_POINT('',(0.,-2.16840434497101E-016,-81.8));
#253=CARTESIAN_POINT('',(-5.75,-2.16840434497101E-016,-81.8));
#254=CARTESIAN_POINT('',(0.,-2.16840434497101E-016,-81.8));
#255=CARTESIAN_POINT('',(0.,-2.16840434497101E-016,-71.7));
#256=CARTESIAN_POINT('',(-2.16840434497101E-016,-2.16840434497101E-016,
-89.2));
#257=CARTESIAN_POINT('',(-4.65,-2.16840434497101E-016,-89.2));
#258=CARTESIAN_POINT('',(-2.16840434497101E-016,-2.16840434497101E-016,
-81.8));
#259=CARTESIAN_POINT('',(-4.33680868994202E-016,-2.16840434497101E-016,
-100.));
#260=CARTESIAN_POINT('',(-5.5,-2.16840434497101E-016,-100.));
#261=CARTESIAN_POINT('',(-4.33680868994202E-016,-2.16840434497101E-016,
-100.));
#262=CARTESIAN_POINT('',(-4.33680868994202E-016,-2.16840434497101E-016,
-89.2));
#263=CARTESIAN_POINT('',(-6.,-2.16840434497101E-016,-89.2));
#264=CARTESIAN_POINT('',(-4.33680868994202E-016,-2.16840434497101E-016,
-89.2));
#265=CARTESIAN_POINT('',(-4.33680868994202E-016,-2.16840434497101E-016,
-99.5));
#266=CARTESIAN_POINT('',(-6.,-2.16840434497101E-016,-99.5));
#267=CARTESIAN_POINT('',(-4.33680868994202E-016,-2.16840434497101E-016,
-89.2));
#268=CARTESIAN_POINT('',(-4.33680868994202E-016,-2.16840434497101E-016,
-100.));
#269=MECHANICAL_DESIGN_GEOMETRIC_PRESENTATION_REPRESENTATION('',(#143,#144,
#145,#146,#147,#148,#149),#270);
#270=(
GEOMETRIC_REPRESENTATION_CONTEXT(3)
GLOBAL_UNCERTAINTY_ASSIGNED_CONTEXT((#271))
GLOBAL_UNIT_ASSIGNED_CONTEXT((#277,#273,#272))
REPRESENTATION_CONTEXT('1525683416174','TOP_LEVEL_ASSEMBLY_PART')
);
#271=UNCERTAINTY_MEASURE_WITH_UNIT(LENGTH_MEASURE(2.E-005),#277,
'DISTANCE_ACCURACY_VALUE','Maximum Tolerance applied to model');
#272=(
NAMED_UNIT(*)
SI_UNIT($,.STERADIAN.)
SOLID_ANGLE_UNIT()
);
#273=(
CONVERSION_BASED_UNIT('DEGREE',#275)
NAMED_UNIT(#274)
PLANE_ANGLE_UNIT()
);
#274=DIMENSIONAL_EXPONENTS(0.,0.,0.,0.,0.,0.,0.);
#275=PLANE_ANGLE_MEASURE_WITH_UNIT(PLANE_ANGLE_MEASURE(0.0174532925),#276);
#276=(
NAMED_UNIT(*)
PLANE_ANGLE_UNIT()
SI_UNIT($,.RADIAN.)
);
#277=(
LENGTH_UNIT()
NAMED_UNIT(*)
SI_UNIT(.MILLI.,.METRE.)
);
ENDSEC;
END-ISO-10303-21;
