ISO-10303-21;
HEADER;
/* Generated by software containing ST-Developer
 * from STEP Tools, Inc. (www.steptools.com) 
 */
/* OPTION: using custom schema-name function */

FILE_DESCRIPTION(
/* description */ (''),
/* implementation_level */ '2;1');

FILE_NAME(
/* name */ '1522913243909.stp',
/* time_stamp */ '2018-04-05T09:27:37+02:00',
/* author */ (''),
/* organization */ ('SMS'),
/* preprocessor_version */ 'ST-DEVELOPER v15',
/* originating_system */ 'SIEMENS PLM Software NX 8.5',
/* authorisation */ '');

FILE_SCHEMA (('AUTOMOTIVE_DESIGN { 1 0 10303 214 3 1 1 1 }'));
ENDSEC;

DATA;
#10=CONSTRUCTIVE_GEOMETRY_REPRESENTATION_RELATIONSHIP(
'supplemental geometry','',#24,#11);
#11=CONSTRUCTIVE_GEOMETRY_REPRESENTATION('supplemental geometry',(#303,
#304,#305),#526);
#12=SHAPE_REPRESENTATION_RELATIONSHIP('None',
'relationship between MOD000000000000000020084271300000-None and MOD00
0000000000000020084271300000-None',#24,#13);
#13=ADVANCED_BREP_SHAPE_REPRESENTATION(
'MOD000000000000000020084271300000-None',(#30),#526);
#14=SHAPE_DEFINITION_REPRESENTATION(#15,#24);
#15=PRODUCT_DEFINITION_SHAPE('','',#16);
#16=PRODUCT_DEFINITION(' ','',#18,#17);
#17=PRODUCT_DEFINITION_CONTEXT('part definition',#23,'design');
#18=PRODUCT_DEFINITION_FORMATION_WITH_SPECIFIED_SOURCE(' ',' ',#20,
 .NOT_KNOWN.);
#19=PRODUCT_RELATED_PRODUCT_CATEGORY('part','',(#20));
#20=PRODUCT('MOD000000000000000020084271300000',
'MOD000000000000000020084271300000',' ',(#21));
#21=PRODUCT_CONTEXT(' ',#23,'mechanical');
#22=APPLICATION_PROTOCOL_DEFINITION('international standard',
'automotive_design',2010,#23);
#23=APPLICATION_CONTEXT(
'core data for automotive mechanical design processes');
#24=SHAPE_REPRESENTATION('MOD000000000000000020084271300000-None',(#302),
#526);
#25=SURFACE_STYLE_USAGE(.BOTH.,#26);
#26=SURFACE_SIDE_STYLE('',(#27));
#27=SURFACE_STYLE_FILL_AREA(#28);
#28=FILL_AREA_STYLE('',(#29));
#29=FILL_AREA_STYLE_COLOUR('',#298);
#30=MANIFOLD_SOLID_BREP('NOCUT',#31);
#31=CLOSED_SHELL('',(#47,#48,#49,#50,#51,#52,#53,#54,#55,#56,#57,#58,#59,
#60,#61,#62,#63,#64,#65,#66,#67,#68,#69));
#32=CYLINDRICAL_SURFACE('',#318,19.05);
#33=CYLINDRICAL_SURFACE('',#320,3.175);
#34=CYLINDRICAL_SURFACE('',#322,18.9);
#35=CYLINDRICAL_SURFACE('',#328,7.5);
#36=CYLINDRICAL_SURFACE('',#343,22.);
#37=CYLINDRICAL_SURFACE('',#350,14.);
#38=PLANE('',#314);
#39=PLANE('',#324);
#40=PLANE('',#347);
#41=TOROIDAL_SURFACE('',#311,18.2262395692966,0.4);
#42=TOROIDAL_SURFACE('',#333,20.8343145750508,0.4);
#43=TOROIDAL_SURFACE('',#336,20.7843145750508,0.4);
#44=TOROIDAL_SURFACE('',#344,21.6,0.4);
#45=TOROIDAL_SURFACE('',#345,21.6,0.4);
#46=TOROIDAL_SURFACE('',#348,19.3,0.4);
#47=ADVANCED_FACE('',(#78,#79),#70,.T.);
#48=ADVANCED_FACE('',(#80,#81),#41,.T.);
#49=ADVANCED_FACE('',(#82,#83),#38,.T.);
#50=ADVANCED_FACE('',(#84,#85),#71,.F.);
#51=ADVANCED_FACE('',(#86,#87),#32,.T.);
#52=ADVANCED_FACE('',(#88,#89),#33,.F.);
#53=ADVANCED_FACE('',(#90,#91),#34,.T.);
#54=ADVANCED_FACE('',(#92,#93),#39,.T.);
#55=ADVANCED_FACE('',(#94,#95),#72,.F.);
#56=ADVANCED_FACE('',(#96,#97),#35,.F.);
#57=ADVANCED_FACE('',(#98,#99),#73,.F.);
#58=ADVANCED_FACE('',(#100,#101),#42,.T.);
#59=ADVANCED_FACE('',(#102,#103),#74,.T.);
#60=ADVANCED_FACE('',(#104,#105),#43,.T.);
#61=ADVANCED_FACE('',(#106,#107),#75,.T.);
#62=ADVANCED_FACE('',(#108,#109),#76,.T.);
#63=ADVANCED_FACE('',(#110,#111),#36,.T.);
#64=ADVANCED_FACE('',(#112,#113),#44,.T.);
#65=ADVANCED_FACE('',(#114,#115),#45,.T.);
#66=ADVANCED_FACE('',(#116,#117),#40,.T.);
#67=ADVANCED_FACE('',(#118,#119),#46,.F.);
#68=ADVANCED_FACE('',(#120,#121),#37,.F.);
#69=ADVANCED_FACE('',(#122,#123),#77,.F.);
#70=CONICAL_SURFACE('',#308,19.15,15.0000000000001);
#71=CONICAL_SURFACE('',#316,3.175,30.0000000000001);
#72=CONICAL_SURFACE('',#326,3.175,30.);
#73=CONICAL_SURFACE('',#330,7.5,45.);
#74=CONICAL_SURFACE('',#334,18.4571796769725,30.);
#75=CONICAL_SURFACE('',#338,22.,45.);
#76=CONICAL_SURFACE('',#340,21.,45.);
#77=CONICAL_SURFACE('',#351,14.,30.0000000000006);
#78=FACE_BOUND('',#124,.T.);
#79=FACE_BOUND('',#125,.T.);
#80=FACE_BOUND('',#126,.T.);
#81=FACE_BOUND('',#127,.T.);
#82=FACE_BOUND('',#128,.T.);
#83=FACE_BOUND('',#129,.T.);
#84=FACE_BOUND('',#130,.T.);
#85=FACE_BOUND('',#131,.T.);
#86=FACE_BOUND('',#132,.T.);
#87=FACE_BOUND('',#133,.T.);
#88=FACE_BOUND('',#134,.T.);
#89=FACE_BOUND('',#135,.T.);
#90=FACE_BOUND('',#136,.T.);
#91=FACE_BOUND('',#137,.T.);
#92=FACE_BOUND('',#138,.T.);
#93=FACE_BOUND('',#139,.T.);
#94=FACE_BOUND('',#140,.T.);
#95=FACE_BOUND('',#141,.T.);
#96=FACE_BOUND('',#142,.T.);
#97=FACE_BOUND('',#143,.T.);
#98=FACE_BOUND('',#144,.T.);
#99=FACE_BOUND('',#145,.T.);
#100=FACE_BOUND('',#146,.T.);
#101=FACE_BOUND('',#147,.T.);
#102=FACE_BOUND('',#148,.T.);
#103=FACE_BOUND('',#149,.T.);
#104=FACE_BOUND('',#150,.T.);
#105=FACE_BOUND('',#151,.T.);
#106=FACE_BOUND('',#152,.T.);
#107=FACE_BOUND('',#153,.T.);
#108=FACE_BOUND('',#154,.T.);
#109=FACE_BOUND('',#155,.T.);
#110=FACE_BOUND('',#156,.T.);
#111=FACE_BOUND('',#157,.T.);
#112=FACE_BOUND('',#158,.T.);
#113=FACE_BOUND('',#159,.T.);
#114=FACE_BOUND('',#160,.T.);
#115=FACE_BOUND('',#161,.T.);
#116=FACE_BOUND('',#162,.T.);
#117=FACE_BOUND('',#163,.T.);
#118=FACE_BOUND('',#164,.T.);
#119=FACE_BOUND('',#165,.T.);
#120=FACE_BOUND('',#166,.T.);
#121=FACE_BOUND('',#167,.T.);
#122=FACE_BOUND('',#168,.T.);
#123=FACE_BOUND('',#169,.T.);
#124=EDGE_LOOP('',(#170));
#125=EDGE_LOOP('',(#171));
#126=EDGE_LOOP('',(#172));
#127=EDGE_LOOP('',(#173));
#128=EDGE_LOOP('',(#174));
#129=EDGE_LOOP('',(#175));
#130=EDGE_LOOP('',(#176));
#131=EDGE_LOOP('',(#177));
#132=EDGE_LOOP('',(#178));
#133=EDGE_LOOP('',(#179));
#134=EDGE_LOOP('',(#180));
#135=EDGE_LOOP('',(#181));
#136=EDGE_LOOP('',(#182));
#137=EDGE_LOOP('',(#183));
#138=EDGE_LOOP('',(#184));
#139=EDGE_LOOP('',(#185));
#140=EDGE_LOOP('',(#186));
#141=EDGE_LOOP('',(#187));
#142=EDGE_LOOP('',(#188));
#143=EDGE_LOOP('',(#189));
#144=EDGE_LOOP('',(#190));
#145=EDGE_LOOP('',(#191));
#146=EDGE_LOOP('',(#192));
#147=EDGE_LOOP('',(#193));
#148=EDGE_LOOP('',(#194));
#149=EDGE_LOOP('',(#195));
#150=EDGE_LOOP('',(#196));
#151=EDGE_LOOP('',(#197));
#152=EDGE_LOOP('',(#198));
#153=EDGE_LOOP('',(#199));
#154=EDGE_LOOP('',(#200));
#155=EDGE_LOOP('',(#201));
#156=EDGE_LOOP('',(#202));
#157=EDGE_LOOP('',(#203));
#158=EDGE_LOOP('',(#204));
#159=EDGE_LOOP('',(#205));
#160=EDGE_LOOP('',(#206));
#161=EDGE_LOOP('',(#207));
#162=EDGE_LOOP('',(#208));
#163=EDGE_LOOP('',(#209));
#164=EDGE_LOOP('',(#210));
#165=EDGE_LOOP('',(#211));
#166=EDGE_LOOP('',(#212));
#167=EDGE_LOOP('',(#213));
#168=EDGE_LOOP('',(#214));
#169=EDGE_LOOP('',(#215));
#170=ORIENTED_EDGE('',*,*,#239,.T.);
#171=ORIENTED_EDGE('',*,*,#240,.T.);
#172=ORIENTED_EDGE('',*,*,#241,.F.);
#173=ORIENTED_EDGE('',*,*,#242,.F.);
#174=ORIENTED_EDGE('',*,*,#243,.T.);
#175=ORIENTED_EDGE('',*,*,#244,.F.);
#176=ORIENTED_EDGE('',*,*,#243,.F.);
#177=ORIENTED_EDGE('',*,*,#245,.T.);
#178=ORIENTED_EDGE('',*,*,#240,.F.);
#179=ORIENTED_EDGE('',*,*,#246,.F.);
#180=ORIENTED_EDGE('',*,*,#245,.F.);
#181=ORIENTED_EDGE('',*,*,#247,.T.);
#182=ORIENTED_EDGE('',*,*,#248,.T.);
#183=ORIENTED_EDGE('',*,*,#239,.F.);
#184=ORIENTED_EDGE('',*,*,#242,.T.);
#185=ORIENTED_EDGE('',*,*,#249,.F.);
#186=ORIENTED_EDGE('',*,*,#250,.T.);
#187=ORIENTED_EDGE('',*,*,#247,.F.);
#188=ORIENTED_EDGE('',*,*,#251,.T.);
#189=ORIENTED_EDGE('',*,*,#250,.F.);
#190=ORIENTED_EDGE('',*,*,#252,.T.);
#191=ORIENTED_EDGE('',*,*,#251,.F.);
#192=ORIENTED_EDGE('',*,*,#253,.F.);
#193=ORIENTED_EDGE('',*,*,#254,.F.);
#194=ORIENTED_EDGE('',*,*,#241,.T.);
#195=ORIENTED_EDGE('',*,*,#246,.T.);
#196=ORIENTED_EDGE('',*,*,#255,.F.);
#197=ORIENTED_EDGE('',*,*,#244,.T.);
#198=ORIENTED_EDGE('',*,*,#256,.T.);
#199=ORIENTED_EDGE('',*,*,#255,.T.);
#200=ORIENTED_EDGE('',*,*,#253,.T.);
#201=ORIENTED_EDGE('',*,*,#257,.T.);
#202=ORIENTED_EDGE('',*,*,#258,.T.);
#203=ORIENTED_EDGE('',*,*,#259,.T.);
#204=ORIENTED_EDGE('',*,*,#256,.F.);
#205=ORIENTED_EDGE('',*,*,#259,.F.);
#206=ORIENTED_EDGE('',*,*,#257,.F.);
#207=ORIENTED_EDGE('',*,*,#258,.F.);
#208=ORIENTED_EDGE('',*,*,#254,.T.);
#209=ORIENTED_EDGE('',*,*,#260,.F.);
#210=ORIENTED_EDGE('',*,*,#260,.T.);
#211=ORIENTED_EDGE('',*,*,#248,.F.);
#212=ORIENTED_EDGE('',*,*,#261,.T.);
#213=ORIENTED_EDGE('',*,*,#252,.F.);
#214=ORIENTED_EDGE('',*,*,#249,.T.);
#215=ORIENTED_EDGE('',*,*,#261,.F.);
#216=VERTEX_POINT('',#457);
#217=VERTEX_POINT('',#459);
#218=VERTEX_POINT('',#462);
#219=VERTEX_POINT('',#464);
#220=VERTEX_POINT('',#467);
#221=VERTEX_POINT('',#469);
#222=VERTEX_POINT('',#472);
#223=VERTEX_POINT('',#475);
#224=VERTEX_POINT('',#478);
#225=VERTEX_POINT('',#481);
#226=VERTEX_POINT('',#484);
#227=VERTEX_POINT('',#487);
#228=VERTEX_POINT('',#490);
#229=VERTEX_POINT('',#493);
#230=VERTEX_POINT('',#496);
#231=VERTEX_POINT('',#498);
#232=VERTEX_POINT('',#502);
#233=VERTEX_POINT('',#505);
#234=VERTEX_POINT('',#508);
#235=VERTEX_POINT('',#511);
#236=VERTEX_POINT('',#513);
#237=VERTEX_POINT('',#518);
#238=VERTEX_POINT('',#522);
#239=EDGE_CURVE('',#216,#216,#262,.T.);
#240=EDGE_CURVE('',#217,#217,#263,.T.);
#241=EDGE_CURVE('',#218,#218,#264,.T.);
#242=EDGE_CURVE('',#219,#219,#265,.T.);
#243=EDGE_CURVE('',#220,#220,#266,.T.);
#244=EDGE_CURVE('',#221,#221,#267,.T.);
#245=EDGE_CURVE('',#222,#222,#268,.T.);
#246=EDGE_CURVE('',#223,#223,#269,.T.);
#247=EDGE_CURVE('',#224,#224,#270,.T.);
#248=EDGE_CURVE('',#225,#225,#271,.T.);
#249=EDGE_CURVE('',#226,#226,#272,.T.);
#250=EDGE_CURVE('',#227,#227,#273,.T.);
#251=EDGE_CURVE('',#228,#228,#274,.T.);
#252=EDGE_CURVE('',#229,#229,#275,.T.);
#253=EDGE_CURVE('',#230,#230,#276,.T.);
#254=EDGE_CURVE('',#231,#231,#277,.T.);
#255=EDGE_CURVE('',#232,#232,#278,.T.);
#256=EDGE_CURVE('',#233,#233,#279,.T.);
#257=EDGE_CURVE('',#234,#234,#280,.T.);
#258=EDGE_CURVE('',#235,#235,#281,.T.);
#259=EDGE_CURVE('',#236,#236,#282,.T.);
#260=EDGE_CURVE('',#237,#237,#283,.T.);
#261=EDGE_CURVE('',#238,#238,#284,.T.);
#262=CIRCLE('',#306,18.9);
#263=CIRCLE('',#307,19.05);
#264=CIRCLE('',#309,18.5726497308104);
#265=CIRCLE('',#310,18.2262395692966);
#266=CIRCLE('',#312,3.425);
#267=CIRCLE('',#313,21.0488897061572);
#268=CIRCLE('',#315,3.175);
#269=CIRCLE('',#317,19.05);
#270=CIRCLE('',#319,3.175);
#271=CIRCLE('',#321,18.9);
#272=CIRCLE('',#323,14.2886751345948);
#273=CIRCLE('',#325,7.5);
#274=CIRCLE('',#327,7.5);
#275=CIRCLE('',#329,14.);
#276=CIRCLE('',#331,21.1171572875254);
#277=CIRCLE('',#332,20.8343145750508);
#278=CIRCLE('',#335,21.0671572875254);
#279=CIRCLE('',#337,21.8828427124746);
#280=CIRCLE('',#339,21.8828427124746);
#281=CIRCLE('',#341,22.);
#282=CIRCLE('',#342,22.);
#283=CIRCLE('',#346,19.3);
#284=CIRCLE('',#349,14.);
#285=PRESENTATION_LAYER_ASSIGNMENT('1','Layer 1',(#303,#304,#305,#30));
#286=STYLED_ITEM('',(#290),#303);
#287=STYLED_ITEM('',(#291),#304);
#288=STYLED_ITEM('',(#292),#305);
#289=STYLED_ITEM('',(#293),#30);
#290=PRESENTATION_STYLE_ASSIGNMENT((#294));
#291=PRESENTATION_STYLE_ASSIGNMENT((#295));
#292=PRESENTATION_STYLE_ASSIGNMENT((#296));
#293=PRESENTATION_STYLE_ASSIGNMENT((#25));
#294=CURVE_STYLE('',#299,POSITIVE_LENGTH_MEASURE(0.18),#297);
#295=CURVE_STYLE('',#300,POSITIVE_LENGTH_MEASURE(0.18),#297);
#296=CURVE_STYLE('',#301,POSITIVE_LENGTH_MEASURE(0.18),#297);
#297=COLOUR_RGB('Strong Stone',0.576470588235294,0.54508278019379,0.392156862745098);
#298=COLOUR_RGB('Medium Gray',0.501960784313725,0.501960784313725,0.501960784313725);
#299=DRAUGHTING_PRE_DEFINED_CURVE_FONT('continuous');
#300=DRAUGHTING_PRE_DEFINED_CURVE_FONT('continuous');
#301=DRAUGHTING_PRE_DEFINED_CURVE_FONT('continuous');
#302=AXIS2_PLACEMENT_3D('',#452,#352,#353);
#303=AXIS2_PLACEMENT_3D('MCS',#453,#354,#355);
#304=AXIS2_PLACEMENT_3D('PCS',#454,#356,#357);
#305=AXIS2_PLACEMENT_3D('CSW',#455,#358,#359);
#306=AXIS2_PLACEMENT_3D('',#456,#360,#361);
#307=AXIS2_PLACEMENT_3D('',#458,#362,#363);
#308=AXIS2_PLACEMENT_3D('',#460,#364,#365);
#309=AXIS2_PLACEMENT_3D('',#461,#366,#367);
#310=AXIS2_PLACEMENT_3D('',#463,#368,#369);
#311=AXIS2_PLACEMENT_3D('',#465,#370,#371);
#312=AXIS2_PLACEMENT_3D('',#466,#372,#373);
#313=AXIS2_PLACEMENT_3D('',#468,#374,#375);
#314=AXIS2_PLACEMENT_3D('',#470,#376,#377);
#315=AXIS2_PLACEMENT_3D('',#471,#378,#379);
#316=AXIS2_PLACEMENT_3D('',#473,#380,#381);
#317=AXIS2_PLACEMENT_3D('',#474,#382,#383);
#318=AXIS2_PLACEMENT_3D('',#476,#384,#385);
#319=AXIS2_PLACEMENT_3D('',#477,#386,#387);
#320=AXIS2_PLACEMENT_3D('',#479,#388,#389);
#321=AXIS2_PLACEMENT_3D('',#480,#390,#391);
#322=AXIS2_PLACEMENT_3D('',#482,#392,#393);
#323=AXIS2_PLACEMENT_3D('',#483,#394,#395);
#324=AXIS2_PLACEMENT_3D('',#485,#396,#397);
#325=AXIS2_PLACEMENT_3D('',#486,#398,#399);
#326=AXIS2_PLACEMENT_3D('',#488,#400,#401);
#327=AXIS2_PLACEMENT_3D('',#489,#402,#403);
#328=AXIS2_PLACEMENT_3D('',#491,#404,#405);
#329=AXIS2_PLACEMENT_3D('',#492,#406,#407);
#330=AXIS2_PLACEMENT_3D('',#494,#408,#409);
#331=AXIS2_PLACEMENT_3D('',#495,#410,#411);
#332=AXIS2_PLACEMENT_3D('',#497,#412,#413);
#333=AXIS2_PLACEMENT_3D('',#499,#414,#415);
#334=AXIS2_PLACEMENT_3D('',#500,#416,#417);
#335=AXIS2_PLACEMENT_3D('',#501,#418,#419);
#336=AXIS2_PLACEMENT_3D('',#503,#420,#421);
#337=AXIS2_PLACEMENT_3D('',#504,#422,#423);
#338=AXIS2_PLACEMENT_3D('',#506,#424,#425);
#339=AXIS2_PLACEMENT_3D('',#507,#426,#427);
#340=AXIS2_PLACEMENT_3D('',#509,#428,#429);
#341=AXIS2_PLACEMENT_3D('',#510,#430,#431);
#342=AXIS2_PLACEMENT_3D('',#512,#432,#433);
#343=AXIS2_PLACEMENT_3D('',#514,#434,#435);
#344=AXIS2_PLACEMENT_3D('',#515,#436,#437);
#345=AXIS2_PLACEMENT_3D('',#516,#438,#439);
#346=AXIS2_PLACEMENT_3D('',#517,#440,#441);
#347=AXIS2_PLACEMENT_3D('',#519,#442,#443);
#348=AXIS2_PLACEMENT_3D('',#520,#444,#445);
#349=AXIS2_PLACEMENT_3D('',#521,#446,#447);
#350=AXIS2_PLACEMENT_3D('',#523,#448,#449);
#351=AXIS2_PLACEMENT_3D('',#524,#450,#451);
#352=DIRECTION('',(0.,0.,1.));
#353=DIRECTION('',(1.,0.,0.));
#354=DIRECTION('',(0.,0.,1.));
#355=DIRECTION('',(1.,0.,0.));
#356=DIRECTION('',(0.,0.,1.));
#357=DIRECTION('',(1.,0.,0.));
#358=DIRECTION('',(0.,0.,1.));
#359=DIRECTION('',(1.,0.,0.));
#360=DIRECTION('',(-6.12323399573677E-017,-6.12323399573677E-017,1.));
#361=DIRECTION('',(1.,-6.12323399573677E-017,5.73651943114024E-017));
#362=DIRECTION('',(6.12323399573677E-017,6.12323399573677E-017,-1.));
#363=DIRECTION('',(1.,-6.12323399573677E-017,6.82961998416066E-017));
#364=DIRECTION('',(-6.12323399573677E-017,-6.12323399573677E-017,1.));
#365=DIRECTION('',(1.,-6.12323399573677E-017,-1.85799014043148E-016));
#366=DIRECTION('',(6.12323399573677E-017,6.12323399573677E-017,-1.));
#367=DIRECTION('',(1.,-6.12323399573677E-017,0.));
#368=DIRECTION('',(-6.12323399573677E-017,-6.12323399573677E-017,1.));
#369=DIRECTION('',(1.,-6.12323399573677E-017,0.));
#370=DIRECTION('',(-6.12323399573677E-017,-6.12323399573677E-017,1.));
#371=DIRECTION('',(1.,-6.12323399573677E-017,0.));
#372=DIRECTION('',(-6.12323399573677E-017,-6.12323399573677E-017,1.));
#373=DIRECTION('',(1.,-6.12323399573677E-017,0.));
#374=DIRECTION('',(-6.12323399573677E-017,-6.12323399573677E-017,1.));
#375=DIRECTION('',(-1.,6.12323399573677E-017,-4.12070066448533E-017));
#376=DIRECTION('',(6.12323399573677E-017,6.12323399573677E-017,-1.));
#377=DIRECTION('',(-1.,6.12323399573677E-017,-6.15826833971767E-017));
#378=DIRECTION('',(-6.12323399573677E-017,-6.12323399573677E-017,1.));
#379=DIRECTION('',(1.,-6.12323399573677E-017,0.));
#380=DIRECTION('',(6.12323399573677E-017,6.12323399573677E-017,-1.));
#381=DIRECTION('',(-1.,6.12323399573677E-017,-2.24114724376902E-017));
#382=DIRECTION('',(-6.12323399573677E-017,-6.12323399573677E-017,1.));
#383=DIRECTION('',(-1.,6.12323399573677E-017,0.));
#384=DIRECTION('',(6.12323399573677E-017,6.12323399573677E-017,-1.));
#385=DIRECTION('',(1.,-6.12323399573677E-017,0.));
#386=DIRECTION('',(-6.12323399573677E-017,-6.12323399573677E-017,1.));
#387=DIRECTION('',(1.,-6.12323399573677E-017,0.));
#388=DIRECTION('',(6.12323399573677E-017,6.12323399573677E-017,-1.));
#389=DIRECTION('',(-1.,6.12323399573677E-017,0.));
#390=DIRECTION('',(-6.12323399573677E-017,-6.12323399573677E-017,1.));
#391=DIRECTION('',(1.,-6.12323399573677E-017,6.02334540269725E-017));
#392=DIRECTION('',(6.12323399573677E-017,6.12323399573677E-017,-1.));
#393=DIRECTION('',(1.,-6.12323399573677E-017,4.58921554491219E-017));
#394=DIRECTION('',(-6.12323399573677E-017,-6.12323399573677E-017,1.));
#395=DIRECTION('',(1.,-6.12323399573677E-017,0.));
#396=DIRECTION('',(-6.12323399573677E-017,-6.12323399573677E-017,1.));
#397=DIRECTION('',(1.,-6.12323399573677E-017,5.55111512312578E-017));
#398=DIRECTION('',(-6.12323399573677E-017,-6.12323399573677E-017,1.));
#399=DIRECTION('',(1.,-6.12323399573677E-017,0.));
#400=DIRECTION('',(-6.12323399573677E-017,-6.12323399573677E-017,1.));
#401=DIRECTION('',(1.,-6.12323399573677E-017,-1.43433423601218E-016));
#402=DIRECTION('',(-6.12323399573677E-017,-6.12323399573677E-017,1.));
#403=DIRECTION('',(1.,-6.12323399573677E-017,0.));
#404=DIRECTION('',(6.12323399573677E-017,6.12323399573677E-017,-1.));
#405=DIRECTION('',(1.,-6.12323399573677E-017,0.));
#406=DIRECTION('',(-6.12323399573677E-017,-6.12323399573677E-017,1.));
#407=DIRECTION('',(1.,-6.12323399573677E-017,0.));
#408=DIRECTION('',(-6.12323399573677E-017,-6.12323399573677E-017,1.));
#409=DIRECTION('',(1.,-6.12323399573677E-017,-1.37744792137116E-017));
#410=DIRECTION('',(6.12323399573677E-017,6.12323399573677E-017,-1.));
#411=DIRECTION('',(1.,-6.12323399573677E-017,6.09689108385388E-017));
#412=DIRECTION('',(-6.12323399573677E-017,-6.12323399573677E-017,1.));
#413=DIRECTION('',(1.,-6.12323399573677E-017,6.12323399573677E-017));
#414=DIRECTION('',(-6.12323399573677E-017,-6.12323399573677E-017,1.));
#415=DIRECTION('',(1.,-6.12323399573677E-017,6.12707607012313E-017));
#416=DIRECTION('',(6.12323399573677E-017,6.12323399573677E-017,-1.));
#417=DIRECTION('',(-1.,6.12323399573677E-017,9.31696160174842E-017));
#418=DIRECTION('',(-6.12323399573677E-017,-6.12323399573677E-017,1.));
#419=DIRECTION('',(-1.,6.12323399573677E-017,-4.11712755617958E-017));
#420=DIRECTION('',(6.12323399573677E-017,6.12323399573677E-017,-1.));
#421=DIRECTION('',(-1.,6.12323399573677E-017,-4.09435828058328E-017));
#422=DIRECTION('',(6.12323399573677E-017,6.12323399573677E-017,-1.));
#423=DIRECTION('',(-1.,6.12323399573677E-017,-7.92732232630775E-017));
#424=DIRECTION('',(-6.12323399573677E-017,-6.12323399573677E-017,1.));
#425=DIRECTION('',(1.,-6.12323399573677E-017,1.10329770976999E-016));
#426=DIRECTION('',(-6.12323399573677E-017,-6.12323399573677E-017,1.));
#427=DIRECTION('',(1.,-6.12323399573677E-017,5.94549174473081E-017));
#428=DIRECTION('',(6.12323399573677E-017,6.12323399573677E-017,-1.));
#429=DIRECTION('',(-1.,6.12323399573677E-017,0.));
#430=DIRECTION('',(6.12323399573677E-017,6.12323399573677E-017,-1.));
#431=DIRECTION('',(1.,-6.12323399573677E-017,5.91383003173912E-017));
#432=DIRECTION('',(-6.12323399573677E-017,-6.12323399573677E-017,1.));
#433=DIRECTION('',(-1.,6.12323399573677E-017,-5.91383003173912E-017));
#434=DIRECTION('',(6.12323399573677E-017,6.12323399573677E-017,-1.));
#435=DIRECTION('',(1.,-6.12323399573677E-017,7.88510670898549E-017));
#436=DIRECTION('',(6.12323399573677E-017,6.12323399573677E-017,-1.));
#437=DIRECTION('',(-1.,6.12323399573677E-017,-5.91383003173911E-017));
#438=DIRECTION('',(-6.12323399573677E-017,-6.12323399573677E-017,1.));
#439=DIRECTION('',(1.,-6.12323399573677E-017,5.91383003173911E-017));
#440=DIRECTION('',(-6.12323399573677E-017,-6.12323399573677E-017,1.));
#441=DIRECTION('',(1.,-6.12323399573677E-017,6.12323399573677E-017));
#442=DIRECTION('',(-6.12323399573677E-017,-6.12323399573677E-017,1.));
#443=DIRECTION('',(1.,-6.12323399573677E-017,6.12323399573677E-017));
#444=DIRECTION('',(-6.12323399573677E-017,-6.12323399573677E-017,1.));
#445=DIRECTION('',(1.,-6.12323399573677E-017,6.05392076007134E-017));
#446=DIRECTION('',(-6.12323399573677E-017,-6.12323399573677E-017,1.));
#447=DIRECTION('',(1.,-6.12323399573677E-017,0.));
#448=DIRECTION('',(6.12323399573677E-017,6.12323399573677E-017,-1.));
#449=DIRECTION('',(1.,-6.12323399573677E-017,0.));
#450=DIRECTION('',(-6.12323399573677E-017,-6.12323399573677E-017,1.));
#451=DIRECTION('',(1.,-6.12323399573677E-017,1.87743725245371E-016));
#452=CARTESIAN_POINT('',(0.,0.,0.));
#453=CARTESIAN_POINT('',(0.,0.,0.));
#454=CARTESIAN_POINT('',(0.,0.,0.));
#455=CARTESIAN_POINT('',(0.,0.,-5.));
#456=CARTESIAN_POINT('',(-9.59502989466133E-017,-9.59502989466132E-017,
1.56698729810779));
#457=CARTESIAN_POINT('',(18.9,-1.25324152414086E-015,1.56698729810779));
#458=CARTESIAN_POINT('',(-1.30228629514697E-016,-1.30228629514697E-016,
2.12679491924312));
#459=CARTESIAN_POINT('',(19.05,-1.29670470570255E-015,2.12679491924312));
#460=CARTESIAN_POINT('',(-1.5308084989342E-016,-1.53080849893419E-016,2.5));
#461=CARTESIAN_POINT('',(-4.27401732902427E-015,-4.27401732902426E-015,
69.8));
#462=CARTESIAN_POINT('',(18.5726497308104,-5.41126413125036E-015,69.8));
#463=CARTESIAN_POINT('',(-4.28626379701573E-015,-4.28626379701573E-015,
70.));
#464=CARTESIAN_POINT('',(18.2262395692966,-5.40229909446733E-015,70.));
#465=CARTESIAN_POINT('',(-4.26177086103279E-015,-4.26177086103279E-015,
69.6));
#466=CARTESIAN_POINT('',(3.06161699786838E-016,3.06161699786838E-016,-5.));
#467=CARTESIAN_POINT('',(3.425,9.64409354328532E-017,-5.));
#468=CARTESIAN_POINT('',(3.06161699786838E-016,3.06161699786838E-016,-5.));
#469=CARTESIAN_POINT('',(-21.0488897061572,1.5950344699994E-015,-5.));
#470=CARTESIAN_POINT('',(22.,-1.04094977927525E-015,-5.));
#471=CARTESIAN_POINT('',(2.79647318818715E-016,2.79647318818715E-016,-4.56698729810777));
#472=CARTESIAN_POINT('',(3.175,8.52346394540726E-017,-4.56698729810777));
#473=CARTESIAN_POINT('',(2.79647318818715E-016,2.79647318818715E-016,-4.56698729810777));
#474=CARTESIAN_POINT('',(-4.22339074145414E-015,-4.22339074145414E-015,
68.9732050807569));
#475=CARTESIAN_POINT('',(-19.05,-3.05691466526629E-015,68.9732050807569));
#476=CARTESIAN_POINT('',(-3.67394039744206E-015,-3.67394039744206E-015,
60.));
#477=CARTESIAN_POINT('',(-1.99059480754618E-015,-1.99059480754618E-015,
32.5088802572647));
#478=CARTESIAN_POINT('',(3.175,-2.18500748691083E-015,32.5088802572647));
#479=CARTESIAN_POINT('',(3.12284933782575E-016,3.12284933782575E-016,-5.1));
#480=CARTESIAN_POINT('',(-2.4492935982947E-017,-2.4492935982947E-017,0.4));
#481=CARTESIAN_POINT('',(18.9,-1.1817841611772E-015,0.400000000000001));
#482=CARTESIAN_POINT('',(3.09223316784706E-016,3.09223316784706E-016,-5.05));
#483=CARTESIAN_POINT('',(-4.28626379701573E-015,-4.28626379701573E-015,
70.));
#484=CARTESIAN_POINT('',(14.2886751345948,-5.16119281039763E-015,70.));
#485=CARTESIAN_POINT('',(-4.28626379701573E-015,-4.28626379701573E-015,
70.));
#486=CARTESIAN_POINT('',(-2.4492935982947E-015,-2.4492935982947E-015,40.));
#487=CARTESIAN_POINT('',(7.5,-2.90853614797496E-015,40.));
#488=CARTESIAN_POINT('',(-1.99059480754618E-015,-1.99059480754618E-015,
32.5088802572647));
#489=CARTESIAN_POINT('',(-2.96976848793233E-015,-2.96976848793233E-015,
48.5));
#490=CARTESIAN_POINT('',(7.5,-3.42901103761259E-015,48.5));
#491=CARTESIAN_POINT('',(-4.28626379701573E-015,-4.28626379701573E-015,
70.));
#492=CARTESIAN_POINT('',(-3.36777869765522E-015,-3.36777869765522E-015,
55.));
#493=CARTESIAN_POINT('',(14.,-4.22503145705837E-015,55.));
#494=CARTESIAN_POINT('',(-2.96976848793233E-015,-2.96976848793233E-015,
48.5));
#495=CARTESIAN_POINT('',(7.17381485823724E-018,7.17381485823724E-018,-0.117157287525382));
#496=CARTESIAN_POINT('',(21.1171572875254,-1.28587913910472E-015,-0.11715728752538));
#497=CARTESIAN_POINT('',(0.,0.,0.));
#498=CARTESIAN_POINT('',(20.8343145750508,-1.27573383283825E-015,1.27573383283825E-015));
#499=CARTESIAN_POINT('',(2.44929359829471E-017,2.44929359829471E-017,-0.4));
#500=CARTESIAN_POINT('',(-4.28626379701573E-015,-4.28626379701573E-015,
70.));
#501=CARTESIAN_POINT('',(3.05111118924338E-016,3.05111118924338E-016,-4.98284271247462));
#502=CARTESIAN_POINT('',(-21.0671572875254,1.59510245588943E-015,-4.98284271247462));
#503=CARTESIAN_POINT('',(2.87791997799628E-016,2.87791997799628E-016,-4.7));
#504=CARTESIAN_POINT('',(2.55164791685576E-016,2.55164791685576E-016,-4.16715728752538));
#505=CARTESIAN_POINT('',(-21.8828427124746,1.59510245588943E-015,-4.16715728752538));
#506=CARTESIAN_POINT('',(2.47990976827339E-016,2.47990976827339E-016,-4.05));
#507=CARTESIAN_POINT('',(5.40585250991307E-017,5.40585250991307E-017,-0.882842712474623));
#508=CARTESIAN_POINT('',(21.8828427124746,-1.28587913910472E-015,-0.882842712474622));
#509=CARTESIAN_POINT('',(0.,0.,0.));
#510=CARTESIAN_POINT('',(7.13776462238403E-017,7.13776462238403E-017,-1.16568542494924));
#511=CARTESIAN_POINT('',(22.,-1.27573383283825E-015,-1.16568542494924));
#512=CARTESIAN_POINT('',(2.37845670560866E-016,2.37845670560866E-016,-3.88431457505076));
#513=CARTESIAN_POINT('',(-22.,1.58495714962296E-015,-3.88431457505076));
#514=CARTESIAN_POINT('',(3.09223316784706E-016,3.09223316784706E-016,-5.05));
#515=CARTESIAN_POINT('',(2.37845670560866E-016,2.37845670560866E-016,-3.88431457505076));
#516=CARTESIAN_POINT('',(7.13776462238403E-017,7.13776462238403E-017,-1.16568542494924));
#517=CARTESIAN_POINT('',(0.,0.,0.));
#518=CARTESIAN_POINT('',(19.3,-1.1817841611772E-015,1.1817841611772E-015));
#519=CARTESIAN_POINT('',(19.3,-1.1817841611772E-015,1.15467910686506E-015));
#520=CARTESIAN_POINT('',(-2.44929359829471E-017,-2.44929359829471E-017,
0.4));
#521=CARTESIAN_POINT('',(-4.25564762703706E-015,-4.25564762703705E-015,
69.5));
#522=CARTESIAN_POINT('',(14.,-5.1129003864402E-015,69.5));
#523=CARTESIAN_POINT('',(-4.28626379701573E-015,-4.28626379701573E-015,
70.));
#524=CARTESIAN_POINT('',(-4.25564762703706E-015,-4.25564762703705E-015,
69.5));
#525=MECHANICAL_DESIGN_GEOMETRIC_PRESENTATION_REPRESENTATION('',(#286,#287,
#288,#289),#526);
#526=(
GEOMETRIC_REPRESENTATION_CONTEXT(3)
GLOBAL_UNCERTAINTY_ASSIGNED_CONTEXT((#527))
GLOBAL_UNIT_ASSIGNED_CONTEXT((#533,#529,#528))
REPRESENTATION_CONTEXT('1522913243909','TOP_LEVEL_ASSEMBLY_PART')
);
#527=UNCERTAINTY_MEASURE_WITH_UNIT(LENGTH_MEASURE(2.E-005),#533,
'DISTANCE_ACCURACY_VALUE','Maximum Tolerance applied to model');
#528=(
NAMED_UNIT(*)
SI_UNIT($,.STERADIAN.)
SOLID_ANGLE_UNIT()
);
#529=(
CONVERSION_BASED_UNIT('DEGREE',#531)
NAMED_UNIT(#530)
PLANE_ANGLE_UNIT()
);
#530=DIMENSIONAL_EXPONENTS(0.,0.,0.,0.,0.,0.,0.);
#531=PLANE_ANGLE_MEASURE_WITH_UNIT(PLANE_ANGLE_MEASURE(0.0174532925),#532);
#532=(
NAMED_UNIT(*)
PLANE_ANGLE_UNIT()
SI_UNIT($,.RADIAN.)
);
#533=(
LENGTH_UNIT()
NAMED_UNIT(*)
SI_UNIT(.MILLI.,.METRE.)
);
ENDSEC;
END-ISO-10303-21;
