ISO-10303-21;
HEADER;
/* Generated by software containing ST-Developer
 * from STEP Tools, Inc. (www.steptools.com) 
 */
/* OPTION: using custom schema-name function */

FILE_DESCRIPTION(
/* description */ (''),
/* implementation_level */ '2;1');

FILE_NAME(
/* name */ '1522913125086.stp',
/* time_stamp */ '2018-04-05T09:25:39+02:00',
/* author */ (''),
/* organization */ ('SMS'),
/* preprocessor_version */ 'ST-DEVELOPER v15',
/* originating_system */ 'SIEMENS PLM Software NX 8.5',
/* authorisation */ '');

FILE_SCHEMA (('AUTOMOTIVE_DESIGN { 1 0 10303 214 3 1 1 1 }'));
ENDSEC;

DATA;
#10=CONSTRUCTIVE_GEOMETRY_REPRESENTATION_RELATIONSHIP(
'supplemental geometry','',#24,#11);
#11=CONSTRUCTIVE_GEOMETRY_REPRESENTATION('supplemental geometry',(#259,
#260,#261),#446);
#12=SHAPE_REPRESENTATION_RELATIONSHIP('None',
'relationship between MOD000000000000000020084270600000-None and MOD00
0000000000000020084270600000-None',#24,#13);
#13=ADVANCED_BREP_SHAPE_REPRESENTATION(
'MOD000000000000000020084270600000-None',(#30),#446);
#14=SHAPE_DEFINITION_REPRESENTATION(#15,#24);
#15=PRODUCT_DEFINITION_SHAPE('','',#16);
#16=PRODUCT_DEFINITION(' ','',#18,#17);
#17=PRODUCT_DEFINITION_CONTEXT('part definition',#23,'design');
#18=PRODUCT_DEFINITION_FORMATION_WITH_SPECIFIED_SOURCE(' ',' ',#20,
 .NOT_KNOWN.);
#19=PRODUCT_RELATED_PRODUCT_CATEGORY('part','',(#20));
#20=PRODUCT('MOD000000000000000020084270600000',
'MOD000000000000000020084270600000',' ',(#21));
#21=PRODUCT_CONTEXT(' ',#23,'mechanical');
#22=APPLICATION_PROTOCOL_DEFINITION('international standard',
'automotive_design',2010,#23);
#23=APPLICATION_CONTEXT(
'core data for automotive mechanical design processes');
#24=SHAPE_REPRESENTATION('MOD000000000000000020084270600000-None',(#258),
#446);
#25=SURFACE_STYLE_USAGE(.BOTH.,#26);
#26=SURFACE_SIDE_STYLE('',(#27));
#27=SURFACE_STYLE_FILL_AREA(#28);
#28=FILL_AREA_STYLE('',(#29));
#29=FILL_AREA_STYLE_COLOUR('',#254);
#30=MANIFOLD_SOLID_BREP('NOCUT',#31);
#31=CLOSED_SHELL('',(#47,#48,#49,#50,#51,#52,#53,#54,#55,#56,#57,#58,#59,
#60,#61,#62,#63,#64,#65));
#32=CONICAL_SURFACE('',#271,8.1875,30.);
#33=CONICAL_SURFACE('',#276,7.9375,30.0000000000001);
#34=CONICAL_SURFACE('',#278,12.8,15.);
#35=CONICAL_SURFACE('',#284,15.,45.);
#36=CONICAL_SURFACE('',#293,12.1071796769724,30.);
#37=CONICAL_SURFACE('',#296,14.,45.);
#38=PLANE('',#270);
#39=PLANE('',#286);
#40=PLANE('',#291);
#41=TOROIDAL_SURFACE('',#267,13.8343145750508,0.4);
#42=TOROIDAL_SURFACE('',#288,12.75,0.4);
#43=TOROIDAL_SURFACE('',#294,13.7843145750508,0.4);
#44=TOROIDAL_SURFACE('',#297,11.8762395692966,0.4);
#45=TOROIDAL_SURFACE('',#298,14.6,0.4);
#46=TOROIDAL_SURFACE('',#299,14.6,0.4);
#47=ADVANCED_FACE('',(#70,#71),#66,.F.);
#48=ADVANCED_FACE('',(#72,#73),#41,.T.);
#49=ADVANCED_FACE('',(#74,#75),#38,.T.);
#50=ADVANCED_FACE('',(#76,#77),#32,.F.);
#51=ADVANCED_FACE('',(#78,#79),#67,.T.);
#52=ADVANCED_FACE('',(#80,#81),#33,.F.);
#53=ADVANCED_FACE('',(#82,#83),#34,.T.);
#54=ADVANCED_FACE('',(#84,#85),#68,.T.);
#55=ADVANCED_FACE('',(#86,#87),#35,.T.);
#56=ADVANCED_FACE('',(#88,#89),#39,.T.);
#57=ADVANCED_FACE('',(#90,#91),#42,.F.);
#58=ADVANCED_FACE('',(#92,#93),#69,.T.);
#59=ADVANCED_FACE('',(#94,#95),#40,.T.);
#60=ADVANCED_FACE('',(#96,#97),#36,.T.);
#61=ADVANCED_FACE('',(#98,#99),#43,.T.);
#62=ADVANCED_FACE('',(#100,#101),#37,.T.);
#63=ADVANCED_FACE('',(#102,#103),#44,.T.);
#64=ADVANCED_FACE('',(#104,#105),#45,.T.);
#65=ADVANCED_FACE('',(#106,#107),#46,.T.);
#66=CYLINDRICAL_SURFACE('',#264,7.9375);
#67=CYLINDRICAL_SURFACE('',#274,12.7);
#68=CYLINDRICAL_SURFACE('',#281,15.);
#69=CYLINDRICAL_SURFACE('',#289,12.35);
#70=FACE_BOUND('',#108,.T.);
#71=FACE_BOUND('',#109,.T.);
#72=FACE_BOUND('',#110,.T.);
#73=FACE_BOUND('',#111,.T.);
#74=FACE_BOUND('',#112,.T.);
#75=FACE_BOUND('',#113,.T.);
#76=FACE_BOUND('',#114,.T.);
#77=FACE_BOUND('',#115,.T.);
#78=FACE_BOUND('',#116,.T.);
#79=FACE_BOUND('',#117,.T.);
#80=FACE_BOUND('',#118,.T.);
#81=FACE_BOUND('',#119,.T.);
#82=FACE_BOUND('',#120,.T.);
#83=FACE_BOUND('',#121,.T.);
#84=FACE_BOUND('',#122,.T.);
#85=FACE_BOUND('',#123,.T.);
#86=FACE_BOUND('',#124,.T.);
#87=FACE_BOUND('',#125,.T.);
#88=FACE_BOUND('',#126,.T.);
#89=FACE_BOUND('',#127,.T.);
#90=FACE_BOUND('',#128,.T.);
#91=FACE_BOUND('',#129,.T.);
#92=FACE_BOUND('',#130,.T.);
#93=FACE_BOUND('',#131,.T.);
#94=FACE_BOUND('',#132,.T.);
#95=FACE_BOUND('',#133,.T.);
#96=FACE_BOUND('',#134,.T.);
#97=FACE_BOUND('',#135,.T.);
#98=FACE_BOUND('',#136,.T.);
#99=FACE_BOUND('',#137,.T.);
#100=FACE_BOUND('',#138,.T.);
#101=FACE_BOUND('',#139,.T.);
#102=FACE_BOUND('',#140,.T.);
#103=FACE_BOUND('',#141,.T.);
#104=FACE_BOUND('',#142,.T.);
#105=FACE_BOUND('',#143,.T.);
#106=FACE_BOUND('',#144,.T.);
#107=FACE_BOUND('',#145,.T.);
#108=EDGE_LOOP('',(#146));
#109=EDGE_LOOP('',(#147));
#110=EDGE_LOOP('',(#148));
#111=EDGE_LOOP('',(#149));
#112=EDGE_LOOP('',(#150));
#113=EDGE_LOOP('',(#151));
#114=EDGE_LOOP('',(#152));
#115=EDGE_LOOP('',(#153));
#116=EDGE_LOOP('',(#154));
#117=EDGE_LOOP('',(#155));
#118=EDGE_LOOP('',(#156));
#119=EDGE_LOOP('',(#157));
#120=EDGE_LOOP('',(#158));
#121=EDGE_LOOP('',(#159));
#122=EDGE_LOOP('',(#160));
#123=EDGE_LOOP('',(#161));
#124=EDGE_LOOP('',(#162));
#125=EDGE_LOOP('',(#163));
#126=EDGE_LOOP('',(#164));
#127=EDGE_LOOP('',(#165));
#128=EDGE_LOOP('',(#166));
#129=EDGE_LOOP('',(#167));
#130=EDGE_LOOP('',(#168));
#131=EDGE_LOOP('',(#169));
#132=EDGE_LOOP('',(#170));
#133=EDGE_LOOP('',(#171));
#134=EDGE_LOOP('',(#172));
#135=EDGE_LOOP('',(#173));
#136=EDGE_LOOP('',(#174));
#137=EDGE_LOOP('',(#175));
#138=EDGE_LOOP('',(#176));
#139=EDGE_LOOP('',(#177));
#140=EDGE_LOOP('',(#178));
#141=EDGE_LOOP('',(#179));
#142=EDGE_LOOP('',(#180));
#143=EDGE_LOOP('',(#181));
#144=EDGE_LOOP('',(#182));
#145=EDGE_LOOP('',(#183));
#146=ORIENTED_EDGE('',*,*,#203,.T.);
#147=ORIENTED_EDGE('',*,*,#204,.F.);
#148=ORIENTED_EDGE('',*,*,#205,.F.);
#149=ORIENTED_EDGE('',*,*,#206,.F.);
#150=ORIENTED_EDGE('',*,*,#207,.F.);
#151=ORIENTED_EDGE('',*,*,#208,.T.);
#152=ORIENTED_EDGE('',*,*,#204,.T.);
#153=ORIENTED_EDGE('',*,*,#208,.F.);
#154=ORIENTED_EDGE('',*,*,#209,.F.);
#155=ORIENTED_EDGE('',*,*,#210,.F.);
#156=ORIENTED_EDGE('',*,*,#211,.T.);
#157=ORIENTED_EDGE('',*,*,#203,.F.);
#158=ORIENTED_EDGE('',*,*,#212,.T.);
#159=ORIENTED_EDGE('',*,*,#209,.T.);
#160=ORIENTED_EDGE('',*,*,#213,.T.);
#161=ORIENTED_EDGE('',*,*,#214,.T.);
#162=ORIENTED_EDGE('',*,*,#215,.T.);
#163=ORIENTED_EDGE('',*,*,#216,.T.);
#164=ORIENTED_EDGE('',*,*,#206,.T.);
#165=ORIENTED_EDGE('',*,*,#217,.F.);
#166=ORIENTED_EDGE('',*,*,#217,.T.);
#167=ORIENTED_EDGE('',*,*,#218,.F.);
#168=ORIENTED_EDGE('',*,*,#218,.T.);
#169=ORIENTED_EDGE('',*,*,#212,.F.);
#170=ORIENTED_EDGE('',*,*,#219,.T.);
#171=ORIENTED_EDGE('',*,*,#211,.F.);
#172=ORIENTED_EDGE('',*,*,#220,.T.);
#173=ORIENTED_EDGE('',*,*,#210,.T.);
#174=ORIENTED_EDGE('',*,*,#216,.F.);
#175=ORIENTED_EDGE('',*,*,#207,.T.);
#176=ORIENTED_EDGE('',*,*,#205,.T.);
#177=ORIENTED_EDGE('',*,*,#221,.T.);
#178=ORIENTED_EDGE('',*,*,#220,.F.);
#179=ORIENTED_EDGE('',*,*,#219,.F.);
#180=ORIENTED_EDGE('',*,*,#215,.F.);
#181=ORIENTED_EDGE('',*,*,#214,.F.);
#182=ORIENTED_EDGE('',*,*,#221,.F.);
#183=ORIENTED_EDGE('',*,*,#213,.F.);
#184=VERTEX_POINT('',#389);
#185=VERTEX_POINT('',#391);
#186=VERTEX_POINT('',#394);
#187=VERTEX_POINT('',#396);
#188=VERTEX_POINT('',#399);
#189=VERTEX_POINT('',#401);
#190=VERTEX_POINT('',#405);
#191=VERTEX_POINT('',#407);
#192=VERTEX_POINT('',#410);
#193=VERTEX_POINT('',#413);
#194=VERTEX_POINT('',#416);
#195=VERTEX_POINT('',#418);
#196=VERTEX_POINT('',#421);
#197=VERTEX_POINT('',#423);
#198=VERTEX_POINT('',#426);
#199=VERTEX_POINT('',#429);
#200=VERTEX_POINT('',#433);
#201=VERTEX_POINT('',#436);
#202=VERTEX_POINT('',#440);
#203=EDGE_CURVE('',#184,#184,#222,.T.);
#204=EDGE_CURVE('',#185,#185,#223,.T.);
#205=EDGE_CURVE('',#186,#186,#224,.T.);
#206=EDGE_CURVE('',#187,#187,#225,.T.);
#207=EDGE_CURVE('',#188,#188,#226,.T.);
#208=EDGE_CURVE('',#189,#189,#227,.T.);
#209=EDGE_CURVE('',#190,#190,#228,.T.);
#210=EDGE_CURVE('',#191,#191,#229,.T.);
#211=EDGE_CURVE('',#192,#192,#230,.T.);
#212=EDGE_CURVE('',#193,#193,#231,.T.);
#213=EDGE_CURVE('',#194,#194,#232,.T.);
#214=EDGE_CURVE('',#195,#195,#233,.T.);
#215=EDGE_CURVE('',#196,#196,#234,.T.);
#216=EDGE_CURVE('',#197,#197,#235,.T.);
#217=EDGE_CURVE('',#198,#198,#236,.T.);
#218=EDGE_CURVE('',#199,#199,#237,.T.);
#219=EDGE_CURVE('',#200,#200,#238,.T.);
#220=EDGE_CURVE('',#201,#201,#239,.T.);
#221=EDGE_CURVE('',#202,#202,#240,.T.);
#222=CIRCLE('',#262,7.9375);
#223=CIRCLE('',#263,7.9375);
#224=CIRCLE('',#265,14.1171572875254);
#225=CIRCLE('',#266,13.8343145750508);
#226=CIRCLE('',#268,14.0488897061572);
#227=CIRCLE('',#269,8.1875);
#228=CIRCLE('',#272,12.7);
#229=CIRCLE('',#273,12.7);
#230=CIRCLE('',#275,8.22617513459482);
#231=CIRCLE('',#277,12.35);
#232=CIRCLE('',#279,15.);
#233=CIRCLE('',#280,15.);
#234=CIRCLE('',#282,14.8828427124746);
#235=CIRCLE('',#283,14.0671572875254);
#236=CIRCLE('',#285,12.75);
#237=CIRCLE('',#287,12.35);
#238=CIRCLE('',#290,11.8762395692966);
#239=CIRCLE('',#292,12.2226497308104);
#240=CIRCLE('',#295,14.8828427124746);
#241=PRESENTATION_LAYER_ASSIGNMENT('1','Layer 1',(#259,#260,#261,#30));
#242=STYLED_ITEM('',(#246),#259);
#243=STYLED_ITEM('',(#247),#260);
#244=STYLED_ITEM('',(#248),#261);
#245=STYLED_ITEM('',(#249),#30);
#246=PRESENTATION_STYLE_ASSIGNMENT((#250));
#247=PRESENTATION_STYLE_ASSIGNMENT((#251));
#248=PRESENTATION_STYLE_ASSIGNMENT((#252));
#249=PRESENTATION_STYLE_ASSIGNMENT((#25));
#250=CURVE_STYLE('',#255,POSITIVE_LENGTH_MEASURE(0.18),#253);
#251=CURVE_STYLE('',#256,POSITIVE_LENGTH_MEASURE(0.18),#253);
#252=CURVE_STYLE('',#257,POSITIVE_LENGTH_MEASURE(0.18),#253);
#253=COLOUR_RGB('Strong Stone',0.576470588235294,0.54508278019379,0.392156862745098);
#254=COLOUR_RGB('Medium Gray',0.501960784313725,0.501960784313725,0.501960784313725);
#255=DRAUGHTING_PRE_DEFINED_CURVE_FONT('continuous');
#256=DRAUGHTING_PRE_DEFINED_CURVE_FONT('continuous');
#257=DRAUGHTING_PRE_DEFINED_CURVE_FONT('continuous');
#258=AXIS2_PLACEMENT_3D('',#384,#300,#301);
#259=AXIS2_PLACEMENT_3D('MCS',#385,#302,#303);
#260=AXIS2_PLACEMENT_3D('PCS',#386,#304,#305);
#261=AXIS2_PLACEMENT_3D('CSW',#387,#306,#307);
#262=AXIS2_PLACEMENT_3D('',#388,#308,#309);
#263=AXIS2_PLACEMENT_3D('',#390,#310,#311);
#264=AXIS2_PLACEMENT_3D('',#392,#312,#313);
#265=AXIS2_PLACEMENT_3D('',#393,#314,#315);
#266=AXIS2_PLACEMENT_3D('',#395,#316,#317);
#267=AXIS2_PLACEMENT_3D('',#397,#318,#319);
#268=AXIS2_PLACEMENT_3D('',#398,#320,#321);
#269=AXIS2_PLACEMENT_3D('',#400,#322,#323);
#270=AXIS2_PLACEMENT_3D('',#402,#324,#325);
#271=AXIS2_PLACEMENT_3D('',#403,#326,#327);
#272=AXIS2_PLACEMENT_3D('',#404,#328,#329);
#273=AXIS2_PLACEMENT_3D('',#406,#330,#331);
#274=AXIS2_PLACEMENT_3D('',#408,#332,#333);
#275=AXIS2_PLACEMENT_3D('',#409,#334,#335);
#276=AXIS2_PLACEMENT_3D('',#411,#336,#337);
#277=AXIS2_PLACEMENT_3D('',#412,#338,#339);
#278=AXIS2_PLACEMENT_3D('',#414,#340,#341);
#279=AXIS2_PLACEMENT_3D('',#415,#342,#343);
#280=AXIS2_PLACEMENT_3D('',#417,#344,#345);
#281=AXIS2_PLACEMENT_3D('',#419,#346,#347);
#282=AXIS2_PLACEMENT_3D('',#420,#348,#349);
#283=AXIS2_PLACEMENT_3D('',#422,#350,#351);
#284=AXIS2_PLACEMENT_3D('',#424,#352,#353);
#285=AXIS2_PLACEMENT_3D('',#425,#354,#355);
#286=AXIS2_PLACEMENT_3D('',#427,#356,#357);
#287=AXIS2_PLACEMENT_3D('',#428,#358,#359);
#288=AXIS2_PLACEMENT_3D('',#430,#360,#361);
#289=AXIS2_PLACEMENT_3D('',#431,#362,#363);
#290=AXIS2_PLACEMENT_3D('',#432,#364,#365);
#291=AXIS2_PLACEMENT_3D('',#434,#366,#367);
#292=AXIS2_PLACEMENT_3D('',#435,#368,#369);
#293=AXIS2_PLACEMENT_3D('',#437,#370,#371);
#294=AXIS2_PLACEMENT_3D('',#438,#372,#373);
#295=AXIS2_PLACEMENT_3D('',#439,#374,#375);
#296=AXIS2_PLACEMENT_3D('',#441,#376,#377);
#297=AXIS2_PLACEMENT_3D('',#442,#378,#379);
#298=AXIS2_PLACEMENT_3D('',#443,#380,#381);
#299=AXIS2_PLACEMENT_3D('',#444,#382,#383);
#300=DIRECTION('',(0.,0.,1.));
#301=DIRECTION('',(1.,0.,0.));
#302=DIRECTION('',(0.,0.,1.));
#303=DIRECTION('',(1.,0.,0.));
#304=DIRECTION('',(0.,0.,1.));
#305=DIRECTION('',(1.,0.,0.));
#306=DIRECTION('',(0.,0.,1.));
#307=DIRECTION('',(1.,0.,0.));
#308=DIRECTION('',(-6.12323399573677E-017,-6.12323399573677E-017,1.));
#309=DIRECTION('',(1.,-6.12323399573677E-017,0.));
#310=DIRECTION('',(-6.12323399573677E-017,-6.12323399573677E-017,1.));
#311=DIRECTION('',(1.,-6.12323399573677E-017,1.09273919746571E-016));
#312=DIRECTION('',(6.12323399573677E-017,6.12323399573677E-017,-1.));
#313=DIRECTION('',(-1.,6.12323399573677E-017,-1.09273919746571E-016));
#314=DIRECTION('',(6.12323399573677E-017,6.12323399573677E-017,-1.));
#315=DIRECTION('',(1.,-6.12323399573677E-017,6.1440254601034E-017));
#316=DIRECTION('',(-6.12323399573677E-017,-6.12323399573677E-017,1.));
#317=DIRECTION('',(1.,-6.12323399573677E-017,6.12323399573677E-017));
#318=DIRECTION('',(-6.12323399573677E-017,-6.12323399573677E-017,1.));
#319=DIRECTION('',(1.,-6.12323399573677E-017,6.09345629826583E-017));
#320=DIRECTION('',(-6.12323399573677E-017,-6.12323399573677E-017,1.));
#321=DIRECTION('',(-1.,6.12323399573677E-017,-6.17388104063672E-017));
#322=DIRECTION('',(-6.12323399573677E-017,-6.12323399573677E-017,1.));
#323=DIRECTION('',(1.,-6.12323399573677E-017,1.05937311510034E-016));
#324=DIRECTION('',(6.12323399573677E-017,6.12323399573677E-017,-1.));
#325=DIRECTION('',(-1.,6.12323399573677E-017,-6.15826833971767E-017));
#326=DIRECTION('',(6.12323399573677E-017,6.12323399573677E-017,-1.));
#327=DIRECTION('',(-1.,6.12323399573677E-017,1.82200874796214E-016));
#328=DIRECTION('',(6.12323399573677E-017,6.12323399573677E-017,-1.));
#329=DIRECTION('',(1.,-6.12323399573677E-017,6.82961998416066E-017));
#330=DIRECTION('',(-6.12323399573677E-017,-6.12323399573677E-017,1.));
#331=DIRECTION('',(-1.,6.12323399573677E-017,0.));
#332=DIRECTION('',(6.12323399573677E-017,6.12323399573677E-017,-1.));
#333=DIRECTION('',(1.,-6.12323399573677E-017,0.));
#334=DIRECTION('',(-6.12323399573677E-017,-6.12323399573677E-017,1.));
#335=DIRECTION('',(1.,-6.12323399573677E-017,0.));
#336=DIRECTION('',(-6.12323399573677E-017,-6.12323399573677E-017,1.));
#337=DIRECTION('',(1.,-6.12323399573677E-017,1.77832878180112E-016));
#338=DIRECTION('',(-6.12323399573677E-017,-6.12323399573677E-017,1.));
#339=DIRECTION('',(1.,-6.12323399573677E-017,6.14527547157776E-017));
#340=DIRECTION('',(-6.12323399573677E-017,-6.12323399573677E-017,1.));
#341=DIRECTION('',(1.,-6.12323399573677E-017,-1.90001425914604E-016));
#342=DIRECTION('',(6.12323399573677E-017,6.12323399573677E-017,-1.));
#343=DIRECTION('',(1.,-6.12323399573677E-017,5.78241158658936E-017));
#344=DIRECTION('',(-6.12323399573677E-017,-6.12323399573677E-017,1.));
#345=DIRECTION('',(-1.,6.12323399573677E-017,-5.78241158658936E-017));
#346=DIRECTION('',(6.12323399573677E-017,6.12323399573677E-017,-1.));
#347=DIRECTION('',(1.,-6.12323399573677E-017,5.78241158658936E-017));
#348=DIRECTION('',(6.12323399573677E-017,6.12323399573677E-017,-1.));
#349=DIRECTION('',(-1.,6.12323399573677E-017,-5.82793055564172E-017));
#350=DIRECTION('',(-6.12323399573677E-017,-6.12323399573677E-017,1.));
#351=DIRECTION('',(-1.,6.12323399573677E-017,-6.16586365148252E-017));
#352=DIRECTION('',(-6.12323399573677E-017,-6.12323399573677E-017,1.));
#353=DIRECTION('',(1.,-6.12323399573677E-017,1.11090665949254E-016));
#354=DIRECTION('',(-6.12323399573677E-017,-6.12323399573677E-017,1.));
#355=DIRECTION('',(1.,-6.12323399573677E-017,6.12323399573677E-017));
#356=DIRECTION('',(-6.12323399573677E-017,-6.12323399573677E-017,1.));
#357=DIRECTION('',(1.,-6.12323399573677E-017,6.12323399573677E-017));
#358=DIRECTION('',(-6.12323399573677E-017,-6.12323399573677E-017,1.));
#359=DIRECTION('',(1.,-6.12323399573677E-017,6.14527547157776E-017));
#360=DIRECTION('',(-6.12323399573677E-017,-6.12323399573677E-017,1.));
#361=DIRECTION('',(1.,-6.12323399573677E-017,6.1836625807158E-017));
#362=DIRECTION('',(6.12323399573677E-017,6.12323399573677E-017,-1.));
#363=DIRECTION('',(1.,-6.12323399573677E-017,7.02317196751744E-017));
#364=DIRECTION('',(-6.12323399573677E-017,-6.12323399573677E-017,1.));
#365=DIRECTION('',(1.,-6.12323399573677E-017,0.));
#366=DIRECTION('',(-6.12323399573677E-017,-6.12323399573677E-017,1.));
#367=DIRECTION('',(1.,-6.12323399573677E-017,6.24500451351651E-017));
#368=DIRECTION('',(6.12323399573677E-017,6.12323399573677E-017,-1.));
#369=DIRECTION('',(1.,-6.12323399573677E-017,0.));
#370=DIRECTION('',(6.12323399573677E-017,6.12323399573677E-017,-1.));
#371=DIRECTION('',(-1.,6.12323399573677E-017,8.2401634623067E-017));
#372=DIRECTION('',(6.12323399573677E-017,6.12323399573677E-017,-1.));
#373=DIRECTION('',(-1.,6.12323399573677E-017,-6.11493585678106E-017));
#374=DIRECTION('',(-6.12323399573677E-017,-6.12323399573677E-017,1.));
#375=DIRECTION('',(1.,-6.12323399573677E-017,5.82793055564172E-017));
#376=DIRECTION('',(6.12323399573677E-017,6.12323399573677E-017,-1.));
#377=DIRECTION('',(-1.,6.12323399573677E-017,0.));
#378=DIRECTION('',(-6.12323399573677E-017,-6.12323399573677E-017,1.));
#379=DIRECTION('',(1.,-6.12323399573677E-017,0.));
#380=DIRECTION('',(6.12323399573677E-017,6.12323399573677E-017,-1.));
#381=DIRECTION('',(-1.,6.12323399573677E-017,-5.78241158658936E-017));
#382=DIRECTION('',(-6.12323399573677E-017,-6.12323399573677E-017,1.));
#383=DIRECTION('',(1.,-6.12323399573677E-017,5.78241158658936E-017));
#384=CARTESIAN_POINT('',(0.,0.,0.));
#385=CARTESIAN_POINT('',(0.,0.,0.));
#386=CARTESIAN_POINT('',(0.,0.,0.));
#387=CARTESIAN_POINT('',(0.,0.,-5.));
#388=CARTESIAN_POINT('',(-3.3983948676339E-015,-3.3983948676339E-015,55.5));
#389=CARTESIAN_POINT('',(7.9375,-3.88442656604551E-015,55.5));
#390=CARTESIAN_POINT('',(2.79647318818716E-016,2.79647318818716E-016,-4.56698729810778));
#391=CARTESIAN_POINT('',(7.9375,-2.06384379592891E-016,-4.56698729810778));
#392=CARTESIAN_POINT('',(3.12284933782575E-016,3.12284933782575E-016,-5.1));
#393=CARTESIAN_POINT('',(7.17381485823713E-018,7.17381485823713E-018,-0.11715728752538));
#394=CARTESIAN_POINT('',(14.1171572875254,-8.57252759403148E-016,-0.117157287525379));
#395=CARTESIAN_POINT('',(1.99164708024447E-032,1.99164708024447E-032,-3.25260651745652E-016));
#396=CARTESIAN_POINT('',(13.8343145750508,-8.47107453136675E-016,5.21846801391024E-016));
#397=CARTESIAN_POINT('',(2.44929359829471E-017,2.44929359829471E-017,-0.4));
#398=CARTESIAN_POINT('',(3.06161699786839E-016,3.06161699786838E-016,-5.));
#399=CARTESIAN_POINT('',(-14.0488897061572,1.16640809029782E-015,-5.));
#400=CARTESIAN_POINT('',(3.06161699786839E-016,3.06161699786839E-016,-5.));
#401=CARTESIAN_POINT('',(8.1875,-1.9517808361411E-016,-5.));
#402=CARTESIAN_POINT('',(15.,-6.12323399573677E-016,-5.));
#403=CARTESIAN_POINT('',(3.06161699786839E-016,3.06161699786839E-016,-5.));
#404=CARTESIAN_POINT('',(-1.30228629514697E-016,-1.30228629514697E-016,
2.12679491924311));
#405=CARTESIAN_POINT('',(12.7,-9.07879346973267E-016,2.12679491924312));
#406=CARTESIAN_POINT('',(-3.366137982051E-015,-3.36613798205099E-015,54.9732050807569));
#407=CARTESIAN_POINT('',(-12.7,-2.58848726459243E-015,54.9732050807569));
#408=CARTESIAN_POINT('',(-3.67394039744206E-015,-3.67394039744206E-015,
60.));
#409=CARTESIAN_POINT('',(-3.42901103761259E-015,-3.42901103761259E-015,
56.));
#410=CARTESIAN_POINT('',(8.22617513459482,-3.93271899000294E-015,56.));
#411=CARTESIAN_POINT('',(-3.3983948676339E-015,-3.3983948676339E-015,55.5));
#412=CARTESIAN_POINT('',(-5.02458581891676E-017,-5.02458581891676E-017,
0.820577136594008));
#413=CARTESIAN_POINT('',(12.35,-8.06465256662659E-016,0.820577136594009));
#414=CARTESIAN_POINT('',(-1.5308084989342E-016,-1.53080849893419E-016,2.5));
#415=CARTESIAN_POINT('',(7.13776462238405E-017,7.13776462238404E-017,-1.16568542494924));
#416=CARTESIAN_POINT('',(15.,-8.47107453136675E-016,-1.16568542494924));
#417=CARTESIAN_POINT('',(2.37845670560866E-016,2.37845670560866E-016,-3.88431457505076));
#418=CARTESIAN_POINT('',(-15.,1.15633076992138E-015,-3.88431457505076));
#419=CARTESIAN_POINT('',(3.06161699786839E-016,3.06161699786839E-016,-5.));
#420=CARTESIAN_POINT('',(2.55164791685576E-016,2.55164791685576E-016,-4.16715728752538));
#421=CARTESIAN_POINT('',(-14.8828427124746,1.16647607618785E-015,-4.16715728752538));
#422=CARTESIAN_POINT('',(3.05111118924338E-016,3.05111118924338E-016,-4.98284271247462));
#423=CARTESIAN_POINT('',(-14.0671572875254,1.16647607618785E-015,-4.98284271247462));
#424=CARTESIAN_POINT('',(2.47990976827339E-016,2.47990976827339E-016,-4.05));
#425=CARTESIAN_POINT('',(5.31105888065192E-032,5.31105888065192E-032,-8.67361737988404E-016));
#426=CARTESIAN_POINT('',(12.75,-7.80712334456438E-016,-8.66494035319659E-017));
#427=CARTESIAN_POINT('',(12.75,-7.80712334456438E-016,4.28346628398649E-016));
#428=CARTESIAN_POINT('',(-2.4492935982947E-017,-2.4492935982947E-017,0.4));
#429=CARTESIAN_POINT('',(12.35,-7.80712334456438E-016,0.400000000000001));
#430=CARTESIAN_POINT('',(-2.4492935982947E-017,-2.4492935982947E-017,0.4));
#431=CARTESIAN_POINT('',(3.06161699786839E-016,3.06161699786839E-016,-5.));
#432=CARTESIAN_POINT('',(-3.42901103761259E-015,-3.42901103761259E-015,
56.));
#433=CARTESIAN_POINT('',(11.8762395692966,-4.1562209763349E-015,56.));
#434=CARTESIAN_POINT('',(-3.42901103761259E-015,-3.42901103761259E-015,
56.));
#435=CARTESIAN_POINT('',(-3.41676456962112E-015,-3.41676456962112E-015,
55.8));
#436=CARTESIAN_POINT('',(12.2226497308104,-4.16518601311792E-015,55.8));
#437=CARTESIAN_POINT('',(-3.42901103761259E-015,-3.42901103761259E-015,
56.));
#438=CARTESIAN_POINT('',(2.87791997799628E-016,2.87791997799628E-016,-4.7));
#439=CARTESIAN_POINT('',(5.40585250991306E-017,5.40585250991306E-017,-0.882842712474621));
#440=CARTESIAN_POINT('',(14.8828427124746,-8.57252759403148E-016,-0.88284271247462));
#441=CARTESIAN_POINT('',(0.,0.,0.));
#442=CARTESIAN_POINT('',(-3.40451810162964E-015,-3.40451810162964E-015,
55.6));
#443=CARTESIAN_POINT('',(2.37845670560866E-016,2.37845670560866E-016,-3.88431457505076));
#444=CARTESIAN_POINT('',(7.13776462238405E-017,7.13776462238404E-017,-1.16568542494924));
#445=MECHANICAL_DESIGN_GEOMETRIC_PRESENTATION_REPRESENTATION('',(#242,#243,
#244,#245),#446);
#446=(
GEOMETRIC_REPRESENTATION_CONTEXT(3)
GLOBAL_UNCERTAINTY_ASSIGNED_CONTEXT((#447))
GLOBAL_UNIT_ASSIGNED_CONTEXT((#453,#449,#448))
REPRESENTATION_CONTEXT('1522913125086','TOP_LEVEL_ASSEMBLY_PART')
);
#447=UNCERTAINTY_MEASURE_WITH_UNIT(LENGTH_MEASURE(2.E-005),#453,
'DISTANCE_ACCURACY_VALUE','Maximum Tolerance applied to model');
#448=(
NAMED_UNIT(*)
SI_UNIT($,.STERADIAN.)
SOLID_ANGLE_UNIT()
);
#449=(
CONVERSION_BASED_UNIT('DEGREE',#451)
NAMED_UNIT(#450)
PLANE_ANGLE_UNIT()
);
#450=DIMENSIONAL_EXPONENTS(0.,0.,0.,0.,0.,0.,0.);
#451=PLANE_ANGLE_MEASURE_WITH_UNIT(PLANE_ANGLE_MEASURE(0.0174532925),#452);
#452=(
NAMED_UNIT(*)
PLANE_ANGLE_UNIT()
SI_UNIT($,.RADIAN.)
);
#453=(
LENGTH_UNIT()
NAMED_UNIT(*)
SI_UNIT(.MILLI.,.METRE.)
);
ENDSEC;
END-ISO-10303-21;
