ISO-10303-21;
HEADER;
/* Generated by software containing ST-Developer
 * from STEP Tools, Inc. (www.steptools.com) 
 */
/* OPTION: using custom schema-name function */

FILE_DESCRIPTION(
/* description */ (''),
/* implementation_level */ '2;1');

FILE_NAME(
/* name */ '1522913108154.stp',
/* time_stamp */ '2018-04-05T09:25:22+02:00',
/* author */ (''),
/* organization */ ('SMS'),
/* preprocessor_version */ 'ST-DEVELOPER v15',
/* originating_system */ 'SIEMENS PLM Software NX 8.5',
/* authorisation */ '');

FILE_SCHEMA (('AUTOMOTIVE_DESIGN { 1 0 10303 214 3 1 1 1 }'));
ENDSEC;

DATA;
#10=CONSTRUCTIVE_GEOMETRY_REPRESENTATION_RELATIONSHIP(
'supplemental geometry','',#24,#11);
#11=CONSTRUCTIVE_GEOMETRY_REPRESENTATION('supplemental geometry',(#281,
#282,#283),#486);
#12=SHAPE_REPRESENTATION_RELATIONSHIP('None',
'relationship between MOD000000000000000020084270500000-None and MOD00
0000000000000020084270500000-None',#24,#13);
#13=ADVANCED_BREP_SHAPE_REPRESENTATION(
'MOD000000000000000020084270500000-None',(#30),#486);
#14=SHAPE_DEFINITION_REPRESENTATION(#15,#24);
#15=PRODUCT_DEFINITION_SHAPE('','',#16);
#16=PRODUCT_DEFINITION(' ','',#18,#17);
#17=PRODUCT_DEFINITION_CONTEXT('part definition',#23,'design');
#18=PRODUCT_DEFINITION_FORMATION_WITH_SPECIFIED_SOURCE(' ',' ',#20,
 .NOT_KNOWN.);
#19=PRODUCT_RELATED_PRODUCT_CATEGORY('part','',(#20));
#20=PRODUCT('MOD000000000000000020084270500000',
'MOD000000000000000020084270500000',' ',(#21));
#21=PRODUCT_CONTEXT(' ',#23,'mechanical');
#22=APPLICATION_PROTOCOL_DEFINITION('international standard',
'automotive_design',2010,#23);
#23=APPLICATION_CONTEXT(
'core data for automotive mechanical design processes');
#24=SHAPE_REPRESENTATION('MOD000000000000000020084270500000-None',(#280),
#486);
#25=SURFACE_STYLE_USAGE(.BOTH.,#26);
#26=SURFACE_SIDE_STYLE('',(#27));
#27=SURFACE_STYLE_FILL_AREA(#28);
#28=FILL_AREA_STYLE('',(#29));
#29=FILL_AREA_STYLE_COLOUR('',#276);
#30=MANIFOLD_SOLID_BREP('NOCUT',#31);
#31=CLOSED_SHELL('',(#48,#49,#50,#51,#52,#53,#54,#55,#56,#57,#58,#59,#60,
#61,#62,#63,#64,#65,#66,#67,#68));
#32=CONICAL_SURFACE('',#293,6.6,30.);
#33=CONICAL_SURFACE('',#299,9.,30.);
#34=CONICAL_SURFACE('',#301,12.8,15.);
#35=CONICAL_SURFACE('',#303,6.35,45.);
#36=CONICAL_SURFACE('',#309,15.,45.);
#37=CONICAL_SURFACE('',#318,12.1071796769724,30.);
#38=CONICAL_SURFACE('',#321,14.,45.);
#39=PLANE('',#292);
#40=PLANE('',#311);
#41=PLANE('',#316);
#42=TOROIDAL_SURFACE('',#289,13.8343145750508,0.4);
#43=TOROIDAL_SURFACE('',#313,12.75,0.4);
#44=TOROIDAL_SURFACE('',#319,13.7843145750508,0.4);
#45=TOROIDAL_SURFACE('',#322,11.8762395692966,0.4);
#46=TOROIDAL_SURFACE('',#323,14.6,0.4);
#47=TOROIDAL_SURFACE('',#324,14.6,0.4);
#48=ADVANCED_FACE('',(#74,#75),#69,.F.);
#49=ADVANCED_FACE('',(#76,#77),#42,.T.);
#50=ADVANCED_FACE('',(#78,#79),#39,.T.);
#51=ADVANCED_FACE('',(#80,#81),#32,.F.);
#52=ADVANCED_FACE('',(#82,#83),#70,.T.);
#53=ADVANCED_FACE('',(#84,#85),#33,.F.);
#54=ADVANCED_FACE('',(#86,#87),#34,.T.);
#55=ADVANCED_FACE('',(#88,#89),#35,.F.);
#56=ADVANCED_FACE('',(#90,#91),#71,.T.);
#57=ADVANCED_FACE('',(#92,#93),#36,.T.);
#58=ADVANCED_FACE('',(#94,#95),#40,.T.);
#59=ADVANCED_FACE('',(#96,#97),#43,.F.);
#60=ADVANCED_FACE('',(#98,#99),#72,.T.);
#61=ADVANCED_FACE('',(#100,#101),#41,.T.);
#62=ADVANCED_FACE('',(#102,#103),#37,.T.);
#63=ADVANCED_FACE('',(#104,#105),#44,.T.);
#64=ADVANCED_FACE('',(#106,#107),#38,.T.);
#65=ADVANCED_FACE('',(#108,#109),#45,.T.);
#66=ADVANCED_FACE('',(#110,#111),#46,.T.);
#67=ADVANCED_FACE('',(#112,#113),#47,.T.);
#68=ADVANCED_FACE('',(#114,#115),#73,.F.);
#69=CYLINDRICAL_SURFACE('',#286,6.35);
#70=CYLINDRICAL_SURFACE('',#296,12.7);
#71=CYLINDRICAL_SURFACE('',#306,15.);
#72=CYLINDRICAL_SURFACE('',#314,12.35);
#73=CYLINDRICAL_SURFACE('',#325,9.);
#74=FACE_BOUND('',#116,.T.);
#75=FACE_BOUND('',#117,.T.);
#76=FACE_BOUND('',#118,.T.);
#77=FACE_BOUND('',#119,.T.);
#78=FACE_BOUND('',#120,.T.);
#79=FACE_BOUND('',#121,.T.);
#80=FACE_BOUND('',#122,.T.);
#81=FACE_BOUND('',#123,.T.);
#82=FACE_BOUND('',#124,.T.);
#83=FACE_BOUND('',#125,.T.);
#84=FACE_BOUND('',#126,.T.);
#85=FACE_BOUND('',#127,.T.);
#86=FACE_BOUND('',#128,.T.);
#87=FACE_BOUND('',#129,.T.);
#88=FACE_BOUND('',#130,.T.);
#89=FACE_BOUND('',#131,.T.);
#90=FACE_BOUND('',#132,.T.);
#91=FACE_BOUND('',#133,.T.);
#92=FACE_BOUND('',#134,.T.);
#93=FACE_BOUND('',#135,.T.);
#94=FACE_BOUND('',#136,.T.);
#95=FACE_BOUND('',#137,.T.);
#96=FACE_BOUND('',#138,.T.);
#97=FACE_BOUND('',#139,.T.);
#98=FACE_BOUND('',#140,.T.);
#99=FACE_BOUND('',#141,.T.);
#100=FACE_BOUND('',#142,.T.);
#101=FACE_BOUND('',#143,.T.);
#102=FACE_BOUND('',#144,.T.);
#103=FACE_BOUND('',#145,.T.);
#104=FACE_BOUND('',#146,.T.);
#105=FACE_BOUND('',#147,.T.);
#106=FACE_BOUND('',#148,.T.);
#107=FACE_BOUND('',#149,.T.);
#108=FACE_BOUND('',#150,.T.);
#109=FACE_BOUND('',#151,.T.);
#110=FACE_BOUND('',#152,.T.);
#111=FACE_BOUND('',#153,.T.);
#112=FACE_BOUND('',#154,.T.);
#113=FACE_BOUND('',#155,.T.);
#114=FACE_BOUND('',#156,.T.);
#115=FACE_BOUND('',#157,.T.);
#116=EDGE_LOOP('',(#158));
#117=EDGE_LOOP('',(#159));
#118=EDGE_LOOP('',(#160));
#119=EDGE_LOOP('',(#161));
#120=EDGE_LOOP('',(#162));
#121=EDGE_LOOP('',(#163));
#122=EDGE_LOOP('',(#164));
#123=EDGE_LOOP('',(#165));
#124=EDGE_LOOP('',(#166));
#125=EDGE_LOOP('',(#167));
#126=EDGE_LOOP('',(#168));
#127=EDGE_LOOP('',(#169));
#128=EDGE_LOOP('',(#170));
#129=EDGE_LOOP('',(#171));
#130=EDGE_LOOP('',(#172));
#131=EDGE_LOOP('',(#173));
#132=EDGE_LOOP('',(#174));
#133=EDGE_LOOP('',(#175));
#134=EDGE_LOOP('',(#176));
#135=EDGE_LOOP('',(#177));
#136=EDGE_LOOP('',(#178));
#137=EDGE_LOOP('',(#179));
#138=EDGE_LOOP('',(#180));
#139=EDGE_LOOP('',(#181));
#140=EDGE_LOOP('',(#182));
#141=EDGE_LOOP('',(#183));
#142=EDGE_LOOP('',(#184));
#143=EDGE_LOOP('',(#185));
#144=EDGE_LOOP('',(#186));
#145=EDGE_LOOP('',(#187));
#146=EDGE_LOOP('',(#188));
#147=EDGE_LOOP('',(#189));
#148=EDGE_LOOP('',(#190));
#149=EDGE_LOOP('',(#191));
#150=EDGE_LOOP('',(#192));
#151=EDGE_LOOP('',(#193));
#152=EDGE_LOOP('',(#194));
#153=EDGE_LOOP('',(#195));
#154=EDGE_LOOP('',(#196));
#155=EDGE_LOOP('',(#197));
#156=EDGE_LOOP('',(#198));
#157=EDGE_LOOP('',(#199));
#158=ORIENTED_EDGE('',*,*,#221,.T.);
#159=ORIENTED_EDGE('',*,*,#222,.F.);
#160=ORIENTED_EDGE('',*,*,#223,.F.);
#161=ORIENTED_EDGE('',*,*,#224,.F.);
#162=ORIENTED_EDGE('',*,*,#225,.F.);
#163=ORIENTED_EDGE('',*,*,#226,.T.);
#164=ORIENTED_EDGE('',*,*,#222,.T.);
#165=ORIENTED_EDGE('',*,*,#226,.F.);
#166=ORIENTED_EDGE('',*,*,#227,.F.);
#167=ORIENTED_EDGE('',*,*,#228,.F.);
#168=ORIENTED_EDGE('',*,*,#229,.T.);
#169=ORIENTED_EDGE('',*,*,#230,.F.);
#170=ORIENTED_EDGE('',*,*,#231,.T.);
#171=ORIENTED_EDGE('',*,*,#227,.T.);
#172=ORIENTED_EDGE('',*,*,#232,.T.);
#173=ORIENTED_EDGE('',*,*,#221,.F.);
#174=ORIENTED_EDGE('',*,*,#233,.T.);
#175=ORIENTED_EDGE('',*,*,#234,.T.);
#176=ORIENTED_EDGE('',*,*,#235,.T.);
#177=ORIENTED_EDGE('',*,*,#236,.T.);
#178=ORIENTED_EDGE('',*,*,#224,.T.);
#179=ORIENTED_EDGE('',*,*,#237,.F.);
#180=ORIENTED_EDGE('',*,*,#237,.T.);
#181=ORIENTED_EDGE('',*,*,#238,.F.);
#182=ORIENTED_EDGE('',*,*,#238,.T.);
#183=ORIENTED_EDGE('',*,*,#231,.F.);
#184=ORIENTED_EDGE('',*,*,#239,.T.);
#185=ORIENTED_EDGE('',*,*,#229,.F.);
#186=ORIENTED_EDGE('',*,*,#240,.T.);
#187=ORIENTED_EDGE('',*,*,#228,.T.);
#188=ORIENTED_EDGE('',*,*,#236,.F.);
#189=ORIENTED_EDGE('',*,*,#225,.T.);
#190=ORIENTED_EDGE('',*,*,#223,.T.);
#191=ORIENTED_EDGE('',*,*,#241,.T.);
#192=ORIENTED_EDGE('',*,*,#240,.F.);
#193=ORIENTED_EDGE('',*,*,#239,.F.);
#194=ORIENTED_EDGE('',*,*,#235,.F.);
#195=ORIENTED_EDGE('',*,*,#234,.F.);
#196=ORIENTED_EDGE('',*,*,#241,.F.);
#197=ORIENTED_EDGE('',*,*,#233,.F.);
#198=ORIENTED_EDGE('',*,*,#230,.T.);
#199=ORIENTED_EDGE('',*,*,#232,.F.);
#200=VERTEX_POINT('',#423);
#201=VERTEX_POINT('',#425);
#202=VERTEX_POINT('',#428);
#203=VERTEX_POINT('',#430);
#204=VERTEX_POINT('',#433);
#205=VERTEX_POINT('',#435);
#206=VERTEX_POINT('',#439);
#207=VERTEX_POINT('',#441);
#208=VERTEX_POINT('',#444);
#209=VERTEX_POINT('',#446);
#210=VERTEX_POINT('',#449);
#211=VERTEX_POINT('',#452);
#212=VERTEX_POINT('',#455);
#213=VERTEX_POINT('',#457);
#214=VERTEX_POINT('',#460);
#215=VERTEX_POINT('',#462);
#216=VERTEX_POINT('',#465);
#217=VERTEX_POINT('',#468);
#218=VERTEX_POINT('',#472);
#219=VERTEX_POINT('',#475);
#220=VERTEX_POINT('',#479);
#221=EDGE_CURVE('',#200,#200,#242,.T.);
#222=EDGE_CURVE('',#201,#201,#243,.T.);
#223=EDGE_CURVE('',#202,#202,#244,.T.);
#224=EDGE_CURVE('',#203,#203,#245,.T.);
#225=EDGE_CURVE('',#204,#204,#246,.T.);
#226=EDGE_CURVE('',#205,#205,#247,.T.);
#227=EDGE_CURVE('',#206,#206,#248,.T.);
#228=EDGE_CURVE('',#207,#207,#249,.T.);
#229=EDGE_CURVE('',#208,#208,#250,.T.);
#230=EDGE_CURVE('',#209,#209,#251,.T.);
#231=EDGE_CURVE('',#210,#210,#252,.T.);
#232=EDGE_CURVE('',#211,#211,#253,.T.);
#233=EDGE_CURVE('',#212,#212,#254,.T.);
#234=EDGE_CURVE('',#213,#213,#255,.T.);
#235=EDGE_CURVE('',#214,#214,#256,.T.);
#236=EDGE_CURVE('',#215,#215,#257,.T.);
#237=EDGE_CURVE('',#216,#216,#258,.T.);
#238=EDGE_CURVE('',#217,#217,#259,.T.);
#239=EDGE_CURVE('',#218,#218,#260,.T.);
#240=EDGE_CURVE('',#219,#219,#261,.T.);
#241=EDGE_CURVE('',#220,#220,#262,.T.);
#242=CIRCLE('',#284,6.35);
#243=CIRCLE('',#285,6.35);
#244=CIRCLE('',#287,14.1171572875254);
#245=CIRCLE('',#288,13.8343145750508);
#246=CIRCLE('',#290,14.0488897061572);
#247=CIRCLE('',#291,6.6);
#248=CIRCLE('',#294,12.7);
#249=CIRCLE('',#295,12.7);
#250=CIRCLE('',#297,9.28867513459481);
#251=CIRCLE('',#298,9.);
#252=CIRCLE('',#300,12.35);
#253=CIRCLE('',#302,9.);
#254=CIRCLE('',#304,15.);
#255=CIRCLE('',#305,15.);
#256=CIRCLE('',#307,14.8828427124746);
#257=CIRCLE('',#308,14.0671572875254);
#258=CIRCLE('',#310,12.75);
#259=CIRCLE('',#312,12.35);
#260=CIRCLE('',#315,11.8762395692966);
#261=CIRCLE('',#317,12.2226497308104);
#262=CIRCLE('',#320,14.8828427124746);
#263=PRESENTATION_LAYER_ASSIGNMENT('1','Layer 1',(#281,#282,#283,#30));
#264=STYLED_ITEM('',(#268),#281);
#265=STYLED_ITEM('',(#269),#282);
#266=STYLED_ITEM('',(#270),#283);
#267=STYLED_ITEM('',(#271),#30);
#268=PRESENTATION_STYLE_ASSIGNMENT((#272));
#269=PRESENTATION_STYLE_ASSIGNMENT((#273));
#270=PRESENTATION_STYLE_ASSIGNMENT((#274));
#271=PRESENTATION_STYLE_ASSIGNMENT((#25));
#272=CURVE_STYLE('',#277,POSITIVE_LENGTH_MEASURE(0.18),#275);
#273=CURVE_STYLE('',#278,POSITIVE_LENGTH_MEASURE(0.18),#275);
#274=CURVE_STYLE('',#279,POSITIVE_LENGTH_MEASURE(0.18),#275);
#275=COLOUR_RGB('Strong Stone',0.576470588235294,0.54508278019379,0.392156862745098);
#276=COLOUR_RGB('Medium Gray',0.501960784313725,0.501960784313725,0.501960784313725);
#277=DRAUGHTING_PRE_DEFINED_CURVE_FONT('continuous');
#278=DRAUGHTING_PRE_DEFINED_CURVE_FONT('continuous');
#279=DRAUGHTING_PRE_DEFINED_CURVE_FONT('continuous');
#280=AXIS2_PLACEMENT_3D('',#418,#326,#327);
#281=AXIS2_PLACEMENT_3D('MCS',#419,#328,#329);
#282=AXIS2_PLACEMENT_3D('PCS',#420,#330,#331);
#283=AXIS2_PLACEMENT_3D('CSW',#421,#332,#333);
#284=AXIS2_PLACEMENT_3D('',#422,#334,#335);
#285=AXIS2_PLACEMENT_3D('',#424,#336,#337);
#286=AXIS2_PLACEMENT_3D('',#426,#338,#339);
#287=AXIS2_PLACEMENT_3D('',#427,#340,#341);
#288=AXIS2_PLACEMENT_3D('',#429,#342,#343);
#289=AXIS2_PLACEMENT_3D('',#431,#344,#345);
#290=AXIS2_PLACEMENT_3D('',#432,#346,#347);
#291=AXIS2_PLACEMENT_3D('',#434,#348,#349);
#292=AXIS2_PLACEMENT_3D('',#436,#350,#351);
#293=AXIS2_PLACEMENT_3D('',#437,#352,#353);
#294=AXIS2_PLACEMENT_3D('',#438,#354,#355);
#295=AXIS2_PLACEMENT_3D('',#440,#356,#357);
#296=AXIS2_PLACEMENT_3D('',#442,#358,#359);
#297=AXIS2_PLACEMENT_3D('',#443,#360,#361);
#298=AXIS2_PLACEMENT_3D('',#445,#362,#363);
#299=AXIS2_PLACEMENT_3D('',#447,#364,#365);
#300=AXIS2_PLACEMENT_3D('',#448,#366,#367);
#301=AXIS2_PLACEMENT_3D('',#450,#368,#369);
#302=AXIS2_PLACEMENT_3D('',#451,#370,#371);
#303=AXIS2_PLACEMENT_3D('',#453,#372,#373);
#304=AXIS2_PLACEMENT_3D('',#454,#374,#375);
#305=AXIS2_PLACEMENT_3D('',#456,#376,#377);
#306=AXIS2_PLACEMENT_3D('',#458,#378,#379);
#307=AXIS2_PLACEMENT_3D('',#459,#380,#381);
#308=AXIS2_PLACEMENT_3D('',#461,#382,#383);
#309=AXIS2_PLACEMENT_3D('',#463,#384,#385);
#310=AXIS2_PLACEMENT_3D('',#464,#386,#387);
#311=AXIS2_PLACEMENT_3D('',#466,#388,#389);
#312=AXIS2_PLACEMENT_3D('',#467,#390,#391);
#313=AXIS2_PLACEMENT_3D('',#469,#392,#393);
#314=AXIS2_PLACEMENT_3D('',#470,#394,#395);
#315=AXIS2_PLACEMENT_3D('',#471,#396,#397);
#316=AXIS2_PLACEMENT_3D('',#473,#398,#399);
#317=AXIS2_PLACEMENT_3D('',#474,#400,#401);
#318=AXIS2_PLACEMENT_3D('',#476,#402,#403);
#319=AXIS2_PLACEMENT_3D('',#477,#404,#405);
#320=AXIS2_PLACEMENT_3D('',#478,#406,#407);
#321=AXIS2_PLACEMENT_3D('',#480,#408,#409);
#322=AXIS2_PLACEMENT_3D('',#481,#410,#411);
#323=AXIS2_PLACEMENT_3D('',#482,#412,#413);
#324=AXIS2_PLACEMENT_3D('',#483,#414,#415);
#325=AXIS2_PLACEMENT_3D('',#484,#416,#417);
#326=DIRECTION('',(0.,0.,1.));
#327=DIRECTION('',(1.,0.,0.));
#328=DIRECTION('',(0.,0.,1.));
#329=DIRECTION('',(1.,0.,0.));
#330=DIRECTION('',(0.,0.,1.));
#331=DIRECTION('',(1.,0.,0.));
#332=DIRECTION('',(0.,0.,1.));
#333=DIRECTION('',(1.,0.,0.));
#334=DIRECTION('',(-6.12323399573677E-017,-6.12323399573677E-017,1.));
#335=DIRECTION('',(1.,-6.12323399573677E-017,0.));
#336=DIRECTION('',(-6.12323399573677E-017,-6.12323399573677E-017,1.));
#337=DIRECTION('',(1.,-6.12323399573677E-017,0.));
#338=DIRECTION('',(6.12323399573677E-017,6.12323399573677E-017,-1.));
#339=DIRECTION('',(-1.,6.12323399573677E-017,0.));
#340=DIRECTION('',(6.12323399573677E-017,6.12323399573677E-017,-1.));
#341=DIRECTION('',(1.,-6.12323399573677E-017,6.1440254601034E-017));
#342=DIRECTION('',(-6.12323399573677E-017,-6.12323399573677E-017,1.));
#343=DIRECTION('',(1.,-6.12323399573677E-017,6.12323399573677E-017));
#344=DIRECTION('',(-6.12323399573677E-017,-6.12323399573677E-017,1.));
#345=DIRECTION('',(1.,-6.12323399573677E-017,6.09345629826583E-017));
#346=DIRECTION('',(-6.12323399573677E-017,-6.12323399573677E-017,1.));
#347=DIRECTION('',(-1.,6.12323399573677E-017,-6.17388104063672E-017));
#348=DIRECTION('',(-6.12323399573677E-017,-6.12323399573677E-017,1.));
#349=DIRECTION('',(1.,-6.12323399573677E-017,0.));
#350=DIRECTION('',(6.12323399573677E-017,6.12323399573677E-017,-1.));
#351=DIRECTION('',(-1.,6.12323399573677E-017,-6.15826833971767E-017));
#352=DIRECTION('',(6.12323399573677E-017,6.12323399573677E-017,-1.));
#353=DIRECTION('',(-1.,6.12323399573677E-017,1.82696197607077E-016));
#354=DIRECTION('',(6.12323399573677E-017,6.12323399573677E-017,-1.));
#355=DIRECTION('',(1.,-6.12323399573677E-017,6.82961998416066E-017));
#356=DIRECTION('',(-6.12323399573677E-017,-6.12323399573677E-017,1.));
#357=DIRECTION('',(-1.,6.12323399573677E-017,0.));
#358=DIRECTION('',(6.12323399573677E-017,6.12323399573677E-017,-1.));
#359=DIRECTION('',(1.,-6.12323399573677E-017,0.));
#360=DIRECTION('',(-6.12323399573677E-017,-6.12323399573677E-017,1.));
#361=DIRECTION('',(1.,-6.12323399573677E-017,0.));
#362=DIRECTION('',(-6.12323399573677E-017,-6.12323399573677E-017,1.));
#363=DIRECTION('',(1.,-6.12323399573677E-017,0.));
#364=DIRECTION('',(-6.12323399573677E-017,-6.12323399573677E-017,1.));
#365=DIRECTION('',(1.,-6.12323399573677E-017,1.77510634901658E-016));
#366=DIRECTION('',(-6.12323399573677E-017,-6.12323399573677E-017,1.));
#367=DIRECTION('',(1.,-6.12323399573677E-017,6.14527547157776E-017));
#368=DIRECTION('',(-6.12323399573677E-017,-6.12323399573677E-017,1.));
#369=DIRECTION('',(1.,-6.12323399573677E-017,-1.90001425914604E-016));
#370=DIRECTION('',(-6.12323399573677E-017,-6.12323399573677E-017,1.));
#371=DIRECTION('',(1.,-6.12323399573677E-017,0.));
#372=DIRECTION('',(-6.12323399573677E-017,-6.12323399573677E-017,1.));
#373=DIRECTION('',(1.,-6.12323399573677E-017,0.));
#374=DIRECTION('',(6.12323399573677E-017,6.12323399573677E-017,-1.));
#375=DIRECTION('',(1.,-6.12323399573677E-017,5.78241158658936E-017));
#376=DIRECTION('',(-6.12323399573677E-017,-6.12323399573677E-017,1.));
#377=DIRECTION('',(-1.,6.12323399573677E-017,-5.78241158658936E-017));
#378=DIRECTION('',(6.12323399573677E-017,6.12323399573677E-017,-1.));
#379=DIRECTION('',(1.,-6.12323399573677E-017,5.78241158658936E-017));
#380=DIRECTION('',(6.12323399573677E-017,6.12323399573677E-017,-1.));
#381=DIRECTION('',(-1.,6.12323399573677E-017,-5.82793055564172E-017));
#382=DIRECTION('',(-6.12323399573677E-017,-6.12323399573677E-017,1.));
#383=DIRECTION('',(-1.,6.12323399573677E-017,-6.16586365148252E-017));
#384=DIRECTION('',(-6.12323399573677E-017,-6.12323399573677E-017,1.));
#385=DIRECTION('',(1.,-6.12323399573677E-017,1.11090665949254E-016));
#386=DIRECTION('',(-6.12323399573677E-017,-6.12323399573677E-017,1.));
#387=DIRECTION('',(1.,-6.12323399573677E-017,6.12323399573677E-017));
#388=DIRECTION('',(-6.12323399573677E-017,-6.12323399573677E-017,1.));
#389=DIRECTION('',(1.,-6.12323399573677E-017,6.12323399573677E-017));
#390=DIRECTION('',(-6.12323399573677E-017,-6.12323399573677E-017,1.));
#391=DIRECTION('',(1.,-6.12323399573677E-017,6.14527547157776E-017));
#392=DIRECTION('',(-6.12323399573677E-017,-6.12323399573677E-017,1.));
#393=DIRECTION('',(1.,-6.12323399573677E-017,6.1836625807158E-017));
#394=DIRECTION('',(6.12323399573677E-017,6.12323399573677E-017,-1.));
#395=DIRECTION('',(1.,-6.12323399573677E-017,7.02317196751744E-017));
#396=DIRECTION('',(-6.12323399573677E-017,-6.12323399573677E-017,1.));
#397=DIRECTION('',(1.,-6.12323399573677E-017,0.));
#398=DIRECTION('',(-6.12323399573677E-017,-6.12323399573677E-017,1.));
#399=DIRECTION('',(1.,-6.12323399573677E-017,6.24500451351651E-017));
#400=DIRECTION('',(6.12323399573677E-017,6.12323399573677E-017,-1.));
#401=DIRECTION('',(1.,-6.12323399573677E-017,0.));
#402=DIRECTION('',(6.12323399573677E-017,6.12323399573677E-017,-1.));
#403=DIRECTION('',(-1.,6.12323399573677E-017,8.2401634623067E-017));
#404=DIRECTION('',(6.12323399573677E-017,6.12323399573677E-017,-1.));
#405=DIRECTION('',(-1.,6.12323399573677E-017,-6.11493585678106E-017));
#406=DIRECTION('',(-6.12323399573677E-017,-6.12323399573677E-017,1.));
#407=DIRECTION('',(1.,-6.12323399573677E-017,5.82793055564172E-017));
#408=DIRECTION('',(6.12323399573677E-017,6.12323399573677E-017,-1.));
#409=DIRECTION('',(-1.,6.12323399573677E-017,0.));
#410=DIRECTION('',(-6.12323399573677E-017,-6.12323399573677E-017,1.));
#411=DIRECTION('',(1.,-6.12323399573677E-017,0.));
#412=DIRECTION('',(6.12323399573677E-017,6.12323399573677E-017,-1.));
#413=DIRECTION('',(-1.,6.12323399573677E-017,-5.78241158658936E-017));
#414=DIRECTION('',(-6.12323399573677E-017,-6.12323399573677E-017,1.));
#415=DIRECTION('',(1.,-6.12323399573677E-017,5.78241158658936E-017));
#416=DIRECTION('',(6.12323399573677E-017,6.12323399573677E-017,-1.));
#417=DIRECTION('',(1.,-6.12323399573677E-017,0.));
#418=CARTESIAN_POINT('',(0.,0.,0.));
#419=CARTESIAN_POINT('',(0.,0.,0.));
#420=CARTESIAN_POINT('',(0.,0.,0.));
#421=CARTESIAN_POINT('',(0.,0.,-5.));
#422=CARTESIAN_POINT('',(-2.77688661706662E-015,-2.77688661706662E-015,
45.35));
#423=CARTESIAN_POINT('',(6.35,-3.16571197579591E-015,45.35));
#424=CARTESIAN_POINT('',(2.79647318818716E-016,2.79647318818716E-016,-4.56698729810778));
#425=CARTESIAN_POINT('',(6.35,-1.09178039910569E-016,-4.56698729810778));
#426=CARTESIAN_POINT('',(3.12284933782575E-016,3.12284933782575E-016,-5.1));
#427=CARTESIAN_POINT('',(7.17381485823713E-018,7.17381485823713E-018,-0.11715728752538));
#428=CARTESIAN_POINT('',(14.1171572875254,-8.57252759403148E-016,-0.117157287525379));
#429=CARTESIAN_POINT('',(1.99164708024447E-032,1.99164708024447E-032,-3.25260651745652E-016));
#430=CARTESIAN_POINT('',(13.8343145750508,-8.47107453136675E-016,5.21846801391024E-016));
#431=CARTESIAN_POINT('',(2.44929359829471E-017,2.44929359829471E-017,-0.4));
#432=CARTESIAN_POINT('',(3.06161699786839E-016,3.06161699786838E-016,-5.));
#433=CARTESIAN_POINT('',(-14.0488897061572,1.16640809029782E-015,-5.));
#434=CARTESIAN_POINT('',(3.06161699786839E-016,3.06161699786839E-016,-5.));
#435=CARTESIAN_POINT('',(6.6,-9.79717439317883E-017,-5.));
#436=CARTESIAN_POINT('',(15.,-6.12323399573677E-016,-5.));
#437=CARTESIAN_POINT('',(3.06161699786839E-016,3.06161699786839E-016,-5.));
#438=CARTESIAN_POINT('',(-1.30228629514697E-016,-1.30228629514697E-016,
2.12679491924311));
#439=CARTESIAN_POINT('',(12.7,-9.07879346973267E-016,2.12679491924312));
#440=CARTESIAN_POINT('',(-3.366137982051E-015,-3.36613798205099E-015,54.9732050807569));
#441=CARTESIAN_POINT('',(-12.7,-2.58848726459243E-015,54.9732050807569));
#442=CARTESIAN_POINT('',(-3.67394039744206E-015,-3.67394039744206E-015,
60.));
#443=CARTESIAN_POINT('',(-3.42901103761259E-015,-3.42901103761259E-015,
56.));
#444=CARTESIAN_POINT('',(9.28867513459481,-3.99777835120765E-015,56.));
#445=CARTESIAN_POINT('',(-3.3983948676339E-015,-3.3983948676339E-015,55.5));
#446=CARTESIAN_POINT('',(9.,-3.94948592725021E-015,55.5));
#447=CARTESIAN_POINT('',(-3.3983948676339E-015,-3.3983948676339E-015,55.5));
#448=CARTESIAN_POINT('',(-5.02458581891676E-017,-5.02458581891676E-017,
0.820577136594008));
#449=CARTESIAN_POINT('',(12.35,-8.06465256662659E-016,0.820577136594009));
#450=CARTESIAN_POINT('',(-1.5308084989342E-016,-1.53080849893419E-016,2.5));
#451=CARTESIAN_POINT('',(-2.93915231795365E-015,-2.93915231795365E-015,
48.));
#452=CARTESIAN_POINT('',(9.,-3.49024337756996E-015,48.));
#453=CARTESIAN_POINT('',(-2.77688661706662E-015,-2.77688661706662E-015,
45.35));
#454=CARTESIAN_POINT('',(7.13776462238405E-017,7.13776462238404E-017,-1.16568542494924));
#455=CARTESIAN_POINT('',(15.,-8.47107453136675E-016,-1.16568542494924));
#456=CARTESIAN_POINT('',(2.37845670560866E-016,2.37845670560866E-016,-3.88431457505076));
#457=CARTESIAN_POINT('',(-15.,1.15633076992138E-015,-3.88431457505076));
#458=CARTESIAN_POINT('',(3.06161699786839E-016,3.06161699786839E-016,-5.));
#459=CARTESIAN_POINT('',(2.55164791685576E-016,2.55164791685576E-016,-4.16715728752538));
#460=CARTESIAN_POINT('',(-14.8828427124746,1.16647607618785E-015,-4.16715728752538));
#461=CARTESIAN_POINT('',(3.05111118924338E-016,3.05111118924338E-016,-4.98284271247462));
#462=CARTESIAN_POINT('',(-14.0671572875254,1.16647607618785E-015,-4.98284271247462));
#463=CARTESIAN_POINT('',(2.47990976827339E-016,2.47990976827339E-016,-4.05));
#464=CARTESIAN_POINT('',(5.31105888065192E-032,5.31105888065192E-032,-8.67361737988404E-016));
#465=CARTESIAN_POINT('',(12.75,-7.80712334456438E-016,-8.66494035319659E-017));
#466=CARTESIAN_POINT('',(12.75,-7.80712334456438E-016,4.28346628398649E-016));
#467=CARTESIAN_POINT('',(-2.4492935982947E-017,-2.4492935982947E-017,0.4));
#468=CARTESIAN_POINT('',(12.35,-7.80712334456438E-016,0.400000000000001));
#469=CARTESIAN_POINT('',(-2.4492935982947E-017,-2.4492935982947E-017,0.4));
#470=CARTESIAN_POINT('',(3.06161699786839E-016,3.06161699786839E-016,-5.));
#471=CARTESIAN_POINT('',(-3.42901103761259E-015,-3.42901103761259E-015,
56.));
#472=CARTESIAN_POINT('',(11.8762395692966,-4.1562209763349E-015,56.));
#473=CARTESIAN_POINT('',(-3.42901103761259E-015,-3.42901103761259E-015,
56.));
#474=CARTESIAN_POINT('',(-3.41676456962112E-015,-3.41676456962112E-015,
55.8));
#475=CARTESIAN_POINT('',(12.2226497308104,-4.16518601311792E-015,55.8));
#476=CARTESIAN_POINT('',(-3.42901103761259E-015,-3.42901103761259E-015,
56.));
#477=CARTESIAN_POINT('',(2.87791997799628E-016,2.87791997799628E-016,-4.7));
#478=CARTESIAN_POINT('',(5.40585250991306E-017,5.40585250991306E-017,-0.882842712474621));
#479=CARTESIAN_POINT('',(14.8828427124746,-8.57252759403148E-016,-0.88284271247462));
#480=CARTESIAN_POINT('',(0.,0.,0.));
#481=CARTESIAN_POINT('',(-3.40451810162964E-015,-3.40451810162964E-015,
55.6));
#482=CARTESIAN_POINT('',(2.37845670560866E-016,2.37845670560866E-016,-3.88431457505076));
#483=CARTESIAN_POINT('',(7.13776462238405E-017,7.13776462238404E-017,-1.16568542494924));
#484=CARTESIAN_POINT('',(-3.67394039744206E-015,-3.67394039744206E-015,
60.));
#485=MECHANICAL_DESIGN_GEOMETRIC_PRESENTATION_REPRESENTATION('',(#264,#265,
#266,#267),#486);
#486=(
GEOMETRIC_REPRESENTATION_CONTEXT(3)
GLOBAL_UNCERTAINTY_ASSIGNED_CONTEXT((#487))
GLOBAL_UNIT_ASSIGNED_CONTEXT((#493,#489,#488))
REPRESENTATION_CONTEXT('1522913108154','TOP_LEVEL_ASSEMBLY_PART')
);
#487=UNCERTAINTY_MEASURE_WITH_UNIT(LENGTH_MEASURE(2.E-005),#493,
'DISTANCE_ACCURACY_VALUE','Maximum Tolerance applied to model');
#488=(
NAMED_UNIT(*)
SI_UNIT($,.STERADIAN.)
SOLID_ANGLE_UNIT()
);
#489=(
CONVERSION_BASED_UNIT('DEGREE',#491)
NAMED_UNIT(#490)
PLANE_ANGLE_UNIT()
);
#490=DIMENSIONAL_EXPONENTS(0.,0.,0.,0.,0.,0.,0.);
#491=PLANE_ANGLE_MEASURE_WITH_UNIT(PLANE_ANGLE_MEASURE(0.0174532925),#492);
#492=(
NAMED_UNIT(*)
PLANE_ANGLE_UNIT()
SI_UNIT($,.RADIAN.)
);
#493=(
LENGTH_UNIT()
NAMED_UNIT(*)
SI_UNIT(.MILLI.,.METRE.)
);
ENDSEC;
END-ISO-10303-21;
