ISO-10303-21;
HEADER;
/* Generated by software containing ST-Developer
 * from STEP Tools, Inc. (www.steptools.com) 
 */
/* OPTION: using custom schema-name function */

FILE_DESCRIPTION(
/* description */ (''),
/* implementation_level */ '2;1');

FILE_NAME(
/* name */ '1522913025031.stp',
/* time_stamp */ '2018-04-05T09:23:59+02:00',
/* author */ (''),
/* organization */ ('SMS'),
/* preprocessor_version */ 'ST-DEVELOPER v15',
/* originating_system */ 'SIEMENS PLM Software NX 8.5',
/* authorisation */ '');

FILE_SCHEMA (('AUTOMOTIVE_DESIGN { 1 0 10303 214 3 1 1 1 }'));
ENDSEC;

DATA;
#10=CONSTRUCTIVE_GEOMETRY_REPRESENTATION_RELATIONSHIP(
'supplemental geometry','',#24,#11);
#11=CONSTRUCTIVE_GEOMETRY_REPRESENTATION('supplemental geometry',(#259,
#260,#261),#446);
#12=SHAPE_REPRESENTATION_RELATIONSHIP('None',
'relationship between MOD000000000000000020084270000000-None and MOD00
0000000000000020084270000000-None',#24,#13);
#13=ADVANCED_BREP_SHAPE_REPRESENTATION(
'MOD000000000000000020084270000000-None',(#30),#446);
#14=SHAPE_DEFINITION_REPRESENTATION(#15,#24);
#15=PRODUCT_DEFINITION_SHAPE('','',#16);
#16=PRODUCT_DEFINITION(' ','',#18,#17);
#17=PRODUCT_DEFINITION_CONTEXT('part definition',#23,'design');
#18=PRODUCT_DEFINITION_FORMATION_WITH_SPECIFIED_SOURCE(' ',' ',#20,
 .NOT_KNOWN.);
#19=PRODUCT_RELATED_PRODUCT_CATEGORY('part','',(#20));
#20=PRODUCT('MOD000000000000000020084270000000',
'MOD000000000000000020084270000000',' ',(#21));
#21=PRODUCT_CONTEXT(' ',#23,'mechanical');
#22=APPLICATION_PROTOCOL_DEFINITION('international standard',
'automotive_design',2010,#23);
#23=APPLICATION_CONTEXT(
'core data for automotive mechanical design processes');
#24=SHAPE_REPRESENTATION('MOD000000000000000020084270000000-None',(#258),
#446);
#25=SURFACE_STYLE_USAGE(.BOTH.,#26);
#26=SURFACE_SIDE_STYLE('',(#27));
#27=SURFACE_STYLE_FILL_AREA(#28);
#28=FILL_AREA_STYLE('',(#29));
#29=FILL_AREA_STYLE_COLOUR('',#254);
#30=MANIFOLD_SOLID_BREP('NOCUT',#31);
#31=CLOSED_SHELL('',(#45,#46,#47,#48,#49,#50,#51,#52,#53,#54,#55,#56,#57,
#58,#59,#60,#61,#62,#63));
#32=CYLINDRICAL_SURFACE('',#274,20.);
#33=CYLINDRICAL_SURFACE('',#276,10.);
#34=CYLINDRICAL_SURFACE('',#278,19.85);
#35=CYLINDRICAL_SURFACE('',#294,22.);
#36=PLANE('',#270);
#37=PLANE('',#280);
#38=PLANE('',#298);
#39=TOROIDAL_SURFACE('',#267,19.1762395692966,0.4);
#40=TOROIDAL_SURFACE('',#284,20.8343145750508,0.4);
#41=TOROIDAL_SURFACE('',#287,20.7843145750508,0.4);
#42=TOROIDAL_SURFACE('',#295,21.6,0.4);
#43=TOROIDAL_SURFACE('',#296,21.6,0.4);
#44=TOROIDAL_SURFACE('',#299,20.25,0.4);
#45=ADVANCED_FACE('',(#70,#71),#64,.T.);
#46=ADVANCED_FACE('',(#72,#73),#39,.T.);
#47=ADVANCED_FACE('',(#74,#75),#36,.T.);
#48=ADVANCED_FACE('',(#76,#77),#65,.F.);
#49=ADVANCED_FACE('',(#78,#79),#32,.T.);
#50=ADVANCED_FACE('',(#80,#81),#33,.F.);
#51=ADVANCED_FACE('',(#82,#83),#34,.T.);
#52=ADVANCED_FACE('',(#84,#85),#37,.T.);
#53=ADVANCED_FACE('',(#86,#87),#66,.F.);
#54=ADVANCED_FACE('',(#88,#89),#40,.T.);
#55=ADVANCED_FACE('',(#90,#91),#67,.T.);
#56=ADVANCED_FACE('',(#92,#93),#41,.T.);
#57=ADVANCED_FACE('',(#94,#95),#68,.T.);
#58=ADVANCED_FACE('',(#96,#97),#69,.T.);
#59=ADVANCED_FACE('',(#98,#99),#35,.T.);
#60=ADVANCED_FACE('',(#100,#101),#42,.T.);
#61=ADVANCED_FACE('',(#102,#103),#43,.T.);
#62=ADVANCED_FACE('',(#104,#105),#38,.T.);
#63=ADVANCED_FACE('',(#106,#107),#44,.F.);
#64=CONICAL_SURFACE('',#264,20.1,14.9999999999999);
#65=CONICAL_SURFACE('',#272,10.,30.);
#66=CONICAL_SURFACE('',#281,10.,30.0000000000005);
#67=CONICAL_SURFACE('',#285,19.4071796769725,30.);
#68=CONICAL_SURFACE('',#289,22.,45.);
#69=CONICAL_SURFACE('',#291,21.,45.);
#70=FACE_BOUND('',#108,.T.);
#71=FACE_BOUND('',#109,.T.);
#72=FACE_BOUND('',#110,.T.);
#73=FACE_BOUND('',#111,.T.);
#74=FACE_BOUND('',#112,.T.);
#75=FACE_BOUND('',#113,.T.);
#76=FACE_BOUND('',#114,.T.);
#77=FACE_BOUND('',#115,.T.);
#78=FACE_BOUND('',#116,.T.);
#79=FACE_BOUND('',#117,.T.);
#80=FACE_BOUND('',#118,.T.);
#81=FACE_BOUND('',#119,.T.);
#82=FACE_BOUND('',#120,.T.);
#83=FACE_BOUND('',#121,.T.);
#84=FACE_BOUND('',#122,.T.);
#85=FACE_BOUND('',#123,.T.);
#86=FACE_BOUND('',#124,.T.);
#87=FACE_BOUND('',#125,.T.);
#88=FACE_BOUND('',#126,.T.);
#89=FACE_BOUND('',#127,.T.);
#90=FACE_BOUND('',#128,.T.);
#91=FACE_BOUND('',#129,.T.);
#92=FACE_BOUND('',#130,.T.);
#93=FACE_BOUND('',#131,.T.);
#94=FACE_BOUND('',#132,.T.);
#95=FACE_BOUND('',#133,.T.);
#96=FACE_BOUND('',#134,.T.);
#97=FACE_BOUND('',#135,.T.);
#98=FACE_BOUND('',#136,.T.);
#99=FACE_BOUND('',#137,.T.);
#100=FACE_BOUND('',#138,.T.);
#101=FACE_BOUND('',#139,.T.);
#102=FACE_BOUND('',#140,.T.);
#103=FACE_BOUND('',#141,.T.);
#104=FACE_BOUND('',#142,.T.);
#105=FACE_BOUND('',#143,.T.);
#106=FACE_BOUND('',#144,.T.);
#107=FACE_BOUND('',#145,.T.);
#108=EDGE_LOOP('',(#146));
#109=EDGE_LOOP('',(#147));
#110=EDGE_LOOP('',(#148));
#111=EDGE_LOOP('',(#149));
#112=EDGE_LOOP('',(#150));
#113=EDGE_LOOP('',(#151));
#114=EDGE_LOOP('',(#152));
#115=EDGE_LOOP('',(#153));
#116=EDGE_LOOP('',(#154));
#117=EDGE_LOOP('',(#155));
#118=EDGE_LOOP('',(#156));
#119=EDGE_LOOP('',(#157));
#120=EDGE_LOOP('',(#158));
#121=EDGE_LOOP('',(#159));
#122=EDGE_LOOP('',(#160));
#123=EDGE_LOOP('',(#161));
#124=EDGE_LOOP('',(#162));
#125=EDGE_LOOP('',(#163));
#126=EDGE_LOOP('',(#164));
#127=EDGE_LOOP('',(#165));
#128=EDGE_LOOP('',(#166));
#129=EDGE_LOOP('',(#167));
#130=EDGE_LOOP('',(#168));
#131=EDGE_LOOP('',(#169));
#132=EDGE_LOOP('',(#170));
#133=EDGE_LOOP('',(#171));
#134=EDGE_LOOP('',(#172));
#135=EDGE_LOOP('',(#173));
#136=EDGE_LOOP('',(#174));
#137=EDGE_LOOP('',(#175));
#138=EDGE_LOOP('',(#176));
#139=EDGE_LOOP('',(#177));
#140=EDGE_LOOP('',(#178));
#141=EDGE_LOOP('',(#179));
#142=EDGE_LOOP('',(#180));
#143=EDGE_LOOP('',(#181));
#144=EDGE_LOOP('',(#182));
#145=EDGE_LOOP('',(#183));
#146=ORIENTED_EDGE('',*,*,#203,.T.);
#147=ORIENTED_EDGE('',*,*,#204,.T.);
#148=ORIENTED_EDGE('',*,*,#205,.F.);
#149=ORIENTED_EDGE('',*,*,#206,.F.);
#150=ORIENTED_EDGE('',*,*,#207,.T.);
#151=ORIENTED_EDGE('',*,*,#208,.F.);
#152=ORIENTED_EDGE('',*,*,#207,.F.);
#153=ORIENTED_EDGE('',*,*,#209,.T.);
#154=ORIENTED_EDGE('',*,*,#204,.F.);
#155=ORIENTED_EDGE('',*,*,#210,.F.);
#156=ORIENTED_EDGE('',*,*,#209,.F.);
#157=ORIENTED_EDGE('',*,*,#211,.T.);
#158=ORIENTED_EDGE('',*,*,#212,.T.);
#159=ORIENTED_EDGE('',*,*,#203,.F.);
#160=ORIENTED_EDGE('',*,*,#206,.T.);
#161=ORIENTED_EDGE('',*,*,#213,.F.);
#162=ORIENTED_EDGE('',*,*,#213,.T.);
#163=ORIENTED_EDGE('',*,*,#211,.F.);
#164=ORIENTED_EDGE('',*,*,#214,.F.);
#165=ORIENTED_EDGE('',*,*,#215,.F.);
#166=ORIENTED_EDGE('',*,*,#205,.T.);
#167=ORIENTED_EDGE('',*,*,#210,.T.);
#168=ORIENTED_EDGE('',*,*,#216,.F.);
#169=ORIENTED_EDGE('',*,*,#208,.T.);
#170=ORIENTED_EDGE('',*,*,#217,.T.);
#171=ORIENTED_EDGE('',*,*,#216,.T.);
#172=ORIENTED_EDGE('',*,*,#214,.T.);
#173=ORIENTED_EDGE('',*,*,#218,.T.);
#174=ORIENTED_EDGE('',*,*,#219,.T.);
#175=ORIENTED_EDGE('',*,*,#220,.T.);
#176=ORIENTED_EDGE('',*,*,#217,.F.);
#177=ORIENTED_EDGE('',*,*,#220,.F.);
#178=ORIENTED_EDGE('',*,*,#218,.F.);
#179=ORIENTED_EDGE('',*,*,#219,.F.);
#180=ORIENTED_EDGE('',*,*,#215,.T.);
#181=ORIENTED_EDGE('',*,*,#221,.F.);
#182=ORIENTED_EDGE('',*,*,#221,.T.);
#183=ORIENTED_EDGE('',*,*,#212,.F.);
#184=VERTEX_POINT('',#389);
#185=VERTEX_POINT('',#391);
#186=VERTEX_POINT('',#394);
#187=VERTEX_POINT('',#396);
#188=VERTEX_POINT('',#399);
#189=VERTEX_POINT('',#401);
#190=VERTEX_POINT('',#404);
#191=VERTEX_POINT('',#407);
#192=VERTEX_POINT('',#410);
#193=VERTEX_POINT('',#413);
#194=VERTEX_POINT('',#416);
#195=VERTEX_POINT('',#420);
#196=VERTEX_POINT('',#422);
#197=VERTEX_POINT('',#426);
#198=VERTEX_POINT('',#429);
#199=VERTEX_POINT('',#432);
#200=VERTEX_POINT('',#435);
#201=VERTEX_POINT('',#437);
#202=VERTEX_POINT('',#442);
#203=EDGE_CURVE('',#184,#184,#222,.T.);
#204=EDGE_CURVE('',#185,#185,#223,.T.);
#205=EDGE_CURVE('',#186,#186,#224,.T.);
#206=EDGE_CURVE('',#187,#187,#225,.T.);
#207=EDGE_CURVE('',#188,#188,#226,.T.);
#208=EDGE_CURVE('',#189,#189,#227,.T.);
#209=EDGE_CURVE('',#190,#190,#228,.T.);
#210=EDGE_CURVE('',#191,#191,#229,.T.);
#211=EDGE_CURVE('',#192,#192,#230,.T.);
#212=EDGE_CURVE('',#193,#193,#231,.T.);
#213=EDGE_CURVE('',#194,#194,#232,.T.);
#214=EDGE_CURVE('',#195,#195,#233,.T.);
#215=EDGE_CURVE('',#196,#196,#234,.T.);
#216=EDGE_CURVE('',#197,#197,#235,.T.);
#217=EDGE_CURVE('',#198,#198,#236,.T.);
#218=EDGE_CURVE('',#199,#199,#237,.T.);
#219=EDGE_CURVE('',#200,#200,#238,.T.);
#220=EDGE_CURVE('',#201,#201,#239,.T.);
#221=EDGE_CURVE('',#202,#202,#240,.T.);
#222=CIRCLE('',#262,19.85);
#223=CIRCLE('',#263,20.);
#224=CIRCLE('',#265,19.5226497308104);
#225=CIRCLE('',#266,19.1762395692966);
#226=CIRCLE('',#268,10.25);
#227=CIRCLE('',#269,21.0488897061572);
#228=CIRCLE('',#271,10.);
#229=CIRCLE('',#273,20.);
#230=CIRCLE('',#275,10.);
#231=CIRCLE('',#277,19.85);
#232=CIRCLE('',#279,10.2886751345948);
#233=CIRCLE('',#282,21.1171572875254);
#234=CIRCLE('',#283,20.8343145750508);
#235=CIRCLE('',#286,21.0671572875254);
#236=CIRCLE('',#288,21.8828427124746);
#237=CIRCLE('',#290,21.8828427124746);
#238=CIRCLE('',#292,22.);
#239=CIRCLE('',#293,22.);
#240=CIRCLE('',#297,20.25);
#241=PRESENTATION_LAYER_ASSIGNMENT('1','Layer 1',(#259,#260,#261,#30));
#242=STYLED_ITEM('',(#246),#259);
#243=STYLED_ITEM('',(#247),#260);
#244=STYLED_ITEM('',(#248),#261);
#245=STYLED_ITEM('',(#249),#30);
#246=PRESENTATION_STYLE_ASSIGNMENT((#250));
#247=PRESENTATION_STYLE_ASSIGNMENT((#251));
#248=PRESENTATION_STYLE_ASSIGNMENT((#252));
#249=PRESENTATION_STYLE_ASSIGNMENT((#25));
#250=CURVE_STYLE('',#255,POSITIVE_LENGTH_MEASURE(0.18),#253);
#251=CURVE_STYLE('',#256,POSITIVE_LENGTH_MEASURE(0.18),#253);
#252=CURVE_STYLE('',#257,POSITIVE_LENGTH_MEASURE(0.18),#253);
#253=COLOUR_RGB('Strong Stone',0.576470588235294,0.54508278019379,0.392156862745098);
#254=COLOUR_RGB('Medium Gray',0.501960784313725,0.501960784313725,0.501960784313725);
#255=DRAUGHTING_PRE_DEFINED_CURVE_FONT('continuous');
#256=DRAUGHTING_PRE_DEFINED_CURVE_FONT('continuous');
#257=DRAUGHTING_PRE_DEFINED_CURVE_FONT('continuous');
#258=AXIS2_PLACEMENT_3D('',#384,#300,#301);
#259=AXIS2_PLACEMENT_3D('MCS',#385,#302,#303);
#260=AXIS2_PLACEMENT_3D('PCS',#386,#304,#305);
#261=AXIS2_PLACEMENT_3D('CSW',#387,#306,#307);
#262=AXIS2_PLACEMENT_3D('',#388,#308,#309);
#263=AXIS2_PLACEMENT_3D('',#390,#310,#311);
#264=AXIS2_PLACEMENT_3D('',#392,#312,#313);
#265=AXIS2_PLACEMENT_3D('',#393,#314,#315);
#266=AXIS2_PLACEMENT_3D('',#395,#316,#317);
#267=AXIS2_PLACEMENT_3D('',#397,#318,#319);
#268=AXIS2_PLACEMENT_3D('',#398,#320,#321);
#269=AXIS2_PLACEMENT_3D('',#400,#322,#323);
#270=AXIS2_PLACEMENT_3D('',#402,#324,#325);
#271=AXIS2_PLACEMENT_3D('',#403,#326,#327);
#272=AXIS2_PLACEMENT_3D('',#405,#328,#329);
#273=AXIS2_PLACEMENT_3D('',#406,#330,#331);
#274=AXIS2_PLACEMENT_3D('',#408,#332,#333);
#275=AXIS2_PLACEMENT_3D('',#409,#334,#335);
#276=AXIS2_PLACEMENT_3D('',#411,#336,#337);
#277=AXIS2_PLACEMENT_3D('',#412,#338,#339);
#278=AXIS2_PLACEMENT_3D('',#414,#340,#341);
#279=AXIS2_PLACEMENT_3D('',#415,#342,#343);
#280=AXIS2_PLACEMENT_3D('',#417,#344,#345);
#281=AXIS2_PLACEMENT_3D('',#418,#346,#347);
#282=AXIS2_PLACEMENT_3D('',#419,#348,#349);
#283=AXIS2_PLACEMENT_3D('',#421,#350,#351);
#284=AXIS2_PLACEMENT_3D('',#423,#352,#353);
#285=AXIS2_PLACEMENT_3D('',#424,#354,#355);
#286=AXIS2_PLACEMENT_3D('',#425,#356,#357);
#287=AXIS2_PLACEMENT_3D('',#427,#358,#359);
#288=AXIS2_PLACEMENT_3D('',#428,#360,#361);
#289=AXIS2_PLACEMENT_3D('',#430,#362,#363);
#290=AXIS2_PLACEMENT_3D('',#431,#364,#365);
#291=AXIS2_PLACEMENT_3D('',#433,#366,#367);
#292=AXIS2_PLACEMENT_3D('',#434,#368,#369);
#293=AXIS2_PLACEMENT_3D('',#436,#370,#371);
#294=AXIS2_PLACEMENT_3D('',#438,#372,#373);
#295=AXIS2_PLACEMENT_3D('',#439,#374,#375);
#296=AXIS2_PLACEMENT_3D('',#440,#376,#377);
#297=AXIS2_PLACEMENT_3D('',#441,#378,#379);
#298=AXIS2_PLACEMENT_3D('',#443,#380,#381);
#299=AXIS2_PLACEMENT_3D('',#444,#382,#383);
#300=DIRECTION('',(0.,0.,1.));
#301=DIRECTION('',(1.,0.,0.));
#302=DIRECTION('',(0.,0.,1.));
#303=DIRECTION('',(1.,0.,0.));
#304=DIRECTION('',(0.,0.,1.));
#305=DIRECTION('',(1.,0.,0.));
#306=DIRECTION('',(0.,0.,1.));
#307=DIRECTION('',(1.,0.,0.));
#308=DIRECTION('',(-6.12323399573677E-017,-6.12323399573677E-017,1.));
#309=DIRECTION('',(1.,-6.12323399573677E-017,6.55437081603327E-017));
#310=DIRECTION('',(6.12323399573677E-017,6.12323399573677E-017,-1.));
#311=DIRECTION('',(1.,-6.12323399573677E-017,6.50521303491303E-017));
#312=DIRECTION('',(-6.12323399573677E-017,-6.12323399573677E-017,1.));
#313=DIRECTION('',(1.,-6.12323399573677E-017,-1.85186240017119E-016));
#314=DIRECTION('',(6.12323399573677E-017,6.12323399573677E-017,-1.));
#315=DIRECTION('',(1.,-6.12323399573677E-017,0.));
#316=DIRECTION('',(-6.12323399573677E-017,-6.12323399573677E-017,1.));
#317=DIRECTION('',(1.,-6.12323399573677E-017,0.));
#318=DIRECTION('',(-6.12323399573677E-017,-6.12323399573677E-017,1.));
#319=DIRECTION('',(1.,-6.12323399573677E-017,0.));
#320=DIRECTION('',(-6.12323399573677E-017,-6.12323399573677E-017,1.));
#321=DIRECTION('',(1.,-6.12323399573677E-017,8.46206573647223E-017));
#322=DIRECTION('',(-6.12323399573677E-017,-6.12323399573677E-017,1.));
#323=DIRECTION('',(-1.,6.12323399573677E-017,-4.12070066448533E-017));
#324=DIRECTION('',(6.12323399573677E-017,6.12323399573677E-017,-1.));
#325=DIRECTION('',(-1.,6.12323399573677E-017,-6.15826833971767E-017));
#326=DIRECTION('',(-6.12323399573677E-017,-6.12323399573677E-017,1.));
#327=DIRECTION('',(1.,-6.12323399573677E-017,8.67361737988404E-017));
#328=DIRECTION('',(6.12323399573677E-017,6.12323399573677E-017,-1.));
#329=DIRECTION('',(-1.,6.12323399573677E-017,-2.21510515144169E-017));
#330=DIRECTION('',(-6.12323399573677E-017,-6.12323399573677E-017,1.));
#331=DIRECTION('',(-1.,6.12323399573677E-017,0.));
#332=DIRECTION('',(6.12323399573677E-017,6.12323399573677E-017,-1.));
#333=DIRECTION('',(1.,-6.12323399573677E-017,0.));
#334=DIRECTION('',(-6.12323399573677E-017,-6.12323399573677E-017,1.));
#335=DIRECTION('',(1.,-6.12323399573677E-017,0.));
#336=DIRECTION('',(6.12323399573677E-017,6.12323399573677E-017,-1.));
#337=DIRECTION('',(-1.,6.12323399573677E-017,-8.67361737988404E-017));
#338=DIRECTION('',(-6.12323399573677E-017,-6.12323399573677E-017,1.));
#339=DIRECTION('',(1.,-6.12323399573677E-017,6.0081732480305E-017));
#340=DIRECTION('',(6.12323399573677E-017,6.12323399573677E-017,-1.));
#341=DIRECTION('',(1.,-6.12323399573677E-017,4.36958054402218E-017));
#342=DIRECTION('',(-6.12323399573677E-017,-6.12323399573677E-017,1.));
#343=DIRECTION('',(1.,-6.12323399573677E-017,0.));
#344=DIRECTION('',(-6.12323399573677E-017,-6.12323399573677E-017,1.));
#345=DIRECTION('',(1.,-6.12323399573677E-017,5.55111512312578E-017));
#346=DIRECTION('',(-6.12323399573677E-017,-6.12323399573677E-017,1.));
#347=DIRECTION('',(1.,-6.12323399573677E-017,1.89022306256354E-016));
#348=DIRECTION('',(6.12323399573677E-017,6.12323399573677E-017,-1.));
#349=DIRECTION('',(1.,-6.12323399573677E-017,6.09689108385388E-017));
#350=DIRECTION('',(-6.12323399573677E-017,-6.12323399573677E-017,1.));
#351=DIRECTION('',(1.,-6.12323399573677E-017,6.12323399573677E-017));
#352=DIRECTION('',(-6.12323399573677E-017,-6.12323399573677E-017,1.));
#353=DIRECTION('',(1.,-6.12323399573677E-017,6.12707607012313E-017));
#354=DIRECTION('',(6.12323399573677E-017,6.12323399573677E-017,-1.));
#355=DIRECTION('',(-1.,6.12323399573677E-017,9.30212958995122E-017));
#356=DIRECTION('',(-6.12323399573677E-017,-6.12323399573677E-017,1.));
#357=DIRECTION('',(-1.,6.12323399573677E-017,-4.11712755617958E-017));
#358=DIRECTION('',(6.12323399573677E-017,6.12323399573677E-017,-1.));
#359=DIRECTION('',(-1.,6.12323399573677E-017,-4.09435828058328E-017));
#360=DIRECTION('',(6.12323399573677E-017,6.12323399573677E-017,-1.));
#361=DIRECTION('',(-1.,6.12323399573677E-017,-7.92732232630775E-017));
#362=DIRECTION('',(-6.12323399573677E-017,-6.12323399573677E-017,1.));
#363=DIRECTION('',(1.,-6.12323399573677E-017,1.10329770976999E-016));
#364=DIRECTION('',(-6.12323399573677E-017,-6.12323399573677E-017,1.));
#365=DIRECTION('',(1.,-6.12323399573677E-017,5.94549174473081E-017));
#366=DIRECTION('',(6.12323399573677E-017,6.12323399573677E-017,-1.));
#367=DIRECTION('',(-1.,6.12323399573677E-017,0.));
#368=DIRECTION('',(6.12323399573677E-017,6.12323399573677E-017,-1.));
#369=DIRECTION('',(1.,-6.12323399573677E-017,5.91383003173912E-017));
#370=DIRECTION('',(-6.12323399573677E-017,-6.12323399573677E-017,1.));
#371=DIRECTION('',(-1.,6.12323399573677E-017,-5.91383003173912E-017));
#372=DIRECTION('',(6.12323399573677E-017,6.12323399573677E-017,-1.));
#373=DIRECTION('',(1.,-6.12323399573677E-017,7.88510670898549E-017));
#374=DIRECTION('',(6.12323399573677E-017,6.12323399573677E-017,-1.));
#375=DIRECTION('',(-1.,6.12323399573677E-017,-5.91383003173911E-017));
#376=DIRECTION('',(-6.12323399573677E-017,-6.12323399573677E-017,1.));
#377=DIRECTION('',(1.,-6.12323399573677E-017,5.91383003173911E-017));
#378=DIRECTION('',(-6.12323399573677E-017,-6.12323399573677E-017,1.));
#379=DIRECTION('',(1.,-6.12323399573677E-017,6.12323399573677E-017));
#380=DIRECTION('',(-6.12323399573677E-017,-6.12323399573677E-017,1.));
#381=DIRECTION('',(1.,-6.12323399573677E-017,6.12323399573677E-017));
#382=DIRECTION('',(-6.12323399573677E-017,-6.12323399573677E-017,1.));
#383=DIRECTION('',(1.,-6.12323399573677E-017,6.03792977413235E-017));
#384=CARTESIAN_POINT('',(0.,0.,0.));
#385=CARTESIAN_POINT('',(0.,0.,0.));
#386=CARTESIAN_POINT('',(0.,0.,0.));
#387=CARTESIAN_POINT('',(0.,0.,-5.));
#388=CARTESIAN_POINT('',(-9.59502989466122E-017,-9.59502989466122E-017,
1.56698729810778));
#389=CARTESIAN_POINT('',(19.85,-1.31141224710036E-015,1.56698729810778));
#390=CARTESIAN_POINT('',(-1.30228629514696E-016,-1.30228629514696E-016,
2.1267949192431));
#391=CARTESIAN_POINT('',(20.,-1.35487542866205E-015,2.1267949192431));
#392=CARTESIAN_POINT('',(-1.5308084989342E-016,-1.53080849893419E-016,2.5));
#393=CARTESIAN_POINT('',(-4.27401732902427E-015,-4.27401732902426E-015,
69.8));
#394=CARTESIAN_POINT('',(19.5226497308104,-5.46943485420986E-015,69.8));
#395=CARTESIAN_POINT('',(-4.28626379701573E-015,-4.28626379701573E-015,
70.));
#396=CARTESIAN_POINT('',(19.1762395692966,-5.46046981742683E-015,70.));
#397=CARTESIAN_POINT('',(-4.26177086103279E-015,-4.26177086103279E-015,
69.6));
#398=CARTESIAN_POINT('',(3.06161699786838E-016,3.06161699786838E-016,-5.));
#399=CARTESIAN_POINT('',(10.25,-3.21469784776181E-016,-5.));
#400=CARTESIAN_POINT('',(3.06161699786838E-016,3.06161699786838E-016,-5.));
#401=CARTESIAN_POINT('',(-21.0488897061572,1.5950344699994E-015,-5.));
#402=CARTESIAN_POINT('',(22.,-1.04094977927525E-015,-5.));
#403=CARTESIAN_POINT('',(2.79647318818715E-016,2.79647318818715E-016,-4.56698729810777));
#404=CARTESIAN_POINT('',(10.,-3.32676080754962E-016,-4.56698729810777));
#405=CARTESIAN_POINT('',(2.79647318818715E-016,2.79647318818715E-016,-4.56698729810777));
#406=CARTESIAN_POINT('',(-4.22339074145414E-015,-4.22339074145414E-015,
68.9732050807569));
#407=CARTESIAN_POINT('',(-20.,-2.99874394230679E-015,68.9732050807569));
#408=CARTESIAN_POINT('',(-3.67394039744206E-015,-3.67394039744206E-015,
60.));
#409=CARTESIAN_POINT('',(-4.25564762703706E-015,-4.25564762703705E-015,
69.5));
#410=CARTESIAN_POINT('',(10.,-4.86797102661073E-015,69.5));
#411=CARTESIAN_POINT('',(3.12284933782575E-016,3.12284933782575E-016,-5.1));
#412=CARTESIAN_POINT('',(-2.44929359829444E-017,-2.44929359829444E-017,
0.399999999999956));
#413=CARTESIAN_POINT('',(19.85,-1.23995488413669E-015,0.399999999999957));
#414=CARTESIAN_POINT('',(3.29236298368095E-016,3.29236298368095E-016,-5.37683679240941));
#415=CARTESIAN_POINT('',(-4.28626379701573E-015,-4.28626379701573E-015,
70.));
#416=CARTESIAN_POINT('',(10.2886751345948,-4.91626345056816E-015,70.));
#417=CARTESIAN_POINT('',(-4.28626379701573E-015,-4.28626379701573E-015,
70.));
#418=CARTESIAN_POINT('',(-4.25564762703706E-015,-4.25564762703705E-015,
69.5));
#419=CARTESIAN_POINT('',(7.17381485823724E-018,7.17381485823724E-018,-0.117157287525382));
#420=CARTESIAN_POINT('',(21.1171572875254,-1.28587913910472E-015,-0.11715728752538));
#421=CARTESIAN_POINT('',(1.99164708024447E-032,1.99164708024447E-032,-3.25260651745652E-016));
#422=CARTESIAN_POINT('',(20.8343145750508,-1.27573383283825E-015,9.50473181092597E-016));
#423=CARTESIAN_POINT('',(2.44929359829471E-017,2.44929359829471E-017,-0.4));
#424=CARTESIAN_POINT('',(-4.28626379701573E-015,-4.28626379701573E-015,
70.));
#425=CARTESIAN_POINT('',(3.05111118924338E-016,3.05111118924338E-016,-4.98284271247462));
#426=CARTESIAN_POINT('',(-21.0671572875254,1.59510245588943E-015,-4.98284271247462));
#427=CARTESIAN_POINT('',(2.87791997799628E-016,2.87791997799628E-016,-4.7));
#428=CARTESIAN_POINT('',(2.55164791685576E-016,2.55164791685576E-016,-4.16715728752538));
#429=CARTESIAN_POINT('',(-21.8828427124746,1.59510245588943E-015,-4.16715728752538));
#430=CARTESIAN_POINT('',(2.47990976827339E-016,2.47990976827339E-016,-4.05));
#431=CARTESIAN_POINT('',(5.40585250991305E-017,5.40585250991305E-017,-0.882842712474619));
#432=CARTESIAN_POINT('',(21.8828427124746,-1.28587913910472E-015,-0.882842712474618));
#433=CARTESIAN_POINT('',(0.,0.,0.));
#434=CARTESIAN_POINT('',(7.13776462238404E-017,7.13776462238404E-017,-1.16568542494924));
#435=CARTESIAN_POINT('',(22.,-1.27573383283825E-015,-1.16568542494924));
#436=CARTESIAN_POINT('',(2.37845670560866E-016,2.37845670560866E-016,-3.88431457505076));
#437=CARTESIAN_POINT('',(-22.,1.58495714962296E-015,-3.88431457505076));
#438=CARTESIAN_POINT('',(3.29236298368095E-016,3.29236298368095E-016,-5.37683679240941));
#439=CARTESIAN_POINT('',(2.37845670560866E-016,2.37845670560866E-016,-3.88431457505076));
#440=CARTESIAN_POINT('',(7.13776462238404E-017,7.13776462238403E-017,-1.16568542494924));
#441=CARTESIAN_POINT('',(5.31105888065192E-032,5.31105888065192E-032,-8.67361737988404E-016));
#442=CARTESIAN_POINT('',(20.25,-1.2399548841367E-015,3.72593146148292E-016));
#443=CARTESIAN_POINT('',(20.25,-1.2399548841367E-015,8.87589178078907E-016));
#444=CARTESIAN_POINT('',(-2.4492935982947E-017,-2.4492935982947E-017,0.4));
#445=MECHANICAL_DESIGN_GEOMETRIC_PRESENTATION_REPRESENTATION('',(#242,#243,
#244,#245),#446);
#446=(
GEOMETRIC_REPRESENTATION_CONTEXT(3)
GLOBAL_UNCERTAINTY_ASSIGNED_CONTEXT((#447))
GLOBAL_UNIT_ASSIGNED_CONTEXT((#453,#449,#448))
REPRESENTATION_CONTEXT('1522913025031','TOP_LEVEL_ASSEMBLY_PART')
);
#447=UNCERTAINTY_MEASURE_WITH_UNIT(LENGTH_MEASURE(2.E-005),#453,
'DISTANCE_ACCURACY_VALUE','Maximum Tolerance applied to model');
#448=(
NAMED_UNIT(*)
SI_UNIT($,.STERADIAN.)
SOLID_ANGLE_UNIT()
);
#449=(
CONVERSION_BASED_UNIT('DEGREE',#451)
NAMED_UNIT(#450)
PLANE_ANGLE_UNIT()
);
#450=DIMENSIONAL_EXPONENTS(0.,0.,0.,0.,0.,0.,0.);
#451=PLANE_ANGLE_MEASURE_WITH_UNIT(PLANE_ANGLE_MEASURE(0.0174532925),#452);
#452=(
NAMED_UNIT(*)
PLANE_ANGLE_UNIT()
SI_UNIT($,.RADIAN.)
);
#453=(
LENGTH_UNIT()
NAMED_UNIT(*)
SI_UNIT(.MILLI.,.METRE.)
);
ENDSEC;
END-ISO-10303-21;
