ISO-10303-21;
HEADER;
/* Generated by software containing ST-Developer
 * from STEP Tools, Inc. (www.steptools.com) 
 */
/* OPTION: using custom schema-name function */

FILE_DESCRIPTION(
/* description */ (''),
/* implementation_level */ '2;1');

FILE_NAME(
/* name */ '1522912365444.stp',
/* time_stamp */ '2018-04-05T09:12:59+02:00',
/* author */ (''),
/* organization */ ('SMS'),
/* preprocessor_version */ 'ST-DEVELOPER v15',
/* originating_system */ 'SIEMENS PLM Software NX 8.5',
/* authorisation */ '');

FILE_SCHEMA (('AUTOMOTIVE_DESIGN { 1 0 10303 214 3 1 1 1 }'));
ENDSEC;

DATA;
#10=CONSTRUCTIVE_GEOMETRY_REPRESENTATION_RELATIONSHIP(
'supplemental geometry','',#24,#11);
#11=CONSTRUCTIVE_GEOMETRY_REPRESENTATION('supplemental geometry',(#303,
#304,#305),#526);
#12=SHAPE_REPRESENTATION_RELATIONSHIP('None',
'relationship between MOD000000000000000020084267600000-None and MOD00
0000000000000020084267600000-None',#24,#13);
#13=ADVANCED_BREP_SHAPE_REPRESENTATION(
'MOD000000000000000020084267600000-None',(#30),#526);
#14=SHAPE_DEFINITION_REPRESENTATION(#15,#24);
#15=PRODUCT_DEFINITION_SHAPE('','',#16);
#16=PRODUCT_DEFINITION(' ','',#18,#17);
#17=PRODUCT_DEFINITION_CONTEXT('part definition',#23,'design');
#18=PRODUCT_DEFINITION_FORMATION_WITH_SPECIFIED_SOURCE(' ',' ',#20,
 .NOT_KNOWN.);
#19=PRODUCT_RELATED_PRODUCT_CATEGORY('part','',(#20));
#20=PRODUCT('MOD000000000000000020084267600000',
'MOD000000000000000020084267600000',' ',(#21));
#21=PRODUCT_CONTEXT(' ',#23,'mechanical');
#22=APPLICATION_PROTOCOL_DEFINITION('international standard',
'automotive_design',2010,#23);
#23=APPLICATION_CONTEXT(
'core data for automotive mechanical design processes');
#24=SHAPE_REPRESENTATION('MOD000000000000000020084267600000-None',(#302),
#526);
#25=SURFACE_STYLE_USAGE(.BOTH.,#26);
#26=SURFACE_SIDE_STYLE('',(#27));
#27=SURFACE_STYLE_FILL_AREA(#28);
#28=FILL_AREA_STYLE('',(#29));
#29=FILL_AREA_STYLE_COLOUR('',#298);
#30=MANIFOLD_SOLID_BREP('NOCUT',#31);
#31=CLOSED_SHELL('',(#49,#50,#51,#52,#53,#54,#55,#56,#57,#58,#59,#60,#61,
#62,#63,#64,#65,#66,#67,#68,#69,#70,#71));
#32=CONICAL_SURFACE('',#315,2.75,30.);
#33=CONICAL_SURFACE('',#321,7.25,30.);
#34=CONICAL_SURFACE('',#323,10.1,15.);
#35=CONICAL_SURFACE('',#325,2.5,30.);
#36=CONICAL_SURFACE('',#331,12.5,45.);
#37=CONICAL_SURFACE('',#340,9.40717967697245,30.);
#38=CONICAL_SURFACE('',#343,11.5,45.);
#39=CONICAL_SURFACE('',#350,5.,45.);
#40=PLANE('',#314);
#41=PLANE('',#333);
#42=PLANE('',#338);
#43=TOROIDAL_SURFACE('',#311,11.3343145750508,0.4);
#44=TOROIDAL_SURFACE('',#335,10.25,0.4);
#45=TOROIDAL_SURFACE('',#341,11.2843145750508,0.4);
#46=TOROIDAL_SURFACE('',#344,9.1762395692966,0.4);
#47=TOROIDAL_SURFACE('',#345,12.1,0.4);
#48=TOROIDAL_SURFACE('',#346,12.1,0.4);
#49=ADVANCED_FACE('',(#78,#79),#72,.F.);
#50=ADVANCED_FACE('',(#80,#81),#43,.T.);
#51=ADVANCED_FACE('',(#82,#83),#40,.T.);
#52=ADVANCED_FACE('',(#84,#85),#32,.F.);
#53=ADVANCED_FACE('',(#86,#87),#73,.T.);
#54=ADVANCED_FACE('',(#88,#89),#33,.F.);
#55=ADVANCED_FACE('',(#90,#91),#34,.T.);
#56=ADVANCED_FACE('',(#92,#93),#35,.F.);
#57=ADVANCED_FACE('',(#94,#95),#74,.T.);
#58=ADVANCED_FACE('',(#96,#97),#36,.T.);
#59=ADVANCED_FACE('',(#98,#99),#41,.T.);
#60=ADVANCED_FACE('',(#100,#101),#44,.F.);
#61=ADVANCED_FACE('',(#102,#103),#75,.T.);
#62=ADVANCED_FACE('',(#104,#105),#42,.T.);
#63=ADVANCED_FACE('',(#106,#107),#37,.T.);
#64=ADVANCED_FACE('',(#108,#109),#45,.T.);
#65=ADVANCED_FACE('',(#110,#111),#38,.T.);
#66=ADVANCED_FACE('',(#112,#113),#46,.T.);
#67=ADVANCED_FACE('',(#114,#115),#47,.T.);
#68=ADVANCED_FACE('',(#116,#117),#48,.T.);
#69=ADVANCED_FACE('',(#118,#119),#76,.F.);
#70=ADVANCED_FACE('',(#120,#121),#39,.F.);
#71=ADVANCED_FACE('',(#122,#123),#77,.F.);
#72=CYLINDRICAL_SURFACE('',#308,2.5);
#73=CYLINDRICAL_SURFACE('',#318,10.);
#74=CYLINDRICAL_SURFACE('',#328,12.5);
#75=CYLINDRICAL_SURFACE('',#336,9.85);
#76=CYLINDRICAL_SURFACE('',#348,5.);
#77=CYLINDRICAL_SURFACE('',#351,7.25);
#78=FACE_BOUND('',#124,.T.);
#79=FACE_BOUND('',#125,.T.);
#80=FACE_BOUND('',#126,.T.);
#81=FACE_BOUND('',#127,.T.);
#82=FACE_BOUND('',#128,.T.);
#83=FACE_BOUND('',#129,.T.);
#84=FACE_BOUND('',#130,.T.);
#85=FACE_BOUND('',#131,.T.);
#86=FACE_BOUND('',#132,.T.);
#87=FACE_BOUND('',#133,.T.);
#88=FACE_BOUND('',#134,.T.);
#89=FACE_BOUND('',#135,.T.);
#90=FACE_BOUND('',#136,.T.);
#91=FACE_BOUND('',#137,.T.);
#92=FACE_BOUND('',#138,.T.);
#93=FACE_BOUND('',#139,.T.);
#94=FACE_BOUND('',#140,.T.);
#95=FACE_BOUND('',#141,.T.);
#96=FACE_BOUND('',#142,.T.);
#97=FACE_BOUND('',#143,.T.);
#98=FACE_BOUND('',#144,.T.);
#99=FACE_BOUND('',#145,.T.);
#100=FACE_BOUND('',#146,.T.);
#101=FACE_BOUND('',#147,.T.);
#102=FACE_BOUND('',#148,.T.);
#103=FACE_BOUND('',#149,.T.);
#104=FACE_BOUND('',#150,.T.);
#105=FACE_BOUND('',#151,.T.);
#106=FACE_BOUND('',#152,.T.);
#107=FACE_BOUND('',#153,.T.);
#108=FACE_BOUND('',#154,.T.);
#109=FACE_BOUND('',#155,.T.);
#110=FACE_BOUND('',#156,.T.);
#111=FACE_BOUND('',#157,.T.);
#112=FACE_BOUND('',#158,.T.);
#113=FACE_BOUND('',#159,.T.);
#114=FACE_BOUND('',#160,.T.);
#115=FACE_BOUND('',#161,.T.);
#116=FACE_BOUND('',#162,.T.);
#117=FACE_BOUND('',#163,.T.);
#118=FACE_BOUND('',#164,.T.);
#119=FACE_BOUND('',#165,.T.);
#120=FACE_BOUND('',#166,.T.);
#121=FACE_BOUND('',#167,.T.);
#122=FACE_BOUND('',#168,.T.);
#123=FACE_BOUND('',#169,.T.);
#124=EDGE_LOOP('',(#170));
#125=EDGE_LOOP('',(#171));
#126=EDGE_LOOP('',(#172));
#127=EDGE_LOOP('',(#173));
#128=EDGE_LOOP('',(#174));
#129=EDGE_LOOP('',(#175));
#130=EDGE_LOOP('',(#176));
#131=EDGE_LOOP('',(#177));
#132=EDGE_LOOP('',(#178));
#133=EDGE_LOOP('',(#179));
#134=EDGE_LOOP('',(#180));
#135=EDGE_LOOP('',(#181));
#136=EDGE_LOOP('',(#182));
#137=EDGE_LOOP('',(#183));
#138=EDGE_LOOP('',(#184));
#139=EDGE_LOOP('',(#185));
#140=EDGE_LOOP('',(#186));
#141=EDGE_LOOP('',(#187));
#142=EDGE_LOOP('',(#188));
#143=EDGE_LOOP('',(#189));
#144=EDGE_LOOP('',(#190));
#145=EDGE_LOOP('',(#191));
#146=EDGE_LOOP('',(#192));
#147=EDGE_LOOP('',(#193));
#148=EDGE_LOOP('',(#194));
#149=EDGE_LOOP('',(#195));
#150=EDGE_LOOP('',(#196));
#151=EDGE_LOOP('',(#197));
#152=EDGE_LOOP('',(#198));
#153=EDGE_LOOP('',(#199));
#154=EDGE_LOOP('',(#200));
#155=EDGE_LOOP('',(#201));
#156=EDGE_LOOP('',(#202));
#157=EDGE_LOOP('',(#203));
#158=EDGE_LOOP('',(#204));
#159=EDGE_LOOP('',(#205));
#160=EDGE_LOOP('',(#206));
#161=EDGE_LOOP('',(#207));
#162=EDGE_LOOP('',(#208));
#163=EDGE_LOOP('',(#209));
#164=EDGE_LOOP('',(#210));
#165=EDGE_LOOP('',(#211));
#166=EDGE_LOOP('',(#212));
#167=EDGE_LOOP('',(#213));
#168=EDGE_LOOP('',(#214));
#169=EDGE_LOOP('',(#215));
#170=ORIENTED_EDGE('',*,*,#239,.T.);
#171=ORIENTED_EDGE('',*,*,#240,.F.);
#172=ORIENTED_EDGE('',*,*,#241,.F.);
#173=ORIENTED_EDGE('',*,*,#242,.F.);
#174=ORIENTED_EDGE('',*,*,#243,.F.);
#175=ORIENTED_EDGE('',*,*,#244,.T.);
#176=ORIENTED_EDGE('',*,*,#240,.T.);
#177=ORIENTED_EDGE('',*,*,#244,.F.);
#178=ORIENTED_EDGE('',*,*,#245,.F.);
#179=ORIENTED_EDGE('',*,*,#246,.F.);
#180=ORIENTED_EDGE('',*,*,#247,.T.);
#181=ORIENTED_EDGE('',*,*,#248,.F.);
#182=ORIENTED_EDGE('',*,*,#249,.T.);
#183=ORIENTED_EDGE('',*,*,#245,.T.);
#184=ORIENTED_EDGE('',*,*,#250,.T.);
#185=ORIENTED_EDGE('',*,*,#239,.F.);
#186=ORIENTED_EDGE('',*,*,#251,.T.);
#187=ORIENTED_EDGE('',*,*,#252,.T.);
#188=ORIENTED_EDGE('',*,*,#253,.T.);
#189=ORIENTED_EDGE('',*,*,#254,.T.);
#190=ORIENTED_EDGE('',*,*,#242,.T.);
#191=ORIENTED_EDGE('',*,*,#255,.F.);
#192=ORIENTED_EDGE('',*,*,#255,.T.);
#193=ORIENTED_EDGE('',*,*,#256,.F.);
#194=ORIENTED_EDGE('',*,*,#256,.T.);
#195=ORIENTED_EDGE('',*,*,#249,.F.);
#196=ORIENTED_EDGE('',*,*,#257,.T.);
#197=ORIENTED_EDGE('',*,*,#247,.F.);
#198=ORIENTED_EDGE('',*,*,#258,.T.);
#199=ORIENTED_EDGE('',*,*,#246,.T.);
#200=ORIENTED_EDGE('',*,*,#254,.F.);
#201=ORIENTED_EDGE('',*,*,#243,.T.);
#202=ORIENTED_EDGE('',*,*,#241,.T.);
#203=ORIENTED_EDGE('',*,*,#259,.T.);
#204=ORIENTED_EDGE('',*,*,#258,.F.);
#205=ORIENTED_EDGE('',*,*,#257,.F.);
#206=ORIENTED_EDGE('',*,*,#253,.F.);
#207=ORIENTED_EDGE('',*,*,#252,.F.);
#208=ORIENTED_EDGE('',*,*,#259,.F.);
#209=ORIENTED_EDGE('',*,*,#251,.F.);
#210=ORIENTED_EDGE('',*,*,#260,.T.);
#211=ORIENTED_EDGE('',*,*,#250,.F.);
#212=ORIENTED_EDGE('',*,*,#261,.T.);
#213=ORIENTED_EDGE('',*,*,#260,.F.);
#214=ORIENTED_EDGE('',*,*,#248,.T.);
#215=ORIENTED_EDGE('',*,*,#261,.F.);
#216=VERTEX_POINT('',#457);
#217=VERTEX_POINT('',#459);
#218=VERTEX_POINT('',#462);
#219=VERTEX_POINT('',#464);
#220=VERTEX_POINT('',#467);
#221=VERTEX_POINT('',#469);
#222=VERTEX_POINT('',#473);
#223=VERTEX_POINT('',#475);
#224=VERTEX_POINT('',#478);
#225=VERTEX_POINT('',#480);
#226=VERTEX_POINT('',#483);
#227=VERTEX_POINT('',#486);
#228=VERTEX_POINT('',#489);
#229=VERTEX_POINT('',#491);
#230=VERTEX_POINT('',#494);
#231=VERTEX_POINT('',#496);
#232=VERTEX_POINT('',#499);
#233=VERTEX_POINT('',#502);
#234=VERTEX_POINT('',#506);
#235=VERTEX_POINT('',#509);
#236=VERTEX_POINT('',#513);
#237=VERTEX_POINT('',#519);
#238=VERTEX_POINT('',#522);
#239=EDGE_CURVE('',#216,#216,#262,.T.);
#240=EDGE_CURVE('',#217,#217,#263,.T.);
#241=EDGE_CURVE('',#218,#218,#264,.T.);
#242=EDGE_CURVE('',#219,#219,#265,.T.);
#243=EDGE_CURVE('',#220,#220,#266,.T.);
#244=EDGE_CURVE('',#221,#221,#267,.T.);
#245=EDGE_CURVE('',#222,#222,#268,.T.);
#246=EDGE_CURVE('',#223,#223,#269,.T.);
#247=EDGE_CURVE('',#224,#224,#270,.T.);
#248=EDGE_CURVE('',#225,#225,#271,.T.);
#249=EDGE_CURVE('',#226,#226,#272,.T.);
#250=EDGE_CURVE('',#227,#227,#273,.T.);
#251=EDGE_CURVE('',#228,#228,#274,.T.);
#252=EDGE_CURVE('',#229,#229,#275,.T.);
#253=EDGE_CURVE('',#230,#230,#276,.T.);
#254=EDGE_CURVE('',#231,#231,#277,.T.);
#255=EDGE_CURVE('',#232,#232,#278,.T.);
#256=EDGE_CURVE('',#233,#233,#279,.T.);
#257=EDGE_CURVE('',#234,#234,#280,.T.);
#258=EDGE_CURVE('',#235,#235,#281,.T.);
#259=EDGE_CURVE('',#236,#236,#282,.T.);
#260=EDGE_CURVE('',#237,#237,#283,.T.);
#261=EDGE_CURVE('',#238,#238,#284,.T.);
#262=CIRCLE('',#306,2.5);
#263=CIRCLE('',#307,2.5);
#264=CIRCLE('',#309,11.6171572875254);
#265=CIRCLE('',#310,11.3343145750508);
#266=CIRCLE('',#312,11.5488897061572);
#267=CIRCLE('',#313,2.75);
#268=CIRCLE('',#316,10.);
#269=CIRCLE('',#317,10.);
#270=CIRCLE('',#319,7.53867513459481);
#271=CIRCLE('',#320,7.25);
#272=CIRCLE('',#322,9.85);
#273=CIRCLE('',#324,5.);
#274=CIRCLE('',#326,12.5);
#275=CIRCLE('',#327,12.5);
#276=CIRCLE('',#329,12.3828427124746);
#277=CIRCLE('',#330,11.5671572875254);
#278=CIRCLE('',#332,10.25);
#279=CIRCLE('',#334,9.85);
#280=CIRCLE('',#337,9.1762395692966);
#281=CIRCLE('',#339,9.52264973081038);
#282=CIRCLE('',#342,12.3828427124746);
#283=CIRCLE('',#347,5.);
#284=CIRCLE('',#349,7.25);
#285=PRESENTATION_LAYER_ASSIGNMENT('1','Layer 1',(#303,#304,#305,#30));
#286=STYLED_ITEM('',(#290),#303);
#287=STYLED_ITEM('',(#291),#304);
#288=STYLED_ITEM('',(#292),#305);
#289=STYLED_ITEM('',(#293),#30);
#290=PRESENTATION_STYLE_ASSIGNMENT((#294));
#291=PRESENTATION_STYLE_ASSIGNMENT((#295));
#292=PRESENTATION_STYLE_ASSIGNMENT((#296));
#293=PRESENTATION_STYLE_ASSIGNMENT((#25));
#294=CURVE_STYLE('',#299,POSITIVE_LENGTH_MEASURE(0.18),#297);
#295=CURVE_STYLE('',#300,POSITIVE_LENGTH_MEASURE(0.18),#297);
#296=CURVE_STYLE('',#301,POSITIVE_LENGTH_MEASURE(0.18),#297);
#297=COLOUR_RGB('Strong Stone',0.576470588235294,0.54508278019379,0.392156862745098);
#298=COLOUR_RGB('Medium Gray',0.501960784313725,0.501960784313725,0.501960784313725);
#299=DRAUGHTING_PRE_DEFINED_CURVE_FONT('continuous');
#300=DRAUGHTING_PRE_DEFINED_CURVE_FONT('continuous');
#301=DRAUGHTING_PRE_DEFINED_CURVE_FONT('continuous');
#302=AXIS2_PLACEMENT_3D('',#452,#352,#353);
#303=AXIS2_PLACEMENT_3D('MCS',#453,#354,#355);
#304=AXIS2_PLACEMENT_3D('PCS',#454,#356,#357);
#305=AXIS2_PLACEMENT_3D('CSW',#455,#358,#359);
#306=AXIS2_PLACEMENT_3D('',#456,#360,#361);
#307=AXIS2_PLACEMENT_3D('',#458,#362,#363);
#308=AXIS2_PLACEMENT_3D('',#460,#364,#365);
#309=AXIS2_PLACEMENT_3D('',#461,#366,#367);
#310=AXIS2_PLACEMENT_3D('',#463,#368,#369);
#311=AXIS2_PLACEMENT_3D('',#465,#370,#371);
#312=AXIS2_PLACEMENT_3D('',#466,#372,#373);
#313=AXIS2_PLACEMENT_3D('',#468,#374,#375);
#314=AXIS2_PLACEMENT_3D('',#470,#376,#377);
#315=AXIS2_PLACEMENT_3D('',#471,#378,#379);
#316=AXIS2_PLACEMENT_3D('',#472,#380,#381);
#317=AXIS2_PLACEMENT_3D('',#474,#382,#383);
#318=AXIS2_PLACEMENT_3D('',#476,#384,#385);
#319=AXIS2_PLACEMENT_3D('',#477,#386,#387);
#320=AXIS2_PLACEMENT_3D('',#479,#388,#389);
#321=AXIS2_PLACEMENT_3D('',#481,#390,#391);
#322=AXIS2_PLACEMENT_3D('',#482,#392,#393);
#323=AXIS2_PLACEMENT_3D('',#484,#394,#395);
#324=AXIS2_PLACEMENT_3D('',#485,#396,#397);
#325=AXIS2_PLACEMENT_3D('',#487,#398,#399);
#326=AXIS2_PLACEMENT_3D('',#488,#400,#401);
#327=AXIS2_PLACEMENT_3D('',#490,#402,#403);
#328=AXIS2_PLACEMENT_3D('',#492,#404,#405);
#329=AXIS2_PLACEMENT_3D('',#493,#406,#407);
#330=AXIS2_PLACEMENT_3D('',#495,#408,#409);
#331=AXIS2_PLACEMENT_3D('',#497,#410,#411);
#332=AXIS2_PLACEMENT_3D('',#498,#412,#413);
#333=AXIS2_PLACEMENT_3D('',#500,#414,#415);
#334=AXIS2_PLACEMENT_3D('',#501,#416,#417);
#335=AXIS2_PLACEMENT_3D('',#503,#418,#419);
#336=AXIS2_PLACEMENT_3D('',#504,#420,#421);
#337=AXIS2_PLACEMENT_3D('',#505,#422,#423);
#338=AXIS2_PLACEMENT_3D('',#507,#424,#425);
#339=AXIS2_PLACEMENT_3D('',#508,#426,#427);
#340=AXIS2_PLACEMENT_3D('',#510,#428,#429);
#341=AXIS2_PLACEMENT_3D('',#511,#430,#431);
#342=AXIS2_PLACEMENT_3D('',#512,#432,#433);
#343=AXIS2_PLACEMENT_3D('',#514,#434,#435);
#344=AXIS2_PLACEMENT_3D('',#515,#436,#437);
#345=AXIS2_PLACEMENT_3D('',#516,#438,#439);
#346=AXIS2_PLACEMENT_3D('',#517,#440,#441);
#347=AXIS2_PLACEMENT_3D('',#518,#442,#443);
#348=AXIS2_PLACEMENT_3D('',#520,#444,#445);
#349=AXIS2_PLACEMENT_3D('',#521,#446,#447);
#350=AXIS2_PLACEMENT_3D('',#523,#448,#449);
#351=AXIS2_PLACEMENT_3D('',#524,#450,#451);
#352=DIRECTION('',(0.,0.,1.));
#353=DIRECTION('',(1.,0.,0.));
#354=DIRECTION('',(0.,0.,1.));
#355=DIRECTION('',(1.,0.,0.));
#356=DIRECTION('',(0.,0.,1.));
#357=DIRECTION('',(1.,0.,0.));
#358=DIRECTION('',(0.,0.,1.));
#359=DIRECTION('',(1.,0.,0.));
#360=DIRECTION('',(9.76971003005749E-017,0.,1.));
#361=DIRECTION('',(1.,0.,0.));
#362=DIRECTION('',(1.83697019872103E-016,0.,1.));
#363=DIRECTION('',(1.,0.,-3.46944695195361E-016));
#364=DIRECTION('',(-1.83697019872103E-016,0.,-1.));
#365=DIRECTION('',(-1.,0.,3.46944695195361E-016));
#366=DIRECTION('',(-1.83697019872103E-016,0.,-1.));
#367=DIRECTION('',(1.,0.,-1.83155544066498E-016));
#368=DIRECTION('',(1.83697019872103E-016,0.,1.));
#369=DIRECTION('',(1.,0.,-1.83697019872103E-016));
#370=DIRECTION('',(1.83697019872103E-016,0.,1.));
#371=DIRECTION('',(1.,0.,-1.84791734626019E-016));
#372=DIRECTION('',(1.83697019872103E-016,0.,1.));
#373=DIRECTION('',(-1.,0.,1.50206948036914E-016));
#374=DIRECTION('',(1.83697019872103E-016,0.,1.));
#375=DIRECTION('',(1.,0.,-3.1540426835942E-016));
#376=DIRECTION('',(-1.83697019872103E-016,0.,-1.));
#377=DIRECTION('',(-1.,0.,1.83880688453542E-016));
#378=DIRECTION('',(-1.83697019872103E-016,0.,-1.));
#379=DIRECTION('',(-1.,0.,1.83908712749967E-016));
#380=DIRECTION('',(-1.83697019872103E-016,0.,-1.));
#381=DIRECTION('',(1.,0.,-1.73472347597681E-016));
#382=DIRECTION('',(1.83697019872103E-016,0.,1.));
#383=DIRECTION('',(-1.,0.,0.));
#384=DIRECTION('',(-1.83697019872103E-016,0.,-1.));
#385=DIRECTION('',(1.,0.,0.));
#386=DIRECTION('',(9.76971003005749E-017,0.,1.));
#387=DIRECTION('',(1.,0.,0.));
#388=DIRECTION('',(9.76971003005749E-017,0.,1.));
#389=DIRECTION('',(1.,0.,0.));
#390=DIRECTION('',(9.76971003005749E-017,0.,1.));
#391=DIRECTION('',(1.,0.,1.66172545198043E-016));
#392=DIRECTION('',(1.83697019872103E-016,0.,1.));
#393=DIRECTION('',(1.,0.,-1.76114058474803E-016));
#394=DIRECTION('',(1.83697019872103E-016,0.,1.));
#395=DIRECTION('',(1.,0.,-1.91846437027508E-016));
#396=DIRECTION('',(9.76971003005749E-017,0.,1.));
#397=DIRECTION('',(1.,0.,0.));
#398=DIRECTION('',(9.76971003005749E-017,0.,1.));
#399=DIRECTION('',(1.,0.,2.39333989224657E-017));
#400=DIRECTION('',(-1.83697019872103E-016,0.,-1.));
#401=DIRECTION('',(1.,0.,-1.90819582357449E-016));
#402=DIRECTION('',(1.83697019872103E-016,0.,1.));
#403=DIRECTION('',(-1.,0.,1.73472347597681E-016));
#404=DIRECTION('',(-1.83697019872103E-016,0.,-1.));
#405=DIRECTION('',(1.,0.,-2.08166817117217E-016));
#406=DIRECTION('',(-1.83697019872103E-016,0.,-1.));
#407=DIRECTION('',(-1.,0.,2.10136337381064E-016));
#408=DIRECTION('',(1.83697019872103E-016,0.,1.));
#409=DIRECTION('',(-1.,0.,1.49969731789471E-016));
#410=DIRECTION('',(1.83697019872103E-016,0.,1.));
#411=DIRECTION('',(1.,0.,-2.17590006369437E-016));
#412=DIRECTION('',(1.83697019872103E-016,0.,1.));
#413=DIRECTION('',(1.,0.,-1.83697019872103E-016));
#414=DIRECTION('',(1.83697019872103E-016,0.,1.));
#415=DIRECTION('',(1.,0.,-1.83697019872103E-016));
#416=DIRECTION('',(1.83697019872103E-016,0.,1.));
#417=DIRECTION('',(1.,0.,-1.8161762280214E-016));
#418=DIRECTION('',(1.83697019872103E-016,0.,1.));
#419=DIRECTION('',(1.,0.,-1.83245437603184E-016));
#420=DIRECTION('',(-1.83697019872103E-016,0.,-1.));
#421=DIRECTION('',(1.,0.,-1.76114058474803E-016));
#422=DIRECTION('',(1.83697019872103E-016,0.,1.));
#423=DIRECTION('',(1.,0.,0.));
#424=DIRECTION('',(1.83697019872103E-016,0.,1.));
#425=DIRECTION('',(1.,0.,-1.80411241501588E-016));
#426=DIRECTION('',(-1.83697019872103E-016,0.,-1.));
#427=DIRECTION('',(1.,0.,0.));
#428=DIRECTION('',(-1.83697019872103E-016,0.,-1.));
#429=DIRECTION('',(-1.,0.,2.60168262338781E-016));
#430=DIRECTION('',(-1.83697019872103E-016,0.,-1.));
#431=DIRECTION('',(-1.,0.,1.48466002420109E-016));
#432=DIRECTION('',(1.83697019872103E-016,0.,1.));
#433=DIRECTION('',(1.,0.,-1.83869295208431E-016));
#434=DIRECTION('',(-1.83697019872103E-016,0.,-1.));
#435=DIRECTION('',(-1.,0.,2.19520123504727E-016));
#436=DIRECTION('',(1.83697019872103E-016,0.,1.));
#437=DIRECTION('',(1.,0.,0.));
#438=DIRECTION('',(-1.83697019872103E-016,0.,-1.));
#439=DIRECTION('',(-1.,0.,1.73472347597681E-016));
#440=DIRECTION('',(1.83697019872103E-016,0.,1.));
#441=DIRECTION('',(1.,0.,-1.90819582357449E-016));
#442=DIRECTION('',(9.76971003005749E-017,0.,1.));
#443=DIRECTION('',(1.,0.,0.));
#444=DIRECTION('',(-9.76971003005749E-017,0.,-1.));
#445=DIRECTION('',(1.,0.,0.));
#446=DIRECTION('',(9.76971003005749E-017,0.,1.));
#447=DIRECTION('',(1.,0.,0.));
#448=DIRECTION('',(9.76971003005749E-017,0.,1.));
#449=DIRECTION('',(1.,0.,-4.83306043058215E-017));
#450=DIRECTION('',(-9.76971003005749E-017,0.,-1.));
#451=DIRECTION('',(1.,0.,0.));
#452=CARTESIAN_POINT('',(0.,0.,0.));
#453=CARTESIAN_POINT('',(0.,0.,0.));
#454=CARTESIAN_POINT('',(0.,0.,0.));
#455=CARTESIAN_POINT('',(0.,0.,-5.));
#456=CARTESIAN_POINT('',(1.19305812500768E-014,0.,25.6698729810778));
#457=CARTESIAN_POINT('',(2.50000000000001,0.,25.6698729810778));
#458=CARTESIAN_POINT('',(-8.38941956456145E-016,0.,-4.56698729810777));
#459=CARTESIAN_POINT('',(2.5,0.,-4.56698729810777));
#460=CARTESIAN_POINT('',(-9.36854801347724E-016,0.,-5.1));
#461=CARTESIAN_POINT('',(-2.15214445747117E-017,0.,-0.117157287525382));
#462=CARTESIAN_POINT('',(11.6171572875254,0.,-0.117157287525384));
#463=CARTESIAN_POINT('',(-5.97494124073341E-032,0.,-3.25260651745652E-016));
#464=CARTESIAN_POINT('',(11.3343145750508,0.,-2.40734046147542E-015));
#465=CARTESIAN_POINT('',(-7.34788079488413E-017,0.,-0.4));
#466=CARTESIAN_POINT('',(-9.18485099360513E-016,0.,-5.));
#467=CARTESIAN_POINT('',(-11.5488897061572,0.,-5.));
#468=CARTESIAN_POINT('',(-9.18485099360513E-016,0.,-5.));
#469=CARTESIAN_POINT('',(2.75,0.,-5.));
#470=CARTESIAN_POINT('',(12.5,0.,-5.));
#471=CARTESIAN_POINT('',(-9.18485099360513E-016,0.,-5.));
#472=CARTESIAN_POINT('',(3.9068588854409E-016,0.,2.12679491924311));
#473=CARTESIAN_POINT('',(10.,0.,2.12679491924311));
#474=CARTESIAN_POINT('',(8.99623182692037E-015,0.,48.9732050807569));
#475=CARTESIAN_POINT('',(-9.99999999999999,0.,48.9732050807569));
#476=CARTESIAN_POINT('',(1.10218211923262E-014,0.,60.));
#477=CARTESIAN_POINT('',(1.43075641097702E-014,0.,50.));
#478=CARTESIAN_POINT('',(7.53867513459482,0.,50.));
#479=CARTESIAN_POINT('',(1.42587155596199E-014,0.,49.5));
#480=CARTESIAN_POINT('',(7.25000000000001,0.,49.5));
#481=CARTESIAN_POINT('',(1.42587155596199E-014,0.,49.5));
#482=CARTESIAN_POINT('',(2.87850896839835E-016,0.,1.56698729810777));
#483=CARTESIAN_POINT('',(9.85,0.,1.56698729810776));
#484=CARTESIAN_POINT('',(4.59242549680258E-016,0.,2.5));
#485=CARTESIAN_POINT('',(1.23536221037587E-014,0.,30.));
#486=CARTESIAN_POINT('',(5.00000000000001,0.,30.));
#487=CARTESIAN_POINT('',(1.19305812500768E-014,0.,25.6698729810778));
#488=CARTESIAN_POINT('',(-2.14132938671522E-016,0.,-1.16568542494924));
#489=CARTESIAN_POINT('',(12.5,0.,-1.16568542494924));
#490=CARTESIAN_POINT('',(-7.13537011682598E-016,0.,-3.88431457505076));
#491=CARTESIAN_POINT('',(-12.5,0.,-3.88431457505076));
#492=CARTESIAN_POINT('',(-9.18485099360516E-016,0.,-5.));
#493=CARTESIAN_POINT('',(-7.65494375056728E-016,0.,-4.16715728752538));
#494=CARTESIAN_POINT('',(-12.3828427124746,0.,-4.16715728752538));
#495=CARTESIAN_POINT('',(-9.15333356773013E-016,0.,-4.98284271247462));
#496=CARTESIAN_POINT('',(-11.5671572875254,0.,-4.98284271247462));
#497=CARTESIAN_POINT('',(-7.43972930482016E-016,0.,-4.05));
#498=CARTESIAN_POINT('',(-1.59331766419558E-031,0.,-8.67361737988404E-016));
#499=CARTESIAN_POINT('',(10.25,0.,-2.75025619167746E-015));
#500=CARTESIAN_POINT('',(10.25,0.,-2.23526015974685E-015));
#501=CARTESIAN_POINT('',(7.34788079488411E-017,0.,0.4));
#502=CARTESIAN_POINT('',(9.85,0.,0.399999999999998));
#503=CARTESIAN_POINT('',(7.34788079488411E-017,0.,0.4));
#504=CARTESIAN_POINT('',(-9.18485099360516E-016,0.,-5.));
#505=CARTESIAN_POINT('',(9.18485099360515E-015,0.,50.));
#506=CARTESIAN_POINT('',(9.17623956929661,0.,50.));
#507=CARTESIAN_POINT('',(9.18485099360515E-015,0.,50.));
#508=CARTESIAN_POINT('',(9.14811158963073E-015,0.,49.8));
#509=CARTESIAN_POINT('',(9.52264973081039,0.,49.8));
#510=CARTESIAN_POINT('',(9.18485099360515E-015,0.,50.));
#511=CARTESIAN_POINT('',(-8.63375993398883E-016,0.,-4.7));
#512=CARTESIAN_POINT('',(-1.62175575297392E-016,0.,-0.882842712474621));
#513=CARTESIAN_POINT('',(12.3828427124746,0.,-0.882842712474623));
#514=CARTESIAN_POINT('',(0.,0.,0.));
#515=CARTESIAN_POINT('',(9.11137218565631E-015,0.,49.6));
#516=CARTESIAN_POINT('',(-7.13537011682598E-016,0.,-3.88431457505076));
#517=CARTESIAN_POINT('',(-2.14132938671522E-016,0.,-1.16568542494924));
#518=CARTESIAN_POINT('',(1.31107746310881E-014,0.,37.75));
#519=CARTESIAN_POINT('',(5.00000000000001,0.,37.75));
#520=CARTESIAN_POINT('',(1.43075641097702E-014,0.,50.));
#521=CARTESIAN_POINT('',(1.33305931067644E-014,0.,40.));
#522=CARTESIAN_POINT('',(7.25000000000001,0.,40.));
#523=CARTESIAN_POINT('',(1.31107746310881E-014,0.,37.75));
#524=CARTESIAN_POINT('',(1.43075641097702E-014,0.,50.));
#525=MECHANICAL_DESIGN_GEOMETRIC_PRESENTATION_REPRESENTATION('',(#286,#287,
#288,#289),#526);
#526=(
GEOMETRIC_REPRESENTATION_CONTEXT(3)
GLOBAL_UNCERTAINTY_ASSIGNED_CONTEXT((#527))
GLOBAL_UNIT_ASSIGNED_CONTEXT((#533,#529,#528))
REPRESENTATION_CONTEXT('1522912365444','TOP_LEVEL_ASSEMBLY_PART')
);
#527=UNCERTAINTY_MEASURE_WITH_UNIT(LENGTH_MEASURE(2.E-005),#533,
'DISTANCE_ACCURACY_VALUE','Maximum Tolerance applied to model');
#528=(
NAMED_UNIT(*)
SI_UNIT($,.STERADIAN.)
SOLID_ANGLE_UNIT()
);
#529=(
CONVERSION_BASED_UNIT('DEGREE',#531)
NAMED_UNIT(#530)
PLANE_ANGLE_UNIT()
);
#530=DIMENSIONAL_EXPONENTS(0.,0.,0.,0.,0.,0.,0.);
#531=PLANE_ANGLE_MEASURE_WITH_UNIT(PLANE_ANGLE_MEASURE(0.0174532925),#532);
#532=(
NAMED_UNIT(*)
PLANE_ANGLE_UNIT()
SI_UNIT($,.RADIAN.)
);
#533=(
LENGTH_UNIT()
NAMED_UNIT(*)
SI_UNIT(.MILLI.,.METRE.)
);
ENDSEC;
END-ISO-10303-21;
