ISO-10303-21;
HEADER;
/* Generated by software containing ST-Developer
 * from STEP Tools, Inc. (www.steptools.com) 
 */
/* OPTION: using custom schema-name function */

FILE_DESCRIPTION(
/* description */ (''),
/* implementation_level */ '2;1');

FILE_NAME(
/* name */ '1520936392081.stp',
/* time_stamp */ '2018-03-13T11:19:57+01:00',
/* author */ (''),
/* organization */ ('SMS'),
/* preprocessor_version */ 'ST-DEVELOPER v15',
/* originating_system */ 'SIEMENS PLM Software NX 8.5',
/* authorisation */ '');

FILE_SCHEMA (('AUTOMOTIVE_DESIGN { 1 0 10303 214 3 1 1 1 }'));
ENDSEC;

DATA;
#10=CONSTRUCTIVE_GEOMETRY_REPRESENTATION_RELATIONSHIP(
'supplemental geometry','',#26,#11);
#11=CONSTRUCTIVE_GEOMETRY_REPRESENTATION('supplemental geometry',(#355,
#356,#357),#622);
#12=GEOMETRICALLY_BOUNDED_WIREFRAME_SHAPE_REPRESENTATION(
'201513349mod000_00-None',(#27),#622);
#13=SHAPE_REPRESENTATION_RELATIONSHIP('None',
'relationship between 201513349mod000_00-None and 201513349mod000_00-N
one',#26,#15);
#14=SHAPE_REPRESENTATION_RELATIONSHIP('None',
'relationship between 201513349mod000_00-None and 201513349mod000_00-N
one',#26,#12);
#15=ADVANCED_BREP_SHAPE_REPRESENTATION('201513349mod000_00-None',(#33),
#622);
#16=SHAPE_DEFINITION_REPRESENTATION(#17,#26);
#17=PRODUCT_DEFINITION_SHAPE('','',#18);
#18=PRODUCT_DEFINITION(' ','',#20,#19);
#19=PRODUCT_DEFINITION_CONTEXT('part definition',#25,'design');
#20=PRODUCT_DEFINITION_FORMATION_WITH_SPECIFIED_SOURCE(' ',' ',#22,
 .NOT_KNOWN.);
#21=PRODUCT_RELATED_PRODUCT_CATEGORY('part','',(#22));
#22=PRODUCT('201513349mod000_00','201513349mod000_00',' ',(#23));
#23=PRODUCT_CONTEXT(' ',#25,'mechanical');
#24=APPLICATION_PROTOCOL_DEFINITION('international standard',
'automotive_design',2010,#25);
#25=APPLICATION_CONTEXT(
'core data for automotive mechanical design processes');
#26=SHAPE_REPRESENTATION('201513349mod000_00-None',(#354),#622);
#27=GEOMETRIC_CURVE_SET('None',(#523,#524,#525));
#28=SURFACE_STYLE_USAGE(.BOTH.,#29);
#29=SURFACE_SIDE_STYLE('',(#30));
#30=SURFACE_STYLE_FILL_AREA(#31);
#31=FILL_AREA_STYLE('',(#32));
#32=FILL_AREA_STYLE_COLOUR('',#353);
#33=MANIFOLD_SOLID_BREP('NOCUT',#34);
#34=CLOSED_SHELL('',(#75,#76,#77,#78,#79,#80,#81,#82,#83,#84,#85,#86,#87,
#88,#89,#90,#91,#92,#93,#94,#95,#96));
#35=B_SPLINE_CURVE_WITH_KNOTS('',3,(#579,#580,#581,#582),.UNSPECIFIED.,
 .F.,.F.,(4,4),(0.,1.),.UNSPECIFIED.);
#36=B_SPLINE_CURVE_WITH_KNOTS('',3,(#587,#588,#589,#590),.UNSPECIFIED.,
 .F.,.F.,(4,4),(0.,1.),.UNSPECIFIED.);
#37=FACE_OUTER_BOUND('',#141,.T.);
#38=FACE_OUTER_BOUND('',#142,.T.);
#39=FACE_OUTER_BOUND('',#143,.T.);
#40=FACE_OUTER_BOUND('',#144,.T.);
#41=FACE_OUTER_BOUND('',#145,.T.);
#42=FACE_OUTER_BOUND('',#146,.T.);
#43=FACE_OUTER_BOUND('',#147,.T.);
#44=FACE_OUTER_BOUND('',#150,.T.);
#45=FACE_OUTER_BOUND('',#151,.T.);
#46=FACE_OUTER_BOUND('',#154,.T.);
#47=LINE('',#555,#53);
#48=LINE('',#559,#54);
#49=LINE('',#565,#55);
#50=LINE('',#571,#56);
#51=LINE('',#577,#57);
#52=LINE('',#594,#58);
#53=VECTOR('',#448,1.);
#54=VECTOR('',#451,1.);
#55=VECTOR('',#458,1.);
#56=VECTOR('',#465,1.);
#57=VECTOR('',#472,1.);
#58=VECTOR('',#479,1.);
#59=TOROIDAL_SURFACE('',#372,10.75,1.);
#60=CONICAL_SURFACE('',#364,20.,45.);
#61=CONICAL_SURFACE('',#367,11.,30.);
#62=CONICAL_SURFACE('',#375,20.,1.43916666666667);
#63=CONICAL_SURFACE('',#378,8.5,1.43916666666667);
#64=CONICAL_SURFACE('',#381,20.,1.43916666666667);
#65=CONICAL_SURFACE('',#384,8.5,1.43916666666667);
#66=CONICAL_SURFACE('',#389,20.,1.43916666666667);
#67=CONICAL_SURFACE('',#392,8.5,1.43916666666667);
#68=CONICAL_SURFACE('',#404,14.,30.);
#69=CONICAL_SURFACE('',#407,14.,44.9999999999999);
#70=CYLINDRICAL_SURFACE('',#363,20.);
#71=CYLINDRICAL_SURFACE('',#369,9.75);
#72=CYLINDRICAL_SURFACE('',#371,11.);
#73=CYLINDRICAL_SURFACE('',#398,4.);
#74=CYLINDRICAL_SURFACE('',#406,14.);
#75=ADVANCED_FACE('AR_BY_CN_IB_SU_1',(#103,#104),#97,.T.);
#76=ADVANCED_FACE('CU_E_FP_SU_1',(#105,#106),#70,.T.);
#77=ADVANCED_FACE('AR_BY_CN_IB_SU_2',(#107,#108),#60,.T.);
#78=ADVANCED_FACE('CU_FA_TB_SU_3',(#109,#110),#61,.T.);
#79=ADVANCED_FACE('CU_FA_TB_SU_4',(#111,#112),#71,.T.);
#80=ADVANCED_FACE('DD1TH1',(#113,#114),#72,.T.);
#81=ADVANCED_FACE('',(#115,#116),#59,.F.);
#82=ADVANCED_FACE('',(#37),#62,.T.);
#83=ADVANCED_FACE('',(#38),#63,.T.);
#84=ADVANCED_FACE('',(#39),#64,.T.);
#85=ADVANCED_FACE('',(#40),#65,.T.);
#86=ADVANCED_FACE('',(#41),#66,.T.);
#87=ADVANCED_FACE('',(#42),#67,.T.);
#88=ADVANCED_FACE('',(#43),#98,.F.);
#89=ADVANCED_FACE('',(#117,#118),#99,.T.);
#90=ADVANCED_FACE('',(#44),#100,.F.);
#91=ADVANCED_FACE('',(#45),#73,.F.);
#92=ADVANCED_FACE('',(#119,#120),#101,.T.);
#93=ADVANCED_FACE('',(#46),#102,.T.);
#94=ADVANCED_FACE('',(#121,#122),#68,.T.);
#95=ADVANCED_FACE('',(#123,#124),#74,.T.);
#96=ADVANCED_FACE('',(#125,#126),#69,.T.);
#97=PLANE('',#360);
#98=PLANE('',#394);
#99=PLANE('',#395);
#100=PLANE('',#397);
#101=PLANE('',#400);
#102=PLANE('',#402);
#103=FACE_BOUND('',#127,.T.);
#104=FACE_BOUND('',#128,.T.);
#105=FACE_BOUND('',#129,.T.);
#106=FACE_BOUND('',#130,.T.);
#107=FACE_BOUND('',#131,.T.);
#108=FACE_BOUND('',#132,.T.);
#109=FACE_BOUND('',#133,.T.);
#110=FACE_BOUND('',#134,.T.);
#111=FACE_BOUND('',#135,.T.);
#112=FACE_BOUND('',#136,.T.);
#113=FACE_BOUND('',#137,.T.);
#114=FACE_BOUND('',#138,.T.);
#115=FACE_BOUND('',#139,.T.);
#116=FACE_BOUND('',#140,.T.);
#117=FACE_BOUND('',#148,.T.);
#118=FACE_BOUND('',#149,.T.);
#119=FACE_BOUND('',#152,.T.);
#120=FACE_BOUND('',#153,.T.);
#121=FACE_BOUND('',#155,.T.);
#122=FACE_BOUND('',#156,.T.);
#123=FACE_BOUND('',#157,.T.);
#124=FACE_BOUND('',#158,.T.);
#125=FACE_BOUND('',#159,.T.);
#126=FACE_BOUND('',#160,.T.);
#127=EDGE_LOOP('',(#161));
#128=EDGE_LOOP('',(#162));
#129=EDGE_LOOP('',(#163));
#130=EDGE_LOOP('',(#164));
#131=EDGE_LOOP('',(#165));
#132=EDGE_LOOP('',(#166));
#133=EDGE_LOOP('',(#167));
#134=EDGE_LOOP('',(#168));
#135=EDGE_LOOP('',(#169));
#136=EDGE_LOOP('',(#170));
#137=EDGE_LOOP('',(#171));
#138=EDGE_LOOP('',(#172));
#139=EDGE_LOOP('',(#173));
#140=EDGE_LOOP('',(#174));
#141=EDGE_LOOP('',(#175,#176,#177,#178));
#142=EDGE_LOOP('',(#179,#180,#181,#182));
#143=EDGE_LOOP('',(#183,#184,#185,#186));
#144=EDGE_LOOP('',(#187,#188,#189,#190));
#145=EDGE_LOOP('',(#191,#192,#193,#194,#195,#196,#197,#198));
#146=EDGE_LOOP('',(#199,#200,#201,#202));
#147=EDGE_LOOP('',(#203,#204,#205,#206,#207,#208,#209,#210));
#148=EDGE_LOOP('',(#211,#212,#213,#214,#215,#216));
#149=EDGE_LOOP('',(#217));
#150=EDGE_LOOP('',(#218,#219));
#151=EDGE_LOOP('',(#220,#221,#222,#223));
#152=EDGE_LOOP('',(#224));
#153=EDGE_LOOP('',(#225));
#154=EDGE_LOOP('',(#226));
#155=EDGE_LOOP('',(#227));
#156=EDGE_LOOP('',(#228));
#157=EDGE_LOOP('',(#229));
#158=EDGE_LOOP('',(#230));
#159=EDGE_LOOP('',(#231));
#160=EDGE_LOOP('',(#232));
#161=ORIENTED_EDGE('',*,*,#261,.T.);
#162=ORIENTED_EDGE('',*,*,#262,.F.);
#163=ORIENTED_EDGE('',*,*,#263,.T.);
#164=ORIENTED_EDGE('',*,*,#264,.T.);
#165=ORIENTED_EDGE('',*,*,#262,.T.);
#166=ORIENTED_EDGE('',*,*,#263,.F.);
#167=ORIENTED_EDGE('',*,*,#265,.F.);
#168=ORIENTED_EDGE('',*,*,#266,.T.);
#169=ORIENTED_EDGE('',*,*,#267,.T.);
#170=ORIENTED_EDGE('',*,*,#265,.T.);
#171=ORIENTED_EDGE('',*,*,#268,.T.);
#172=ORIENTED_EDGE('',*,*,#266,.F.);
#173=ORIENTED_EDGE('',*,*,#267,.F.);
#174=ORIENTED_EDGE('',*,*,#261,.F.);
#175=ORIENTED_EDGE('',*,*,#269,.F.);
#176=ORIENTED_EDGE('',*,*,#270,.F.);
#177=ORIENTED_EDGE('',*,*,#271,.T.);
#178=ORIENTED_EDGE('',*,*,#272,.T.);
#179=ORIENTED_EDGE('',*,*,#273,.F.);
#180=ORIENTED_EDGE('',*,*,#272,.F.);
#181=ORIENTED_EDGE('',*,*,#274,.T.);
#182=ORIENTED_EDGE('',*,*,#275,.T.);
#183=ORIENTED_EDGE('',*,*,#276,.F.);
#184=ORIENTED_EDGE('',*,*,#275,.F.);
#185=ORIENTED_EDGE('',*,*,#277,.T.);
#186=ORIENTED_EDGE('',*,*,#278,.T.);
#187=ORIENTED_EDGE('',*,*,#279,.F.);
#188=ORIENTED_EDGE('',*,*,#278,.F.);
#189=ORIENTED_EDGE('',*,*,#280,.T.);
#190=ORIENTED_EDGE('',*,*,#281,.T.);
#191=ORIENTED_EDGE('',*,*,#282,.F.);
#192=ORIENTED_EDGE('',*,*,#283,.F.);
#193=ORIENTED_EDGE('',*,*,#284,.F.);
#194=ORIENTED_EDGE('',*,*,#285,.T.);
#195=ORIENTED_EDGE('',*,*,#286,.T.);
#196=ORIENTED_EDGE('',*,*,#287,.F.);
#197=ORIENTED_EDGE('',*,*,#281,.F.);
#198=ORIENTED_EDGE('',*,*,#288,.T.);
#199=ORIENTED_EDGE('',*,*,#289,.F.);
#200=ORIENTED_EDGE('',*,*,#286,.F.);
#201=ORIENTED_EDGE('',*,*,#290,.T.);
#202=ORIENTED_EDGE('',*,*,#270,.T.);
#203=ORIENTED_EDGE('',*,*,#285,.F.);
#204=ORIENTED_EDGE('',*,*,#291,.T.);
#205=ORIENTED_EDGE('',*,*,#288,.F.);
#206=ORIENTED_EDGE('',*,*,#280,.F.);
#207=ORIENTED_EDGE('',*,*,#277,.F.);
#208=ORIENTED_EDGE('',*,*,#274,.F.);
#209=ORIENTED_EDGE('',*,*,#271,.F.);
#210=ORIENTED_EDGE('',*,*,#290,.F.);
#211=ORIENTED_EDGE('',*,*,#289,.T.);
#212=ORIENTED_EDGE('',*,*,#269,.T.);
#213=ORIENTED_EDGE('',*,*,#273,.T.);
#214=ORIENTED_EDGE('',*,*,#276,.T.);
#215=ORIENTED_EDGE('',*,*,#279,.T.);
#216=ORIENTED_EDGE('',*,*,#287,.T.);
#217=ORIENTED_EDGE('',*,*,#264,.F.);
#218=ORIENTED_EDGE('',*,*,#283,.T.);
#219=ORIENTED_EDGE('',*,*,#292,.F.);
#220=ORIENTED_EDGE('',*,*,#282,.T.);
#221=ORIENTED_EDGE('',*,*,#291,.F.);
#222=ORIENTED_EDGE('',*,*,#284,.T.);
#223=ORIENTED_EDGE('',*,*,#292,.T.);
#224=ORIENTED_EDGE('',*,*,#293,.T.);
#225=ORIENTED_EDGE('',*,*,#268,.F.);
#226=ORIENTED_EDGE('',*,*,#294,.T.);
#227=ORIENTED_EDGE('',*,*,#295,.F.);
#228=ORIENTED_EDGE('',*,*,#294,.F.);
#229=ORIENTED_EDGE('',*,*,#295,.T.);
#230=ORIENTED_EDGE('',*,*,#296,.T.);
#231=ORIENTED_EDGE('',*,*,#293,.F.);
#232=ORIENTED_EDGE('',*,*,#296,.F.);
#233=VERTEX_POINT('',#530);
#234=VERTEX_POINT('',#532);
#235=VERTEX_POINT('',#535);
#236=VERTEX_POINT('',#537);
#237=VERTEX_POINT('',#541);
#238=VERTEX_POINT('',#543);
#239=VERTEX_POINT('',#546);
#240=VERTEX_POINT('',#549);
#241=VERTEX_POINT('',#553);
#242=VERTEX_POINT('',#554);
#243=VERTEX_POINT('',#556);
#244=VERTEX_POINT('',#558);
#245=VERTEX_POINT('',#562);
#246=VERTEX_POINT('',#564);
#247=VERTEX_POINT('',#568);
#248=VERTEX_POINT('',#570);
#249=VERTEX_POINT('',#574);
#250=VERTEX_POINT('',#576);
#251=VERTEX_POINT('',#583);
#252=VERTEX_POINT('',#584);
#253=VERTEX_POINT('',#586);
#254=VERTEX_POINT('',#591);
#255=VERTEX_POINT('',#593);
#256=VERTEX_POINT('',#595);
#257=VERTEX_POINT('',#609);
#258=VERTEX_POINT('',#612);
#259=VERTEX_POINT('',#615);
#260=VERTEX_POINT('',#618);
#261=EDGE_CURVE('',#233,#233,#297,.T.);
#262=EDGE_CURVE('',#234,#234,#298,.T.);
#263=EDGE_CURVE('',#235,#235,#299,.T.);
#264=EDGE_CURVE('',#236,#236,#300,.T.);
#265=EDGE_CURVE('',#237,#237,#301,.T.);
#266=EDGE_CURVE('',#238,#238,#302,.T.);
#267=EDGE_CURVE('',#239,#239,#303,.T.);
#268=EDGE_CURVE('',#240,#240,#304,.T.);
#269=EDGE_CURVE('',#241,#242,#305,.T.);
#270=EDGE_CURVE('',#243,#241,#47,.T.);
#271=EDGE_CURVE('',#243,#244,#306,.T.);
#272=EDGE_CURVE('',#244,#242,#48,.T.);
#273=EDGE_CURVE('',#242,#245,#307,.T.);
#274=EDGE_CURVE('',#244,#246,#308,.T.);
#275=EDGE_CURVE('',#246,#245,#49,.T.);
#276=EDGE_CURVE('',#245,#247,#309,.T.);
#277=EDGE_CURVE('',#246,#248,#310,.T.);
#278=EDGE_CURVE('',#248,#247,#50,.T.);
#279=EDGE_CURVE('',#247,#249,#311,.T.);
#280=EDGE_CURVE('',#248,#250,#312,.T.);
#281=EDGE_CURVE('',#250,#249,#51,.T.);
#282=EDGE_CURVE('',#251,#252,#35,.T.);
#283=EDGE_CURVE('',#253,#251,#313,.T.);
#284=EDGE_CURVE('',#254,#253,#36,.T.);
#285=EDGE_CURVE('',#254,#255,#314,.T.);
#286=EDGE_CURVE('',#255,#256,#52,.T.);
#287=EDGE_CURVE('',#249,#256,#315,.T.);
#288=EDGE_CURVE('',#250,#252,#316,.T.);
#289=EDGE_CURVE('',#256,#241,#317,.T.);
#290=EDGE_CURVE('',#255,#243,#318,.T.);
#291=EDGE_CURVE('',#254,#252,#319,.T.);
#292=EDGE_CURVE('',#253,#251,#320,.T.);
#293=EDGE_CURVE('',#257,#257,#321,.T.);
#294=EDGE_CURVE('',#258,#258,#322,.T.);
#295=EDGE_CURVE('',#259,#259,#323,.T.);
#296=EDGE_CURVE('',#260,#260,#324,.T.);
#297=CIRCLE('',#358,10.75);
#298=CIRCLE('',#359,19.);
#299=CIRCLE('',#361,20.);
#300=CIRCLE('',#362,20.);
#301=CIRCLE('',#365,9.75);
#302=CIRCLE('',#366,11.);
#303=CIRCLE('',#368,9.75);
#304=CIRCLE('',#370,11.);
#305=CIRCLE('',#373,20.);
#306=CIRCLE('',#374,19.3970364630094);
#307=CIRCLE('',#376,8.5);
#308=CIRCLE('',#377,7.89703646300946);
#309=CIRCLE('',#379,20.);
#310=CIRCLE('',#380,19.3970364630094);
#311=CIRCLE('',#382,8.5);
#312=CIRCLE('',#383,7.89703646300946);
#313=CIRCLE('',#385,19.5025550819828);
#314=CIRCLE('',#386,19.3970364630094);
#315=CIRCLE('',#387,20.);
#316=CIRCLE('',#388,19.3970364630094);
#317=CIRCLE('',#390,8.5);
#318=CIRCLE('',#391,7.89703646300946);
#319=CIRCLE('',#393,4.);
#320=CIRCLE('',#396,4.);
#321=CIRCLE('',#399,13.5);
#322=CIRCLE('',#401,13.4226497308104);
#323=CIRCLE('',#403,14.);
#324=CIRCLE('',#405,14.);
#325=CURVE_STYLE('',#328,POSITIVE_LENGTH_MEASURE(0.18),#352);
#326=CURVE_STYLE('',#329,POSITIVE_LENGTH_MEASURE(0.18),#352);
#327=CURVE_STYLE('',#330,POSITIVE_LENGTH_MEASURE(0.18),#352);
#328=DRAUGHTING_PRE_DEFINED_CURVE_FONT('continuous');
#329=DRAUGHTING_PRE_DEFINED_CURVE_FONT('continuous');
#330=DRAUGHTING_PRE_DEFINED_CURVE_FONT('continuous');
#331=PRESENTATION_LAYER_ASSIGNMENT('1','Layer 1',(#523,#524,#525,#355,#356,
#357,#33));
#332=STYLED_ITEM('',(#339),#523);
#333=STYLED_ITEM('',(#340),#524);
#334=STYLED_ITEM('',(#341),#525);
#335=STYLED_ITEM('',(#342),#355);
#336=STYLED_ITEM('',(#343),#356);
#337=STYLED_ITEM('',(#344),#357);
#338=STYLED_ITEM('',(#345),#33);
#339=PRESENTATION_STYLE_ASSIGNMENT((#346));
#340=PRESENTATION_STYLE_ASSIGNMENT((#347));
#341=PRESENTATION_STYLE_ASSIGNMENT((#348));
#342=PRESENTATION_STYLE_ASSIGNMENT((#325));
#343=PRESENTATION_STYLE_ASSIGNMENT((#326));
#344=PRESENTATION_STYLE_ASSIGNMENT((#327));
#345=PRESENTATION_STYLE_ASSIGNMENT((#28));
#346=POINT_STYLE('',#349,POSITIVE_LENGTH_MEASURE(3.),#352);
#347=POINT_STYLE('',#350,POSITIVE_LENGTH_MEASURE(3.),#352);
#348=POINT_STYLE('',#351,POSITIVE_LENGTH_MEASURE(3.),#352);
#349=PRE_DEFINED_POINT_MARKER_SYMBOL('plus');
#350=PRE_DEFINED_POINT_MARKER_SYMBOL('plus');
#351=PRE_DEFINED_POINT_MARKER_SYMBOL('plus');
#352=COLOUR_RGB('Medium Maroon',0.6,0.4,0.4);
#353=COLOUR_RGB('Medium Gray',0.501960784313725,0.501960784313725,0.501960784313725);
#354=AXIS2_PLACEMENT_3D('',#522,#408,#409);
#355=AXIS2_PLACEMENT_3D('PCS',#526,#410,#411);
#356=AXIS2_PLACEMENT_3D('MCS',#527,#412,#413);
#357=AXIS2_PLACEMENT_3D('CSW',#528,#414,#415);
#358=AXIS2_PLACEMENT_3D('',#529,#416,#417);
#359=AXIS2_PLACEMENT_3D('',#531,#418,#419);
#360=AXIS2_PLACEMENT_3D('',#533,#420,#421);
#361=AXIS2_PLACEMENT_3D('',#534,#422,#423);
#362=AXIS2_PLACEMENT_3D('',#536,#424,#425);
#363=AXIS2_PLACEMENT_3D('',#538,#426,#427);
#364=AXIS2_PLACEMENT_3D('',#539,#428,#429);
#365=AXIS2_PLACEMENT_3D('',#540,#430,#431);
#366=AXIS2_PLACEMENT_3D('',#542,#432,#433);
#367=AXIS2_PLACEMENT_3D('',#544,#434,#435);
#368=AXIS2_PLACEMENT_3D('',#545,#436,#437);
#369=AXIS2_PLACEMENT_3D('',#547,#438,#439);
#370=AXIS2_PLACEMENT_3D('',#548,#440,#441);
#371=AXIS2_PLACEMENT_3D('',#550,#442,#443);
#372=AXIS2_PLACEMENT_3D('',#551,#444,#445);
#373=AXIS2_PLACEMENT_3D('',#552,#446,#447);
#374=AXIS2_PLACEMENT_3D('',#557,#449,#450);
#375=AXIS2_PLACEMENT_3D('',#560,#452,#453);
#376=AXIS2_PLACEMENT_3D('',#561,#454,#455);
#377=AXIS2_PLACEMENT_3D('',#563,#456,#457);
#378=AXIS2_PLACEMENT_3D('',#566,#459,#460);
#379=AXIS2_PLACEMENT_3D('',#567,#461,#462);
#380=AXIS2_PLACEMENT_3D('',#569,#463,#464);
#381=AXIS2_PLACEMENT_3D('',#572,#466,#467);
#382=AXIS2_PLACEMENT_3D('',#573,#468,#469);
#383=AXIS2_PLACEMENT_3D('',#575,#470,#471);
#384=AXIS2_PLACEMENT_3D('',#578,#473,#474);
#385=AXIS2_PLACEMENT_3D('',#585,#475,#476);
#386=AXIS2_PLACEMENT_3D('',#592,#477,#478);
#387=AXIS2_PLACEMENT_3D('',#596,#480,#481);
#388=AXIS2_PLACEMENT_3D('',#597,#482,#483);
#389=AXIS2_PLACEMENT_3D('',#598,#484,#485);
#390=AXIS2_PLACEMENT_3D('',#599,#486,#487);
#391=AXIS2_PLACEMENT_3D('',#600,#488,#489);
#392=AXIS2_PLACEMENT_3D('',#601,#490,#491);
#393=AXIS2_PLACEMENT_3D('',#602,#492,#493);
#394=AXIS2_PLACEMENT_3D('',#603,#494,#495);
#395=AXIS2_PLACEMENT_3D('',#604,#496,#497);
#396=AXIS2_PLACEMENT_3D('',#605,#498,#499);
#397=AXIS2_PLACEMENT_3D('',#606,#500,#501);
#398=AXIS2_PLACEMENT_3D('',#607,#502,#503);
#399=AXIS2_PLACEMENT_3D('',#608,#504,#505);
#400=AXIS2_PLACEMENT_3D('',#610,#506,#507);
#401=AXIS2_PLACEMENT_3D('',#611,#508,#509);
#402=AXIS2_PLACEMENT_3D('',#613,#510,#511);
#403=AXIS2_PLACEMENT_3D('',#614,#512,#513);
#404=AXIS2_PLACEMENT_3D('',#616,#514,#515);
#405=AXIS2_PLACEMENT_3D('',#617,#516,#517);
#406=AXIS2_PLACEMENT_3D('',#619,#518,#519);
#407=AXIS2_PLACEMENT_3D('',#620,#520,#521);
#408=DIRECTION('',(0.,0.,1.));
#409=DIRECTION('',(1.,0.,0.));
#410=DIRECTION('',(0.,0.,1.));
#411=DIRECTION('',(1.,0.,0.));
#412=DIRECTION('',(0.,0.,1.));
#413=DIRECTION('',(1.,0.,0.));
#414=DIRECTION('',(0.,0.,1.));
#415=DIRECTION('',(1.,0.,0.));
#416=DIRECTION('',(0.,0.,1.));
#417=DIRECTION('',(-1.,0.,0.));
#418=DIRECTION('',(0.,0.,1.));
#419=DIRECTION('',(1.,0.,0.));
#420=DIRECTION('',(0.,0.,-1.));
#421=DIRECTION('',(-1.,0.,0.));
#422=DIRECTION('',(0.,0.,1.));
#423=DIRECTION('',(1.,0.,0.));
#424=DIRECTION('',(0.,0.,-1.));
#425=DIRECTION('',(-1.,0.,0.));
#426=DIRECTION('',(0.,0.,1.));
#427=DIRECTION('',(1.,0.,0.));
#428=DIRECTION('',(0.,0.,1.));
#429=DIRECTION('',(1.,0.,-5.95248251560669E-018));
#430=DIRECTION('',(0.,0.,1.));
#431=DIRECTION('',(1.,0.,0.));
#432=DIRECTION('',(0.,0.,1.));
#433=DIRECTION('',(1.,0.,0.));
#434=DIRECTION('',(0.,0.,-1.));
#435=DIRECTION('',(-1.,0.,-2.94845361142803E-017));
#436=DIRECTION('',(0.,0.,-1.));
#437=DIRECTION('',(-1.,0.,0.));
#438=DIRECTION('',(0.,0.,1.));
#439=DIRECTION('',(1.,0.,0.));
#440=DIRECTION('',(0.,0.,1.));
#441=DIRECTION('',(1.,0.,0.));
#442=DIRECTION('',(0.,0.,1.));
#443=DIRECTION('',(1.,0.,0.));
#444=DIRECTION('',(0.,0.,-1.));
#445=DIRECTION('',(-1.,0.,0.));
#446=DIRECTION('',(0.,0.,-1.));
#447=DIRECTION('',(-1.,0.,0.));
#448=DIRECTION('',(-0.0251112246842899,0.000466400186113526,-0.999684554679986));
#449=DIRECTION('',(0.,0.,-1.));
#450=DIRECTION('',(-1.,0.,0.));
#451=DIRECTION('',(-0.0130940393650178,0.0214321549869783,-0.999684554679986));
#452=DIRECTION('',(0.,0.,-1.));
#453=DIRECTION('',(-1.,0.,0.));
#454=DIRECTION('',(0.,0.,-1.));
#455=DIRECTION('',(-1.,0.,0.));
#456=DIRECTION('',(0.,0.,-1.));
#457=DIRECTION('',(-1.,0.,0.));
#458=DIRECTION('',(0.0129628683279737,0.0215117451405068,-0.999684554679986));
#459=DIRECTION('',(0.,0.,-1.));
#460=DIRECTION('',(-1.,0.,0.));
#461=DIRECTION('',(0.,0.,-1.));
#462=DIRECTION('',(-1.,0.,0.));
#463=DIRECTION('',(0.,0.,-1.));
#464=DIRECTION('',(-1.,0.,0.));
#465=DIRECTION('',(0.0251111519354021,0.000470300707684483,-0.999684554679986));
#466=DIRECTION('',(0.,0.,-1.));
#467=DIRECTION('',(-1.,0.,0.));
#468=DIRECTION('',(0.,0.,-1.));
#469=DIRECTION('',(-1.,0.,0.));
#470=DIRECTION('',(0.,0.,-1.));
#471=DIRECTION('',(-1.,0.,0.));
#472=DIRECTION('',(0.0120137709940597,-0.0220558482217481,-0.999684554679986));
#473=DIRECTION('',(0.,0.,-1.));
#474=DIRECTION('',(-1.,0.,0.));
#475=DIRECTION('',(0.,0.,1.));
#476=DIRECTION('',(-1.,0.,0.));
#477=DIRECTION('',(0.,0.,-1.));
#478=DIRECTION('',(-1.,0.,0.));
#479=DIRECTION('',(-0.0121516979326409,-0.0219801585897907,-0.999684554679986));
#480=DIRECTION('',(0.,0.,-1.));
#481=DIRECTION('',(-1.,0.,0.));
#482=DIRECTION('',(0.,0.,-1.));
#483=DIRECTION('',(-1.,0.,0.));
#484=DIRECTION('',(0.,0.,-1.));
#485=DIRECTION('',(-1.,0.,0.));
#486=DIRECTION('',(0.,0.,-1.));
#487=DIRECTION('',(-1.,0.,0.));
#488=DIRECTION('',(0.,0.,-1.));
#489=DIRECTION('',(-1.,0.,0.));
#490=DIRECTION('',(0.,0.,-1.));
#491=DIRECTION('',(-1.,0.,0.));
#492=DIRECTION('',(0.,0.,-1.));
#493=DIRECTION('',(-1.,0.,0.));
#494=DIRECTION('',(0.,0.,-1.));
#495=DIRECTION('',(-1.,0.,0.));
#496=DIRECTION('',(0.,0.,1.));
#497=DIRECTION('',(1.,0.,0.));
#498=DIRECTION('',(0.,0.,-1.));
#499=DIRECTION('',(-1.,0.,0.));
#500=DIRECTION('',(0.,0.,-1.));
#501=DIRECTION('',(-1.,0.,0.));
#502=DIRECTION('',(0.,0.,-1.));
#503=DIRECTION('',(-1.,0.,0.));
#504=DIRECTION('',(0.,0.,1.));
#505=DIRECTION('',(1.,0.,0.));
#506=DIRECTION('',(0.,0.,1.));
#507=DIRECTION('',(1.,0.,0.));
#508=DIRECTION('',(0.,0.,-1.));
#509=DIRECTION('',(-1.,0.,0.));
#510=DIRECTION('',(0.,0.,-1.));
#511=DIRECTION('',(-1.,0.,0.));
#512=DIRECTION('',(0.,0.,1.));
#513=DIRECTION('',(-1.,0.,0.));
#514=DIRECTION('',(0.,0.,1.));
#515=DIRECTION('',(1.,0.,5.86699141391797E-017));
#516=DIRECTION('',(0.,0.,-1.));
#517=DIRECTION('',(1.,0.,0.));
#518=DIRECTION('',(0.,0.,1.));
#519=DIRECTION('',(1.,0.,0.));
#520=DIRECTION('',(0.,0.,-1.));
#521=DIRECTION('',(-1.,0.,-5.81662703976447E-017));
#522=CARTESIAN_POINT('',(0.,0.,0.));
#523=CARTESIAN_POINT('PCS',(0.,0.,0.));
#524=CARTESIAN_POINT('MCS',(0.,0.,0.));
#525=CARTESIAN_POINT('CSW',(0.,0.,-24.));
#526=CARTESIAN_POINT('',(0.,0.,0.));
#527=CARTESIAN_POINT('',(0.,0.,0.));
#528=CARTESIAN_POINT('',(0.,0.,-24.));
#529=CARTESIAN_POINT('',(0.,0.,-8.));
#530=CARTESIAN_POINT('',(-10.75,0.,-8.));
#531=CARTESIAN_POINT('',(0.,0.,-8.));
#532=CARTESIAN_POINT('',(19.,0.,-8.));
#533=CARTESIAN_POINT('',(0.,19.,-8.));
#534=CARTESIAN_POINT('',(0.,0.,-7.));
#535=CARTESIAN_POINT('',(20.,0.,-7.));
#536=CARTESIAN_POINT('',(0.,0.,0.));
#537=CARTESIAN_POINT('',(-20.,0.,0.));
#538=CARTESIAN_POINT('',(0.,0.,26.));
#539=CARTESIAN_POINT('',(0.,0.,-7.));
#540=CARTESIAN_POINT('',(0.,0.,-11.));
#541=CARTESIAN_POINT('',(9.75,0.,-11.));
#542=CARTESIAN_POINT('',(0.,0.,-13.1650635094611));
#543=CARTESIAN_POINT('',(11.,0.,-13.1650635094611));
#544=CARTESIAN_POINT('',(0.,0.,-13.1650635094611));
#545=CARTESIAN_POINT('',(0.,0.,-9.));
#546=CARTESIAN_POINT('',(-9.75,0.,-9.));
#547=CARTESIAN_POINT('',(0.,0.,-24.));
#548=CARTESIAN_POINT('',(0.,0.,-17.1));
#549=CARTESIAN_POINT('',(11.,0.,-17.1));
#550=CARTESIAN_POINT('',(0.,0.,-24.));
#551=CARTESIAN_POINT('',(0.,0.,-9.));
#552=CARTESIAN_POINT('',(5.95545434990689,-3.41355697722574,0.));
#553=CARTESIAN_POINT('',(-14.0410968398797,-3.04215353857228,0.));
#554=CARTESIAN_POINT('',(-4.47158103907076,13.653280251652,0.));
#555=CARTESIAN_POINT('',(-14.0410968398797,-3.04215353857228,-1.30664401377134E-016));
#556=CARTESIAN_POINT('',(-13.4382372782294,-3.05335067512333,24.));
#557=CARTESIAN_POINT('',(5.95545434990689,-3.41355697722574,24.));
#558=CARTESIAN_POINT('',(-4.15722493214758,13.1387462246137,24.));
#559=CARTESIAN_POINT('',(-4.47158103907076,13.653280251652,0.));
#560=CARTESIAN_POINT('',(5.95545434990689,-3.41355697722574,0.));
#561=CARTESIAN_POINT('',(-0.0400909987552516,6.39987442937897,0.));
#562=CARTESIAN_POINT('',(4.34700608320455,13.6802163989199,0.));
#563=CARTESIAN_POINT('',(-0.0400909987552516,6.39987442937897,24.));
#564=CARTESIAN_POINT('',(4.03579907453875,13.1637716054546,24.));
#565=CARTESIAN_POINT('',(4.34700608320455,13.6802163989199,0.));
#566=CARTESIAN_POINT('',(-0.0400909987552516,6.39987442937897,0.));
#567=CARTESIAN_POINT('',(-5.97557528611263,-3.45,0.));
#568=CARTESIAN_POINT('',(14.0209179723354,-3.07549050099937,0.));
#569=CARTESIAN_POINT('',(-5.97557528611263,-3.45,24.));
#570=CARTESIAN_POINT('',(13.4180601572094,-3.08678127960707,24.));
#571=CARTESIAN_POINT('',(14.0209179723354,-3.07549050099937,8.71096009180893E-017));
#572=CARTESIAN_POINT('',(-5.97557528611263,-3.45,0.));
#573=CARTESIAN_POINT('',(5.522408337495,-3.23465703807463,0.));
#574=CARTESIAN_POINT('',(9.58829702338366,-10.6991429007421,0.));
#575=CARTESIAN_POINT('',(5.522408337495,-3.23465703807463,24.));
#576=CARTESIAN_POINT('',(9.29987553831857,-10.1696355127927,24.));
#577=CARTESIAN_POINT('',(9.58829702338366,-10.6991429007421,0.));
#578=CARTESIAN_POINT('',(5.522408337495,-3.23465703807463,0.));
#579=CARTESIAN_POINT('',(3.04217367114143,-12.4028516879828,19.8));
#580=CARTESIAN_POINT('',(3.01536690869658,-12.3714515455493,21.2000133982658));
#581=CARTESIAN_POINT('',(2.98779256558135,-12.3401358046305,22.600014237919));
#582=CARTESIAN_POINT('',(2.95939263898617,-12.30890445946,24.));
#583=CARTESIAN_POINT('',(3.04217367114143,-12.4028516879828,19.8));
#584=CARTESIAN_POINT('',(2.95939263898617,-12.30890445946,24.));
#585=CARTESIAN_POINT('',(0.0215001154103373,6.86435324671078,19.8));
#586=CARTESIAN_POINT('',(-3.03706002783089,-12.39687372812,19.8));
#587=CARTESIAN_POINT('',(-2.95409439161902,-12.303089485095,24.));
#588=CARTESIAN_POINT('',(-2.98255568535731,-12.3342649162952,22.600014237919));
#589=CARTESIAN_POINT('',(-3.01019156319168,-12.365526366739,21.2000133982658));
#590=CARTESIAN_POINT('',(-3.03706002783089,-12.39687372812,19.8));
#591=CARTESIAN_POINT('',(-2.95409439161902,-12.303089485095,24.));
#592=CARTESIAN_POINT('',(0.0215001154103373,6.86435324671078,24.));
#593=CARTESIAN_POINT('',(-9.36339789043387,-10.1111795274681,24.));
#594=CARTESIAN_POINT('',(-9.65513066655617,-10.6388697910471,0.));
#595=CARTESIAN_POINT('',(-9.65513066655617,-10.6388697910471,0.));
#596=CARTESIAN_POINT('',(0.0215001154103373,6.86435324671078,0.));
#597=CARTESIAN_POINT('',(0.0215001154103373,6.86435324671078,24.));
#598=CARTESIAN_POINT('',(0.0215001154103373,6.86435324671078,0.));
#599=CARTESIAN_POINT('',(-5.54256258422041,-3.2,0.));
#600=CARTESIAN_POINT('',(-5.54256258422041,-3.2,24.));
#601=CARTESIAN_POINT('',(-5.54256258422041,-3.2,0.));
#602=CARTESIAN_POINT('',(0.,-15.,24.));
#603=CARTESIAN_POINT('',(2.95768167557582,1.49315872607661,24.));
#604=CARTESIAN_POINT('',(0.,0.,0.));
#605=CARTESIAN_POINT('',(0.,-15.,19.8));
#606=CARTESIAN_POINT('',(0.,-15.,19.8));
#607=CARTESIAN_POINT('',(0.,-15.,24.));
#608=CARTESIAN_POINT('',(0.,0.,-17.1));
#609=CARTESIAN_POINT('',(13.5,0.,-17.1));
#610=CARTESIAN_POINT('',(0.,0.,-17.1));
#611=CARTESIAN_POINT('',(0.,0.,-34.6));
#612=CARTESIAN_POINT('',(-13.4226497308104,0.,-34.6));
#613=CARTESIAN_POINT('',(0.,0.,-34.6));
#614=CARTESIAN_POINT('',(0.,0.,-33.6));
#615=CARTESIAN_POINT('',(-14.,0.,-33.6));
#616=CARTESIAN_POINT('',(0.,0.,-33.6));
#617=CARTESIAN_POINT('',(0.,0.,-17.6));
#618=CARTESIAN_POINT('',(14.,0.,-17.6));
#619=CARTESIAN_POINT('',(0.,0.,-34.6));
#620=CARTESIAN_POINT('',(0.,0.,-17.6));
#621=MECHANICAL_DESIGN_GEOMETRIC_PRESENTATION_REPRESENTATION('',(#332,#333,
#334,#335,#336,#337,#338),#622);
#622=(
GEOMETRIC_REPRESENTATION_CONTEXT(3)
GLOBAL_UNCERTAINTY_ASSIGNED_CONTEXT((#623))
GLOBAL_UNIT_ASSIGNED_CONTEXT((#629,#625,#624))
REPRESENTATION_CONTEXT('1520936392081','TOP_LEVEL_ASSEMBLY_PART')
);
#623=UNCERTAINTY_MEASURE_WITH_UNIT(LENGTH_MEASURE(0.0508),#629,
'DISTANCE_ACCURACY_VALUE','Maximum Tolerance applied to model');
#624=(
NAMED_UNIT(*)
SI_UNIT($,.STERADIAN.)
SOLID_ANGLE_UNIT()
);
#625=(
CONVERSION_BASED_UNIT('DEGREE',#627)
NAMED_UNIT(#626)
PLANE_ANGLE_UNIT()
);
#626=DIMENSIONAL_EXPONENTS(0.,0.,0.,0.,0.,0.,0.);
#627=PLANE_ANGLE_MEASURE_WITH_UNIT(PLANE_ANGLE_MEASURE(0.0174532925),#628);
#628=(
NAMED_UNIT(*)
PLANE_ANGLE_UNIT()
SI_UNIT($,.RADIAN.)
);
#629=(
LENGTH_UNIT()
NAMED_UNIT(*)
SI_UNIT(.MILLI.,.METRE.)
);
ENDSEC;
END-ISO-10303-21;
