ISO-10303-21;
HEADER;
/* Generated by software containing ST-Developer
 * from STEP Tools, Inc. (www.steptools.com) 
 */
/* OPTION: using custom schema-name function */

FILE_DESCRIPTION(
/* description */ (''),
/* implementation_level */ '2;1');

FILE_NAME(
/* name */ '1508153992095.stp',
/* time_stamp */ '2017-10-16T13:39:58+02:00',
/* author */ (''),
/* organization */ ('SMS'),
/* preprocessor_version */ 'ST-DEVELOPER v15',
/* originating_system */ 'SIEMENS PLM Software NX 8.5',
/* authorisation */ '');

FILE_SCHEMA (('AUTOMOTIVE_DESIGN { 1 0 10303 214 3 1 1 1 }'));
ENDSEC;

DATA;
#10=CONSTRUCTIVE_GEOMETRY_REPRESENTATION_RELATIONSHIP(
'supplemental geometry','',#24,#11);
#11=CONSTRUCTIVE_GEOMETRY_REPRESENTATION('supplemental geometry',(#285,
#286,#287),#513);
#12=SHAPE_REPRESENTATION_RELATIONSHIP('None',
'relationship between 201207781MOD000_00-None and 201207781MOD000_00-N
one',#24,#13);
#13=ADVANCED_BREP_SHAPE_REPRESENTATION('201207781MOD000_00-None',(#30),
#513);
#14=SHAPE_DEFINITION_REPRESENTATION(#15,#24);
#15=PRODUCT_DEFINITION_SHAPE('','',#16);
#16=PRODUCT_DEFINITION(' ','',#18,#17);
#17=PRODUCT_DEFINITION_CONTEXT('part definition',#23,'design');
#18=PRODUCT_DEFINITION_FORMATION_WITH_SPECIFIED_SOURCE(' ',' ',#20,
 .NOT_KNOWN.);
#19=PRODUCT_RELATED_PRODUCT_CATEGORY('part','',(#20));
#20=PRODUCT('201207781MOD000_00','201207781MOD000_00',' ',(#21));
#21=PRODUCT_CONTEXT(' ',#23,'mechanical');
#22=APPLICATION_PROTOCOL_DEFINITION('international standard',
'automotive_design',2010,#23);
#23=APPLICATION_CONTEXT(
'core data for automotive mechanical design processes');
#24=SHAPE_REPRESENTATION('201207781MOD000_00-None',(#284),#513);
#25=SURFACE_STYLE_USAGE(.BOTH.,#26);
#26=SURFACE_SIDE_STYLE('',(#27));
#27=SURFACE_STYLE_FILL_AREA(#28);
#28=FILL_AREA_STYLE('',(#29));
#29=FILL_AREA_STYLE_COLOUR('',#280);
#30=MANIFOLD_SOLID_BREP('TURN_SOLID',#31);
#31=CLOSED_SHELL('',(#67,#68,#69,#70,#71,#72,#73,#74,#75,#76,#77,#78,#79,
#80,#81,#82,#83,#84));
#32=VERTEX_LOOP('',#220);
#33=B_SPLINE_CURVE_WITH_KNOTS('',3,(#461,#462,#463,#464),.UNSPECIFIED.,
 .F.,.F.,(4,4),(0.,1.),.UNSPECIFIED.);
#34=B_SPLINE_CURVE_WITH_KNOTS('',3,(#468,#469,#470,#471),.UNSPECIFIED.,
 .F.,.F.,(4,4),(0.,1.),.UNSPECIFIED.);
#35=B_SPLINE_CURVE_WITH_KNOTS('',3,(#486,#487,#488,#489),.UNSPECIFIED.,
 .F.,.F.,(4,4),(0.,1.),.UNSPECIFIED.);
#36=B_SPLINE_CURVE_WITH_KNOTS('',3,(#491,#492,#493,#494),.UNSPECIFIED.,
 .F.,.F.,(4,4),(0.,1.),.UNSPECIFIED.);
#37=CYLINDRICAL_SURFACE('',#298,31.5);
#38=CYLINDRICAL_SURFACE('',#306,41.5);
#39=CYLINDRICAL_SURFACE('',#314,19.996);
#40=CYLINDRICAL_SURFACE('',#319,7.00675);
#41=(
BOUNDED_SURFACE()
B_SPLINE_SURFACE(3,3,((#421,#422,#423,#424,#425,#426,#427),(#428,#429,#430,
#431,#432,#433,#434),(#435,#436,#437,#438,#439,#440,#441),(#442,#443,#444,
#445,#446,#447,#448)),.UNSPECIFIED.,.F.,.T.,.F.)
B_SPLINE_SURFACE_WITH_KNOTS((4,4),(1,3,3,3,1),(0.,1.),(-0.5,0.,0.5,1.,1.5),
 .UNSPECIFIED.)
GEOMETRIC_REPRESENTATION_ITEM()
RATIONAL_B_SPLINE_SURFACE(((1.,0.333333333333333,0.333333333333333,1.,0.333333333333333,
0.333333333333333,1.),(0.989871835341472,0.329957278447157,0.329957278447157,
0.989871835341472,0.329957278447157,0.329957278447157,0.989871835341472),
(0.989871835341472,0.329957278447157,0.329957278447157,0.989871835341472,
0.329957278447157,0.329957278447157,0.989871835341472),(1.,0.333333333333333,
0.333333333333333,1.,0.333333333333333,0.333333333333333,1.)))
REPRESENTATION_ITEM('')
SURFACE()
);
#42=CONICAL_SURFACE('',#295,31.5,20.);
#43=CONICAL_SURFACE('',#304,40.5,45.0000000000002);
#44=CONICAL_SURFACE('',#312,19.996,15.);
#45=CONICAL_SURFACE('',#318,7.00675,70.0000000000001);
#46=TOROIDAL_SURFACE('',#293,23.3803462688243,1.2);
#47=TOROIDAL_SURFACE('',#300,32.5,1.);
#48=FACE_BOUND('',#103,.T.);
#49=FACE_BOUND('',#104,.T.);
#50=FACE_BOUND('',#105,.T.);
#51=FACE_BOUND('',#106,.T.);
#52=FACE_BOUND('',#107,.T.);
#53=FACE_BOUND('',#108,.T.);
#54=FACE_BOUND('',#109,.T.);
#55=FACE_BOUND('',#110,.T.);
#56=FACE_BOUND('',#111,.T.);
#57=FACE_BOUND('',#112,.T.);
#58=FACE_BOUND('',#117,.T.);
#59=FACE_BOUND('',#118,.T.);
#60=FACE_BOUND('',#119,.T.);
#61=FACE_BOUND('',#121,.T.);
#62=FACE_BOUND('',#122,.T.);
#63=FACE_BOUND('',#125,.T.);
#64=FACE_BOUND('',#32,.T.);
#65=FACE_BOUND('',#126,.T.);
#66=FACE_BOUND('',#127,.T.);
#67=ADVANCED_FACE('CU_IB_SU_1',(#92),#85,.F.);
#68=ADVANCED_FACE('AR_BY_CN_SU_1_1',(#93),#86,.F.);
#69=ADVANCED_FACE('AR_BY_CN_SU_11',(#48,#49),#46,.T.);
#70=ADVANCED_FACE('AR_BY_CN_IB_SU_2',(#50,#51),#42,.T.);
#71=ADVANCED_FACE('AR_BY_CN_IB_SU_21',(#52,#53),#41,.T.);
#72=ADVANCED_FACE('AR_BY_CN_IB_SU_3',(#54,#55),#37,.T.);
#73=ADVANCED_FACE('AR_BY_CN_IB_SU_31',(#56,#57),#47,.F.);
#74=ADVANCED_FACE('CU_IB_SU_5',(#94),#87,.T.);
#75=ADVANCED_FACE('CU_CHF_3_SU_1',(#95),#43,.T.);
#76=ADVANCED_FACE('CU_IB_SU_4',(#96),#38,.T.);
#77=ADVANCED_FACE('CU_BY_SU_4',(#97),#88,.F.);
#78=ADVANCED_FACE('CU_IB_SU_3',(#58,#59,#60),#89,.F.);
#79=ADVANCED_FACE('CU_CHF_1_SU_1',(#98),#44,.T.);
#80=ADVANCED_FACE('CU_IB_SU_2',(#61,#62),#39,.T.);
#81=ADVANCED_FACE('CU_BY_SU_3',(#99),#90,.F.);
#82=ADVANCED_FACE('CU_BY_SU_1',(#100),#91,.F.);
#83=ADVANCED_FACE('CU_HO_SU_3',(#63,#64),#45,.F.);
#84=ADVANCED_FACE('CU_HO_SU_4',(#65,#66),#40,.F.);
#85=PLANE('',#289);
#86=PLANE('',#291);
#87=PLANE('',#302);
#88=PLANE('',#307);
#89=PLANE('',#310);
#90=PLANE('',#315);
#91=PLANE('',#316);
#92=FACE_OUTER_BOUND('',#101,.T.);
#93=FACE_OUTER_BOUND('',#102,.T.);
#94=FACE_OUTER_BOUND('',#113,.T.);
#95=FACE_OUTER_BOUND('',#114,.T.);
#96=FACE_OUTER_BOUND('',#115,.T.);
#97=FACE_OUTER_BOUND('',#116,.T.);
#98=FACE_OUTER_BOUND('',#120,.T.);
#99=FACE_OUTER_BOUND('',#123,.T.);
#100=FACE_OUTER_BOUND('',#124,.T.);
#101=EDGE_LOOP('',(#143,#144));
#102=EDGE_LOOP('',(#145));
#103=EDGE_LOOP('',(#146));
#104=EDGE_LOOP('',(#147));
#105=EDGE_LOOP('',(#148));
#106=EDGE_LOOP('',(#149));
#107=EDGE_LOOP('',(#150));
#108=EDGE_LOOP('',(#151));
#109=EDGE_LOOP('',(#152));
#110=EDGE_LOOP('',(#153));
#111=EDGE_LOOP('',(#154));
#112=EDGE_LOOP('',(#155));
#113=EDGE_LOOP('',(#156,#157,#158,#159));
#114=EDGE_LOOP('',(#160,#161,#162,#163));
#115=EDGE_LOOP('',(#164,#165,#166,#167));
#116=EDGE_LOOP('',(#168,#169,#170,#171,#172,#173,#174));
#117=EDGE_LOOP('',(#175));
#118=EDGE_LOOP('',(#176));
#119=EDGE_LOOP('',(#177,#178));
#120=EDGE_LOOP('',(#179,#180,#181,#182));
#121=EDGE_LOOP('',(#183,#184,#185,#186));
#122=EDGE_LOOP('',(#187));
#123=EDGE_LOOP('',(#188,#189));
#124=EDGE_LOOP('',(#190,#191,#192,#193,#194,#195));
#125=EDGE_LOOP('',(#196));
#126=EDGE_LOOP('',(#197));
#127=EDGE_LOOP('',(#198));
#128=CIRCLE('',#288,19.0581778264911);
#129=CIRCLE('',#290,23.3803462688243);
#130=CIRCLE('',#292,24.5079774137674);
#131=CIRCLE('',#294,30.2938524157182);
#132=CIRCLE('',#296,31.5);
#133=CIRCLE('',#297,31.5);
#134=CIRCLE('',#299,32.5);
#135=CIRCLE('',#301,40.5);
#136=CIRCLE('',#303,41.5);
#137=CIRCLE('',#305,41.5);
#138=CIRCLE('',#308,7.00675);
#139=CIRCLE('',#309,19.996);
#140=CIRCLE('',#311,19.996);
#141=CIRCLE('',#313,19.996);
#142=CIRCLE('',#317,7.00675);
#143=ORIENTED_EDGE('',*,*,#221,.T.);
#144=ORIENTED_EDGE('',*,*,#222,.T.);
#145=ORIENTED_EDGE('',*,*,#223,.F.);
#146=ORIENTED_EDGE('',*,*,#224,.F.);
#147=ORIENTED_EDGE('',*,*,#223,.T.);
#148=ORIENTED_EDGE('',*,*,#224,.T.);
#149=ORIENTED_EDGE('',*,*,#225,.T.);
#150=ORIENTED_EDGE('',*,*,#226,.F.);
#151=ORIENTED_EDGE('',*,*,#225,.F.);
#152=ORIENTED_EDGE('',*,*,#226,.T.);
#153=ORIENTED_EDGE('',*,*,#227,.T.);
#154=ORIENTED_EDGE('',*,*,#228,.F.);
#155=ORIENTED_EDGE('',*,*,#227,.F.);
#156=ORIENTED_EDGE('',*,*,#229,.T.);
#157=ORIENTED_EDGE('',*,*,#228,.T.);
#158=ORIENTED_EDGE('',*,*,#230,.T.);
#159=ORIENTED_EDGE('',*,*,#231,.T.);
#160=ORIENTED_EDGE('',*,*,#232,.F.);
#161=ORIENTED_EDGE('',*,*,#233,.F.);
#162=ORIENTED_EDGE('',*,*,#234,.F.);
#163=ORIENTED_EDGE('',*,*,#231,.F.);
#164=ORIENTED_EDGE('',*,*,#235,.T.);
#165=ORIENTED_EDGE('',*,*,#236,.T.);
#166=ORIENTED_EDGE('',*,*,#237,.T.);
#167=ORIENTED_EDGE('',*,*,#233,.T.);
#168=ORIENTED_EDGE('',*,*,#238,.F.);
#169=ORIENTED_EDGE('',*,*,#235,.F.);
#170=ORIENTED_EDGE('',*,*,#232,.T.);
#171=ORIENTED_EDGE('',*,*,#230,.F.);
#172=ORIENTED_EDGE('',*,*,#229,.F.);
#173=ORIENTED_EDGE('',*,*,#234,.T.);
#174=ORIENTED_EDGE('',*,*,#237,.F.);
#175=ORIENTED_EDGE('',*,*,#239,.F.);
#176=ORIENTED_EDGE('',*,*,#240,.F.);
#177=ORIENTED_EDGE('',*,*,#238,.T.);
#178=ORIENTED_EDGE('',*,*,#236,.F.);
#179=ORIENTED_EDGE('',*,*,#241,.F.);
#180=ORIENTED_EDGE('',*,*,#222,.F.);
#181=ORIENTED_EDGE('',*,*,#242,.F.);
#182=ORIENTED_EDGE('',*,*,#243,.F.);
#183=ORIENTED_EDGE('',*,*,#243,.T.);
#184=ORIENTED_EDGE('',*,*,#244,.T.);
#185=ORIENTED_EDGE('',*,*,#245,.T.);
#186=ORIENTED_EDGE('',*,*,#246,.T.);
#187=ORIENTED_EDGE('',*,*,#240,.T.);
#188=ORIENTED_EDGE('',*,*,#247,.F.);
#189=ORIENTED_EDGE('',*,*,#245,.F.);
#190=ORIENTED_EDGE('',*,*,#244,.F.);
#191=ORIENTED_EDGE('',*,*,#242,.T.);
#192=ORIENTED_EDGE('',*,*,#221,.F.);
#193=ORIENTED_EDGE('',*,*,#241,.T.);
#194=ORIENTED_EDGE('',*,*,#246,.F.);
#195=ORIENTED_EDGE('',*,*,#247,.T.);
#196=ORIENTED_EDGE('',*,*,#248,.T.);
#197=ORIENTED_EDGE('',*,*,#248,.F.);
#198=ORIENTED_EDGE('',*,*,#239,.T.);
#199=VERTEX_POINT('',#406);
#200=VERTEX_POINT('',#407);
#201=VERTEX_POINT('',#411);
#202=VERTEX_POINT('',#414);
#203=VERTEX_POINT('',#417);
#204=VERTEX_POINT('',#420);
#205=VERTEX_POINT('',#450);
#206=VERTEX_POINT('',#453);
#207=VERTEX_POINT('',#456);
#208=VERTEX_POINT('',#458);
#209=VERTEX_POINT('',#465);
#210=VERTEX_POINT('',#467);
#211=VERTEX_POINT('',#474);
#212=VERTEX_POINT('',#476);
#213=VERTEX_POINT('',#482);
#214=VERTEX_POINT('',#484);
#215=VERTEX_POINT('',#490);
#216=VERTEX_POINT('',#495);
#217=VERTEX_POINT('',#499);
#218=VERTEX_POINT('',#501);
#219=VERTEX_POINT('',#508);
#220=VERTEX_POINT('',#509);
#221=EDGE_CURVE('',#199,#200,#249,.T.);
#222=EDGE_CURVE('',#200,#199,#128,.T.);
#223=EDGE_CURVE('',#201,#201,#129,.T.);
#224=EDGE_CURVE('',#202,#202,#130,.T.);
#225=EDGE_CURVE('',#203,#203,#131,.T.);
#226=EDGE_CURVE('',#204,#204,#132,.T.);
#227=EDGE_CURVE('',#205,#205,#133,.T.);
#228=EDGE_CURVE('',#206,#206,#134,.T.);
#229=EDGE_CURVE('',#207,#206,#250,.T.);
#230=EDGE_CURVE('',#206,#208,#251,.T.);
#231=EDGE_CURVE('',#208,#207,#135,.T.);
#232=EDGE_CURVE('',#209,#208,#33,.T.);
#233=EDGE_CURVE('',#210,#209,#136,.T.);
#234=EDGE_CURVE('',#207,#210,#34,.T.);
#235=EDGE_CURVE('',#209,#211,#252,.T.);
#236=EDGE_CURVE('',#211,#212,#137,.T.);
#237=EDGE_CURVE('',#212,#210,#253,.T.);
#238=EDGE_CURVE('',#211,#212,#254,.T.);
#239=EDGE_CURVE('',#213,#213,#138,.T.);
#240=EDGE_CURVE('',#214,#214,#139,.T.);
#241=EDGE_CURVE('',#199,#215,#35,.T.);
#242=EDGE_CURVE('',#216,#200,#36,.T.);
#243=EDGE_CURVE('',#215,#216,#140,.T.);
#244=EDGE_CURVE('',#216,#217,#255,.T.);
#245=EDGE_CURVE('',#217,#218,#141,.T.);
#246=EDGE_CURVE('',#218,#215,#256,.T.);
#247=EDGE_CURVE('',#218,#217,#257,.T.);
#248=EDGE_CURVE('',#219,#219,#142,.T.);
#249=LINE('',#405,#258);
#250=LINE('',#455,#259);
#251=LINE('',#457,#260);
#252=LINE('',#473,#261);
#253=LINE('',#477,#262);
#254=LINE('',#479,#263);
#255=LINE('',#498,#264);
#256=LINE('',#502,#265);
#257=LINE('',#504,#266);
#258=VECTOR('',#328,1.);
#259=VECTOR('',#355,1.);
#260=VECTOR('',#356,1.);
#261=VECTOR('',#365,1.);
#262=VECTOR('',#368,1.);
#263=VECTOR('',#371,1.);
#264=VECTOR('',#384,1.);
#265=VECTOR('',#387,1.);
#266=VECTOR('',#390,1.);
#267=PRESENTATION_LAYER_ASSIGNMENT('1','Layer 1',(#285,#286,#287,#30));
#268=STYLED_ITEM('',(#272),#285);
#269=STYLED_ITEM('',(#273),#286);
#270=STYLED_ITEM('',(#274),#287);
#271=STYLED_ITEM('',(#275),#30);
#272=PRESENTATION_STYLE_ASSIGNMENT((#276));
#273=PRESENTATION_STYLE_ASSIGNMENT((#277));
#274=PRESENTATION_STYLE_ASSIGNMENT((#278));
#275=PRESENTATION_STYLE_ASSIGNMENT((#25));
#276=CURVE_STYLE('',#281,POSITIVE_LENGTH_MEASURE(0.13),#279);
#277=CURVE_STYLE('',#282,POSITIVE_LENGTH_MEASURE(0.13),#279);
#278=CURVE_STYLE('',#283,POSITIVE_LENGTH_MEASURE(0.13),#279);
#279=COLOUR_RGB('Strong Emerald',0.,0.803921568627451,0.525490196078431);
#280=COLOUR_RGB('TLS_NOCUT',0.499992370489052,0.499992370489052,0.499992370489052);
#281=DRAUGHTING_PRE_DEFINED_CURVE_FONT('continuous');
#282=DRAUGHTING_PRE_DEFINED_CURVE_FONT('continuous');
#283=DRAUGHTING_PRE_DEFINED_CURVE_FONT('continuous');
#284=AXIS2_PLACEMENT_3D('',#401,#320,#321);
#285=AXIS2_PLACEMENT_3D('PCS',#402,#322,#323);
#286=AXIS2_PLACEMENT_3D('MCS',#403,#324,#325);
#287=AXIS2_PLACEMENT_3D('CSW',#404,#326,#327);
#288=AXIS2_PLACEMENT_3D('',#408,#329,#330);
#289=AXIS2_PLACEMENT_3D('',#409,#331,#332);
#290=AXIS2_PLACEMENT_3D('',#410,#333,#334);
#291=AXIS2_PLACEMENT_3D('',#412,#335,#336);
#292=AXIS2_PLACEMENT_3D('',#413,#337,#338);
#293=AXIS2_PLACEMENT_3D('',#415,#339,#340);
#294=AXIS2_PLACEMENT_3D('',#416,#341,#342);
#295=AXIS2_PLACEMENT_3D('',#418,#343,#344);
#296=AXIS2_PLACEMENT_3D('',#419,#345,#346);
#297=AXIS2_PLACEMENT_3D('',#449,#347,#348);
#298=AXIS2_PLACEMENT_3D('',#451,#349,#350);
#299=AXIS2_PLACEMENT_3D('',#452,#351,#352);
#300=AXIS2_PLACEMENT_3D('',#454,#353,#354);
#301=AXIS2_PLACEMENT_3D('',#459,#357,#358);
#302=AXIS2_PLACEMENT_3D('',#460,#359,#360);
#303=AXIS2_PLACEMENT_3D('',#466,#361,#362);
#304=AXIS2_PLACEMENT_3D('',#472,#363,#364);
#305=AXIS2_PLACEMENT_3D('',#475,#366,#367);
#306=AXIS2_PLACEMENT_3D('',#478,#369,#370);
#307=AXIS2_PLACEMENT_3D('',#480,#372,#373);
#308=AXIS2_PLACEMENT_3D('',#481,#374,#375);
#309=AXIS2_PLACEMENT_3D('',#483,#376,#377);
#310=AXIS2_PLACEMENT_3D('',#485,#378,#379);
#311=AXIS2_PLACEMENT_3D('',#496,#380,#381);
#312=AXIS2_PLACEMENT_3D('',#497,#382,#383);
#313=AXIS2_PLACEMENT_3D('',#500,#385,#386);
#314=AXIS2_PLACEMENT_3D('',#503,#388,#389);
#315=AXIS2_PLACEMENT_3D('',#505,#391,#392);
#316=AXIS2_PLACEMENT_3D('',#506,#393,#394);
#317=AXIS2_PLACEMENT_3D('',#507,#395,#396);
#318=AXIS2_PLACEMENT_3D('',#510,#397,#398);
#319=AXIS2_PLACEMENT_3D('',#511,#399,#400);
#320=DIRECTION('',(0.,0.,1.));
#321=DIRECTION('',(1.,0.,0.));
#322=DIRECTION('',(0.,0.,1.));
#323=DIRECTION('',(1.,0.,0.));
#324=DIRECTION('',(0.,0.,1.));
#325=DIRECTION('',(1.,0.,0.));
#326=DIRECTION('',(0.,0.,1.));
#327=DIRECTION('',(1.,0.,0.));
#328=DIRECTION('',(-1.,0.,0.));
#329=DIRECTION('',(0.,0.,1.));
#330=DIRECTION('',(-1.,0.,0.));
#331=DIRECTION('',(0.,0.,-1.));
#332=DIRECTION('',(-1.,0.,0.));
#333=DIRECTION('',(0.,0.,1.));
#334=DIRECTION('',(1.,0.,0.));
#335=DIRECTION('',(0.,0.,1.));
#336=DIRECTION('',(1.,0.,0.));
#337=DIRECTION('',(0.,0.,1.));
#338=DIRECTION('',(1.,0.,0.));
#339=DIRECTION('',(0.,0.,1.));
#340=DIRECTION('',(1.,0.,0.));
#341=DIRECTION('',(0.,0.,-1.));
#342=DIRECTION('',(1.,0.,0.));
#343=DIRECTION('',(0.,0.,1.));
#344=DIRECTION('',(1.,0.,7.01837286619803E-017));
#345=DIRECTION('',(0.,0.,1.));
#346=DIRECTION('',(1.,0.,0.));
#347=DIRECTION('',(0.,0.,-1.));
#348=DIRECTION('',(-1.,0.,0.));
#349=DIRECTION('',(0.,0.,-1.));
#350=DIRECTION('',(-1.,0.,0.));
#351=DIRECTION('',(0.,0.,1.));
#352=DIRECTION('',(-1.,0.,0.));
#353=DIRECTION('',(0.,0.,-1.));
#354=DIRECTION('',(-1.,0.,0.));
#355=DIRECTION('',(1.,0.,0.));
#356=DIRECTION('',(1.,0.,0.));
#357=DIRECTION('',(0.,0.,-1.));
#358=DIRECTION('',(-1.,0.,0.));
#359=DIRECTION('',(0.,0.,-1.));
#360=DIRECTION('',(-1.,0.,0.));
#361=DIRECTION('',(0.,0.,1.));
#362=DIRECTION('',(-1.,0.,0.));
#363=DIRECTION('',(0.,0.,1.));
#364=DIRECTION('',(1.,0.,-1.66720180295704E-017));
#365=DIRECTION('',(0.,0.,1.));
#366=DIRECTION('',(0.,0.,-1.));
#367=DIRECTION('',(-1.,0.,0.));
#368=DIRECTION('',(0.,0.,-1.));
#369=DIRECTION('',(0.,0.,-1.));
#370=DIRECTION('',(-1.,0.,0.));
#371=DIRECTION('',(-1.,0.,1.22464679914735E-016));
#372=DIRECTION('',(0.,-1.,0.));
#373=DIRECTION('',(0.,0.,1.));
#374=DIRECTION('',(0.,0.,1.));
#375=DIRECTION('',(-1.,0.,0.));
#376=DIRECTION('',(0.,0.,1.));
#377=DIRECTION('',(-1.,0.,0.));
#378=DIRECTION('',(0.,0.,-1.));
#379=DIRECTION('',(-1.,0.,0.));
#380=DIRECTION('',(0.,0.,-1.));
#381=DIRECTION('',(-1.,0.,0.));
#382=DIRECTION('',(0.,0.,-1.));
#383=DIRECTION('',(-1.,0.,0.));
#384=DIRECTION('',(0.,0.,-1.));
#385=DIRECTION('',(0.,-1.97522713150939E-016,-1.));
#386=DIRECTION('',(0.,-1.,2.16883811259353E-016));
#387=DIRECTION('',(0.,0.,1.));
#388=DIRECTION('',(0.,0.,-1.));
#389=DIRECTION('',(-1.,0.,0.));
#390=DIRECTION('',(-1.,0.,0.));
#391=DIRECTION('',(0.,-1.97522713150939E-016,-1.));
#392=DIRECTION('',(0.,-1.,1.97758476261356E-016));
#393=DIRECTION('',(0.,-1.,6.19544098563145E-017));
#394=DIRECTION('',(0.,6.24500451351651E-017,1.));
#395=DIRECTION('',(0.,0.,1.));
#396=DIRECTION('',(-1.,0.,0.));
#397=DIRECTION('',(0.,0.,1.));
#398=DIRECTION('',(1.,0.,1.76338850903498E-017));
#399=DIRECTION('',(0.,0.,-1.));
#400=DIRECTION('',(-1.,0.,0.));
#401=CARTESIAN_POINT('',(0.,0.,0.));
#402=CARTESIAN_POINT('',(0.,0.,0.));
#403=CARTESIAN_POINT('',(0.,0.,0.));
#404=CARTESIAN_POINT('',(0.,0.,-115.));
#405=CARTESIAN_POINT('',(-19.996,16.004,63.));
#406=CARTESIAN_POINT('',(10.3482426559371,16.004,63.));
#407=CARTESIAN_POINT('',(-10.3482426559371,16.004,63.));
#408=CARTESIAN_POINT('',(0.,0.,63.));
#409=CARTESIAN_POINT('',(0.,0.,63.));
#410=CARTESIAN_POINT('',(0.,0.,-115.));
#411=CARTESIAN_POINT('',(23.3803462688243,0.,-115.));
#412=CARTESIAN_POINT('',(0.,0.,-115.));
#413=CARTESIAN_POINT('',(0.,0.,-114.210424171991));
#414=CARTESIAN_POINT('',(24.5079774137674,0.,-114.210424171991));
#415=CARTESIAN_POINT('',(0.,0.,-113.8));
#416=CARTESIAN_POINT('',(0.,0.,-98.3138632523441));
#417=CARTESIAN_POINT('',(30.2938524157182,0.,-98.3138632523441));
#418=CARTESIAN_POINT('',(0.,0.,-95.));
#419=CARTESIAN_POINT('',(0.,0.,-91.4734603858307));
#420=CARTESIAN_POINT('',(31.5,0.,-91.4734603858307));
#421=CARTESIAN_POINT('',(31.5,0.,-91.4734603858307));
#422=CARTESIAN_POINT('',(31.5,63.,-91.4734603858307));
#423=CARTESIAN_POINT('',(-31.5,63.,-91.4734603858307));
#424=CARTESIAN_POINT('',(-31.5,0.,-91.4734603858307));
#425=CARTESIAN_POINT('',(-31.5,-63.,-91.4734603858307));
#426=CARTESIAN_POINT('',(31.5,-63.,-91.4734603858307));
#427=CARTESIAN_POINT('',(31.5,0.,-91.4734603858307));
#428=CARTESIAN_POINT('',(31.5,0.,-93.8124591863778));
#429=CARTESIAN_POINT('',(31.5,63.,-93.8124591863778));
#430=CARTESIAN_POINT('',(-31.5,63.,-93.8124591863778));
#431=CARTESIAN_POINT('',(-31.5,0.,-93.8124591863778));
#432=CARTESIAN_POINT('',(-31.5,-63.,-93.8124591863778));
#433=CARTESIAN_POINT('',(31.5,-63.,-93.8124591863778));
#434=CARTESIAN_POINT('',(31.5,0.,-93.8124591863778));
#435=CARTESIAN_POINT('',(31.0938371207199,0.,-96.1159233394429));
#436=CARTESIAN_POINT('',(31.0938371207199,62.1876742414397,-96.1159233394429));
#437=CARTESIAN_POINT('',(-31.0938371207199,62.1876742414397,-96.1159233394429));
#438=CARTESIAN_POINT('',(-31.0938371207199,0.,-96.1159233394429));
#439=CARTESIAN_POINT('',(-31.0938371207199,-62.1876742414397,-96.1159233394429));
#440=CARTESIAN_POINT('',(31.0938371207199,-62.1876742414397,-96.1159233394429));
#441=CARTESIAN_POINT('',(31.0938371207199,0.,-96.1159233394429));
#442=CARTESIAN_POINT('',(30.2938524157182,0.,-98.3138632523441));
#443=CARTESIAN_POINT('',(30.2938524157182,60.5877048314363,-98.3138632523441));
#444=CARTESIAN_POINT('',(-30.2938524157182,60.5877048314363,-98.3138632523441));
#445=CARTESIAN_POINT('',(-30.2938524157182,0.,-98.3138632523441));
#446=CARTESIAN_POINT('',(-30.2938524157182,-60.5877048314363,-98.3138632523441));
#447=CARTESIAN_POINT('',(30.2938524157182,-60.5877048314363,-98.3138632523441));
#448=CARTESIAN_POINT('',(30.2938524157182,0.,-98.3138632523441));
#449=CARTESIAN_POINT('',(0.,0.,-21.));
#450=CARTESIAN_POINT('',(-31.5,0.,-21.));
#451=CARTESIAN_POINT('',(0.,0.,-20.));
#452=CARTESIAN_POINT('',(0.,0.,-20.));
#453=CARTESIAN_POINT('',(0.,32.5,-20.));
#454=CARTESIAN_POINT('',(0.,0.,-21.));
#455=CARTESIAN_POINT('',(-41.5,32.5,-20.));
#456=CARTESIAN_POINT('',(-24.1660919471891,32.5,-20.));
#457=CARTESIAN_POINT('',(-41.5,32.5,-20.));
#458=CARTESIAN_POINT('',(24.1660919471891,32.5,-20.));
#459=CARTESIAN_POINT('',(0.,0.,-20.));
#460=CARTESIAN_POINT('',(0.,0.,-20.));
#461=CARTESIAN_POINT('',(25.8069758011279,32.5,-19.));
#462=CARTESIAN_POINT('',(25.2632973922042,32.5,-19.3380890492214));
#463=CARTESIAN_POINT('',(24.7159495471129,32.5,-19.6719034736391));
#464=CARTESIAN_POINT('',(24.1660919471891,32.5,-20.));
#465=CARTESIAN_POINT('',(25.8069758011279,32.5,-19.));
#466=CARTESIAN_POINT('',(0.,0.,-19.));
#467=CARTESIAN_POINT('',(-25.8069758011279,32.5,-19.));
#468=CARTESIAN_POINT('',(-24.1660919471892,32.5,-20.));
#469=CARTESIAN_POINT('',(-24.7160329921924,32.5,-19.6718536824918));
#470=CARTESIAN_POINT('',(-25.262891506267,32.5,-19.3383414513554));
#471=CARTESIAN_POINT('',(-25.8069758011279,32.5,-19.));
#472=CARTESIAN_POINT('',(0.,0.,-20.));
#473=CARTESIAN_POINT('',(25.8069758011279,32.5,12.2909500693914));
#474=CARTESIAN_POINT('',(25.8069758011279,32.5,-2.75667994488069E-016));
#475=CARTESIAN_POINT('',(0.,0.,0.));
#476=CARTESIAN_POINT('',(-25.8069758011279,32.5,-2.75667994488069E-016));
#477=CARTESIAN_POINT('',(-25.8069758011279,32.5,12.2909500693914));
#478=CARTESIAN_POINT('',(0.,0.,12.2909500693914));
#479=CARTESIAN_POINT('',(41.5,32.5,-5.08228421646152E-015));
#480=CARTESIAN_POINT('',(0.,32.5,0.));
#481=CARTESIAN_POINT('',(16.,-27.7128129211021,0.));
#482=CARTESIAN_POINT('',(8.99325,-27.7128129211021,0.));
#483=CARTESIAN_POINT('',(0.,0.,0.));
#484=CARTESIAN_POINT('',(-19.996,0.,0.));
#485=CARTESIAN_POINT('',(0.,19.996,-2.75667994488069E-016));
#486=CARTESIAN_POINT('',(10.3482426559371,16.004,63.));
#487=CARTESIAN_POINT('',(10.9183770358009,16.004,61.8446594753671));
#488=CARTESIAN_POINT('',(11.4622926149224,16.004,60.6762240428615));
#489=CARTESIAN_POINT('',(11.9879939939925,16.004,59.5));
#490=CARTESIAN_POINT('',(11.9879939939925,16.004,59.5));
#491=CARTESIAN_POINT('',(-11.9879939939925,16.004,59.5));
#492=CARTESIAN_POINT('',(-11.4622926149224,16.004,60.6762240428615));
#493=CARTESIAN_POINT('',(-10.9183770358009,16.004,61.8446594753671));
#494=CARTESIAN_POINT('',(-10.3482426559371,16.004,63.));
#495=CARTESIAN_POINT('',(-11.9879939939925,16.004,59.5));
#496=CARTESIAN_POINT('',(0.,0.,59.5));
#497=CARTESIAN_POINT('',(0.,0.,59.5));
#498=CARTESIAN_POINT('',(-11.9879939939925,16.004,12.2909500693914));
#499=CARTESIAN_POINT('',(-11.9879939939925,16.004,7.));
#500=CARTESIAN_POINT('',(0.,0.,7.));
#501=CARTESIAN_POINT('',(11.9879939939925,16.004,7.));
#502=CARTESIAN_POINT('',(11.9879939939925,16.004,12.2909500693914));
#503=CARTESIAN_POINT('',(0.,0.,12.2909500693914));
#504=CARTESIAN_POINT('',(-19.996,16.004,7.));
#505=CARTESIAN_POINT('',(-19.996,16.004,7.));
#506=CARTESIAN_POINT('',(-19.996,16.004,63.));
#507=CARTESIAN_POINT('',(16.,-27.7128129211021,-7.5));
#508=CARTESIAN_POINT('',(8.99325,-27.7128129211021,-7.5));
#509=CARTESIAN_POINT('',(16.,-27.7128129211021,-10.0502484389447));
#510=CARTESIAN_POINT('',(16.,-27.7128129211021,-7.5));
#511=CARTESIAN_POINT('',(16.,-27.7128129211021,14.9058496966544));
#512=MECHANICAL_DESIGN_GEOMETRIC_PRESENTATION_REPRESENTATION('',(#268,#269,
#270,#271),#513);
#513=(
GEOMETRIC_REPRESENTATION_CONTEXT(3)
GLOBAL_UNCERTAINTY_ASSIGNED_CONTEXT((#514))
GLOBAL_UNIT_ASSIGNED_CONTEXT((#520,#516,#515))
REPRESENTATION_CONTEXT('1508153992095','TOP_LEVEL_ASSEMBLY_PART')
);
#514=UNCERTAINTY_MEASURE_WITH_UNIT(LENGTH_MEASURE(0.0508),#520,
'DISTANCE_ACCURACY_VALUE','Maximum Tolerance applied to model');
#515=(
NAMED_UNIT(*)
SI_UNIT($,.STERADIAN.)
SOLID_ANGLE_UNIT()
);
#516=(
CONVERSION_BASED_UNIT('DEGREE',#518)
NAMED_UNIT(#517)
PLANE_ANGLE_UNIT()
);
#517=DIMENSIONAL_EXPONENTS(0.,0.,0.,0.,0.,0.,0.);
#518=PLANE_ANGLE_MEASURE_WITH_UNIT(PLANE_ANGLE_MEASURE(0.0174532925),#519);
#519=(
NAMED_UNIT(*)
PLANE_ANGLE_UNIT()
SI_UNIT($,.RADIAN.)
);
#520=(
LENGTH_UNIT()
NAMED_UNIT(*)
SI_UNIT(.MILLI.,.METRE.)
);
ENDSEC;
END-ISO-10303-21;
