ISO-10303-21;
HEADER;
/* Generated by software containing ST-Developer
 * from STEP Tools, Inc. (www.steptools.com) 
 */
/* OPTION: using custom schema-name function */

FILE_DESCRIPTION(
/* description */ (''),
/* implementation_level */ '2;1');

FILE_NAME(
/* name */ '1498482514067.stp',
/* time_stamp */ '2017-06-26T15:08:38+02:00',
/* author */ (''),
/* organization */ ('SMS'),
/* preprocessor_version */ 'ST-DEVELOPER v15',
/* originating_system */ 'SIEMENS PLM Software NX 8.5',
/* authorisation */ '');

FILE_SCHEMA (('AUTOMOTIVE_DESIGN { 1 0 10303 214 3 1 1 1 }'));
ENDSEC;

DATA;
#10=CONSTRUCTIVE_GEOMETRY_REPRESENTATION_RELATIONSHIP(
'supplemental geometry','',#24,#11);
#11=CONSTRUCTIVE_GEOMETRY_REPRESENTATION('supplemental geometry',(#382,
#383,#384),#665);
#12=SHAPE_REPRESENTATION_RELATIONSHIP('None',
'relationship between 201121182MOD000_00-None and 201121182MOD000_00-N
one',#24,#13);
#13=ADVANCED_BREP_SHAPE_REPRESENTATION('201121182MOD000_00-None',(#30),
#665);
#14=SHAPE_DEFINITION_REPRESENTATION(#15,#24);
#15=PRODUCT_DEFINITION_SHAPE('','',#16);
#16=PRODUCT_DEFINITION(' ','',#18,#17);
#17=PRODUCT_DEFINITION_CONTEXT('part definition',#23,'design');
#18=PRODUCT_DEFINITION_FORMATION_WITH_SPECIFIED_SOURCE(' ',' ',#20,
 .NOT_KNOWN.);
#19=PRODUCT_RELATED_PRODUCT_CATEGORY('part','',(#20));
#20=PRODUCT('201121182MOD000_00','201121182MOD000_00',' ',(#21));
#21=PRODUCT_CONTEXT(' ',#23,'mechanical');
#22=APPLICATION_PROTOCOL_DEFINITION('international standard',
'automotive_design',2010,#23);
#23=APPLICATION_CONTEXT(
'core data for automotive mechanical design processes');
#24=SHAPE_REPRESENTATION('201121182MOD000_00-None',(#381),#665);
#25=SURFACE_STYLE_USAGE(.BOTH.,#26);
#26=SURFACE_SIDE_STYLE('',(#27));
#27=SURFACE_STYLE_FILL_AREA(#28);
#28=FILL_AREA_STYLE('',(#29));
#29=FILL_AREA_STYLE_COLOUR('',#377);
#30=MANIFOLD_SOLID_BREP('NOCUT',#31);
#31=CLOSED_SHELL('',(#62,#63,#64,#65,#66,#67,#68,#69,#70,#71,#72,#73,#74,
#75,#76,#77,#78,#79,#80,#81,#82,#83,#84,#85,#86,#87));
#32=TOROIDAL_SURFACE('',#429,11.2957060059976,0.5);
#33=TOROIDAL_SURFACE('',#430,12.125,2.4);
#34=TOROIDAL_SURFACE('',#431,12.125,2.4);
#35=TOROIDAL_SURFACE('',#434,12.1500000000001,2.4);
#36=TOROIDAL_SURFACE('',#435,12.2500000000001,2.5);
#37=CONICAL_SURFACE('',#395,18.25,45.);
#38=CONICAL_SURFACE('',#396,18.25,45.);
#39=CONICAL_SURFACE('',#404,11.5843811405924,30.);
#40=CONICAL_SURFACE('',#408,14.5,45.);
#41=CONICAL_SURFACE('',#417,9.75000000000013,30.0000000000002);
#42=CONICAL_SURFACE('',#421,12.,45.);
#43=CONICAL_SURFACE('',#425,6.32735026918976,30.0000000000001);
#44=CONICAL_SURFACE('',#428,5.75000000000013,30.);
#45=B_SPLINE_CURVE_WITH_KNOTS('',3,(#587,#588,#589,#590),.UNSPECIFIED.,
 .F.,.F.,(4,4),(0.,1.),.UNSPECIFIED.);
#46=B_SPLINE_CURVE_WITH_KNOTS('',3,(#591,#592,#593,#594),.UNSPECIFIED.,
 .F.,.F.,(4,4),(0.,1.),.UNSPECIFIED.);
#47=B_SPLINE_CURVE_WITH_KNOTS('',3,(#596,#597,#598,#599),.UNSPECIFIED.,
 .F.,.F.,(4,4),(0.,1.),.UNSPECIFIED.);
#48=B_SPLINE_CURVE_WITH_KNOTS('',3,(#600,#601,#602,#603),.UNSPECIFIED.,
 .F.,.F.,(4,4),(0.,1.),.UNSPECIFIED.);
#49=CYLINDRICAL_SURFACE('',#391,18.25);
#50=CYLINDRICAL_SURFACE('',#394,18.25);
#51=CYLINDRICAL_SURFACE('',#406,14.5);
#52=CYLINDRICAL_SURFACE('',#411,9.72500000000004);
#53=CYLINDRICAL_SURFACE('',#414,9.75000000000007);
#54=CYLINDRICAL_SURFACE('',#419,12.0000000000001);
#55=CYLINDRICAL_SURFACE('',#427,5.75000000000013);
#56=FACE_OUTER_BOUND('',#152,.T.);
#57=FACE_OUTER_BOUND('',#153,.T.);
#58=FACE_OUTER_BOUND('',#154,.T.);
#59=FACE_OUTER_BOUND('',#155,.T.);
#60=FACE_OUTER_BOUND('',#190,.T.);
#61=FACE_OUTER_BOUND('',#191,.T.);
#62=ADVANCED_FACE('',(#110,#111),#88,.F.);
#63=ADVANCED_FACE('',(#56),#49,.T.);
#64=ADVANCED_FACE('',(#57),#50,.T.);
#65=ADVANCED_FACE('',(#58),#37,.T.);
#66=ADVANCED_FACE('',(#59),#38,.T.);
#67=ADVANCED_FACE('',(#112,#113),#89,.F.);
#68=ADVANCED_FACE('',(#114,#115),#90,.F.);
#69=ADVANCED_FACE('',(#116,#117),#39,.T.);
#70=ADVANCED_FACE('',(#118,#119),#51,.T.);
#71=ADVANCED_FACE('',(#120,#121),#40,.T.);
#72=ADVANCED_FACE('',(#122,#123),#52,.T.);
#73=ADVANCED_FACE('',(#124,#125),#53,.T.);
#74=ADVANCED_FACE('',(#126,#127),#41,.T.);
#75=ADVANCED_FACE('',(#128,#129),#54,.T.);
#76=ADVANCED_FACE('',(#130,#131),#42,.T.);
#77=ADVANCED_FACE('',(#132,#133),#91,.F.);
#78=ADVANCED_FACE('',(#134,#135),#43,.F.);
#79=ADVANCED_FACE('',(#136,#137),#55,.F.);
#80=ADVANCED_FACE('',(#138,#139),#44,.F.);
#81=ADVANCED_FACE('',(#140,#141),#32,.T.);
#82=ADVANCED_FACE('',(#142,#143),#33,.F.);
#83=ADVANCED_FACE('',(#144,#145),#34,.F.);
#84=ADVANCED_FACE('',(#60),#92,.F.);
#85=ADVANCED_FACE('',(#61),#93,.T.);
#86=ADVANCED_FACE('',(#146,#147),#35,.F.);
#87=ADVANCED_FACE('',(#148,#149),#36,.F.);
#88=PLANE('',#388);
#89=PLANE('',#398);
#90=PLANE('',#401);
#91=PLANE('',#423);
#92=PLANE('',#432);
#93=PLANE('',#433);
#94=LINE('',#560,#102);
#95=LINE('',#565,#103);
#96=LINE('',#569,#104);
#97=LINE('',#574,#105);
#98=LINE('',#578,#106);
#99=LINE('',#583,#107);
#100=LINE('',#607,#108);
#101=LINE('',#608,#109);
#102=VECTOR('',#446,1.);
#103=VECTOR('',#449,1.);
#104=VECTOR('',#454,1.);
#105=VECTOR('',#457,1.);
#106=VECTOR('',#462,1.);
#107=VECTOR('',#465,1.);
#108=VECTOR('',#476,1.);
#109=VECTOR('',#477,1.);
#110=FACE_BOUND('',#150,.T.);
#111=FACE_BOUND('',#151,.T.);
#112=FACE_BOUND('',#156,.T.);
#113=FACE_BOUND('',#157,.T.);
#114=FACE_BOUND('',#158,.T.);
#115=FACE_BOUND('',#159,.T.);
#116=FACE_BOUND('',#160,.T.);
#117=FACE_BOUND('',#161,.T.);
#118=FACE_BOUND('',#162,.T.);
#119=FACE_BOUND('',#163,.T.);
#120=FACE_BOUND('',#164,.T.);
#121=FACE_BOUND('',#165,.T.);
#122=FACE_BOUND('',#166,.T.);
#123=FACE_BOUND('',#167,.T.);
#124=FACE_BOUND('',#168,.T.);
#125=FACE_BOUND('',#169,.T.);
#126=FACE_BOUND('',#170,.T.);
#127=FACE_BOUND('',#171,.T.);
#128=FACE_BOUND('',#172,.T.);
#129=FACE_BOUND('',#173,.T.);
#130=FACE_BOUND('',#174,.T.);
#131=FACE_BOUND('',#175,.T.);
#132=FACE_BOUND('',#176,.T.);
#133=FACE_BOUND('',#177,.T.);
#134=FACE_BOUND('',#178,.T.);
#135=FACE_BOUND('',#179,.T.);
#136=FACE_BOUND('',#180,.T.);
#137=FACE_BOUND('',#181,.T.);
#138=FACE_BOUND('',#182,.T.);
#139=FACE_BOUND('',#183,.T.);
#140=FACE_BOUND('',#184,.T.);
#141=FACE_BOUND('',#185,.T.);
#142=FACE_BOUND('',#186,.T.);
#143=FACE_BOUND('',#187,.T.);
#144=FACE_BOUND('',#188,.T.);
#145=FACE_BOUND('',#189,.T.);
#146=FACE_BOUND('',#192,.T.);
#147=FACE_BOUND('',#193,.T.);
#148=FACE_BOUND('',#194,.T.);
#149=FACE_BOUND('',#195,.T.);
#150=EDGE_LOOP('',(#196));
#151=EDGE_LOOP('',(#197,#198,#199,#200));
#152=EDGE_LOOP('',(#201,#202,#203,#204));
#153=EDGE_LOOP('',(#205,#206,#207,#208));
#154=EDGE_LOOP('',(#209,#210,#211,#212));
#155=EDGE_LOOP('',(#213,#214,#215,#216));
#156=EDGE_LOOP('',(#217));
#157=EDGE_LOOP('',(#218,#219,#220,#221));
#158=EDGE_LOOP('',(#222));
#159=EDGE_LOOP('',(#223));
#160=EDGE_LOOP('',(#224));
#161=EDGE_LOOP('',(#225));
#162=EDGE_LOOP('',(#226));
#163=EDGE_LOOP('',(#227));
#164=EDGE_LOOP('',(#228));
#165=EDGE_LOOP('',(#229));
#166=EDGE_LOOP('',(#230));
#167=EDGE_LOOP('',(#231));
#168=EDGE_LOOP('',(#232));
#169=EDGE_LOOP('',(#233));
#170=EDGE_LOOP('',(#234));
#171=EDGE_LOOP('',(#235));
#172=EDGE_LOOP('',(#236));
#173=EDGE_LOOP('',(#237));
#174=EDGE_LOOP('',(#238));
#175=EDGE_LOOP('',(#239));
#176=EDGE_LOOP('',(#240));
#177=EDGE_LOOP('',(#241));
#178=EDGE_LOOP('',(#242));
#179=EDGE_LOOP('',(#243));
#180=EDGE_LOOP('',(#244));
#181=EDGE_LOOP('',(#245));
#182=EDGE_LOOP('',(#246));
#183=EDGE_LOOP('',(#247));
#184=EDGE_LOOP('',(#248));
#185=EDGE_LOOP('',(#249));
#186=EDGE_LOOP('',(#250));
#187=EDGE_LOOP('',(#251));
#188=EDGE_LOOP('',(#252));
#189=EDGE_LOOP('',(#253));
#190=EDGE_LOOP('',(#254,#255,#256,#257,#258,#259));
#191=EDGE_LOOP('',(#260,#261,#262,#263,#264,#265));
#192=EDGE_LOOP('',(#266));
#193=EDGE_LOOP('',(#267));
#194=EDGE_LOOP('',(#268));
#195=EDGE_LOOP('',(#269));
#196=ORIENTED_EDGE('',*,*,#301,.T.);
#197=ORIENTED_EDGE('',*,*,#302,.F.);
#198=ORIENTED_EDGE('',*,*,#303,.T.);
#199=ORIENTED_EDGE('',*,*,#304,.T.);
#200=ORIENTED_EDGE('',*,*,#305,.T.);
#201=ORIENTED_EDGE('',*,*,#306,.T.);
#202=ORIENTED_EDGE('',*,*,#307,.T.);
#203=ORIENTED_EDGE('',*,*,#308,.F.);
#204=ORIENTED_EDGE('',*,*,#309,.F.);
#205=ORIENTED_EDGE('',*,*,#310,.T.);
#206=ORIENTED_EDGE('',*,*,#311,.F.);
#207=ORIENTED_EDGE('',*,*,#312,.F.);
#208=ORIENTED_EDGE('',*,*,#313,.T.);
#209=ORIENTED_EDGE('',*,*,#307,.F.);
#210=ORIENTED_EDGE('',*,*,#314,.T.);
#211=ORIENTED_EDGE('',*,*,#305,.F.);
#212=ORIENTED_EDGE('',*,*,#315,.F.);
#213=ORIENTED_EDGE('',*,*,#303,.F.);
#214=ORIENTED_EDGE('',*,*,#316,.T.);
#215=ORIENTED_EDGE('',*,*,#313,.F.);
#216=ORIENTED_EDGE('',*,*,#317,.F.);
#217=ORIENTED_EDGE('',*,*,#318,.T.);
#218=ORIENTED_EDGE('',*,*,#311,.T.);
#219=ORIENTED_EDGE('',*,*,#319,.T.);
#220=ORIENTED_EDGE('',*,*,#309,.T.);
#221=ORIENTED_EDGE('',*,*,#320,.F.);
#222=ORIENTED_EDGE('',*,*,#321,.T.);
#223=ORIENTED_EDGE('',*,*,#322,.T.);
#224=ORIENTED_EDGE('',*,*,#323,.T.);
#225=ORIENTED_EDGE('',*,*,#324,.F.);
#226=ORIENTED_EDGE('',*,*,#325,.F.);
#227=ORIENTED_EDGE('',*,*,#324,.T.);
#228=ORIENTED_EDGE('',*,*,#326,.T.);
#229=ORIENTED_EDGE('',*,*,#325,.T.);
#230=ORIENTED_EDGE('',*,*,#327,.T.);
#231=ORIENTED_EDGE('',*,*,#328,.T.);
#232=ORIENTED_EDGE('',*,*,#329,.T.);
#233=ORIENTED_EDGE('',*,*,#330,.T.);
#234=ORIENTED_EDGE('',*,*,#331,.T.);
#235=ORIENTED_EDGE('',*,*,#332,.F.);
#236=ORIENTED_EDGE('',*,*,#333,.F.);
#237=ORIENTED_EDGE('',*,*,#332,.T.);
#238=ORIENTED_EDGE('',*,*,#334,.F.);
#239=ORIENTED_EDGE('',*,*,#333,.T.);
#240=ORIENTED_EDGE('',*,*,#335,.F.);
#241=ORIENTED_EDGE('',*,*,#334,.T.);
#242=ORIENTED_EDGE('',*,*,#336,.F.);
#243=ORIENTED_EDGE('',*,*,#335,.T.);
#244=ORIENTED_EDGE('',*,*,#337,.F.);
#245=ORIENTED_EDGE('',*,*,#336,.T.);
#246=ORIENTED_EDGE('',*,*,#322,.F.);
#247=ORIENTED_EDGE('',*,*,#337,.T.);
#248=ORIENTED_EDGE('',*,*,#321,.F.);
#249=ORIENTED_EDGE('',*,*,#323,.F.);
#250=ORIENTED_EDGE('',*,*,#328,.F.);
#251=ORIENTED_EDGE('',*,*,#301,.F.);
#252=ORIENTED_EDGE('',*,*,#326,.F.);
#253=ORIENTED_EDGE('',*,*,#327,.F.);
#254=ORIENTED_EDGE('',*,*,#315,.T.);
#255=ORIENTED_EDGE('',*,*,#304,.F.);
#256=ORIENTED_EDGE('',*,*,#317,.T.);
#257=ORIENTED_EDGE('',*,*,#312,.T.);
#258=ORIENTED_EDGE('',*,*,#320,.T.);
#259=ORIENTED_EDGE('',*,*,#308,.T.);
#260=ORIENTED_EDGE('',*,*,#306,.F.);
#261=ORIENTED_EDGE('',*,*,#319,.F.);
#262=ORIENTED_EDGE('',*,*,#310,.F.);
#263=ORIENTED_EDGE('',*,*,#316,.F.);
#264=ORIENTED_EDGE('',*,*,#302,.T.);
#265=ORIENTED_EDGE('',*,*,#314,.F.);
#266=ORIENTED_EDGE('',*,*,#318,.F.);
#267=ORIENTED_EDGE('',*,*,#330,.F.);
#268=ORIENTED_EDGE('',*,*,#329,.F.);
#269=ORIENTED_EDGE('',*,*,#331,.F.);
#270=VERTEX_POINT('',#559);
#271=VERTEX_POINT('',#561);
#272=VERTEX_POINT('',#562);
#273=VERTEX_POINT('',#564);
#274=VERTEX_POINT('',#566);
#275=VERTEX_POINT('',#570);
#276=VERTEX_POINT('',#571);
#277=VERTEX_POINT('',#573);
#278=VERTEX_POINT('',#575);
#279=VERTEX_POINT('',#579);
#280=VERTEX_POINT('',#580);
#281=VERTEX_POINT('',#582);
#282=VERTEX_POINT('',#584);
#283=VERTEX_POINT('',#606);
#284=VERTEX_POINT('',#611);
#285=VERTEX_POINT('',#613);
#286=VERTEX_POINT('',#616);
#287=VERTEX_POINT('',#618);
#288=VERTEX_POINT('',#621);
#289=VERTEX_POINT('',#624);
#290=VERTEX_POINT('',#627);
#291=VERTEX_POINT('',#629);
#292=VERTEX_POINT('',#632);
#293=VERTEX_POINT('',#634);
#294=VERTEX_POINT('',#637);
#295=VERTEX_POINT('',#639);
#296=VERTEX_POINT('',#642);
#297=VERTEX_POINT('',#645);
#298=VERTEX_POINT('',#648);
#299=VERTEX_POINT('',#651);
#300=VERTEX_POINT('',#654);
#301=EDGE_CURVE('',#270,#270,#338,.T.);
#302=EDGE_CURVE('',#271,#272,#94,.T.);
#303=EDGE_CURVE('',#271,#273,#339,.T.);
#304=EDGE_CURVE('',#273,#274,#95,.T.);
#305=EDGE_CURVE('',#274,#272,#340,.T.);
#306=EDGE_CURVE('',#275,#276,#96,.T.);
#307=EDGE_CURVE('',#276,#277,#341,.T.);
#308=EDGE_CURVE('',#278,#277,#97,.T.);
#309=EDGE_CURVE('',#275,#278,#342,.T.);
#310=EDGE_CURVE('',#279,#280,#98,.T.);
#311=EDGE_CURVE('',#281,#280,#343,.T.);
#312=EDGE_CURVE('',#282,#281,#99,.T.);
#313=EDGE_CURVE('',#282,#279,#344,.T.);
#314=EDGE_CURVE('',#276,#272,#45,.T.);
#315=EDGE_CURVE('',#277,#274,#46,.T.);
#316=EDGE_CURVE('',#271,#279,#47,.T.);
#317=EDGE_CURVE('',#273,#282,#48,.T.);
#318=EDGE_CURVE('',#283,#283,#345,.T.);
#319=EDGE_CURVE('',#280,#275,#100,.T.);
#320=EDGE_CURVE('',#281,#278,#101,.T.);
#321=EDGE_CURVE('',#284,#284,#346,.T.);
#322=EDGE_CURVE('',#285,#285,#347,.T.);
#323=EDGE_CURVE('',#286,#286,#348,.T.);
#324=EDGE_CURVE('',#287,#287,#349,.T.);
#325=EDGE_CURVE('',#288,#288,#350,.T.);
#326=EDGE_CURVE('',#289,#289,#351,.T.);
#327=EDGE_CURVE('',#290,#290,#352,.T.);
#328=EDGE_CURVE('',#291,#291,#353,.T.);
#329=EDGE_CURVE('',#292,#292,#354,.T.);
#330=EDGE_CURVE('',#293,#293,#355,.T.);
#331=EDGE_CURVE('',#294,#294,#356,.T.);
#332=EDGE_CURVE('',#295,#295,#357,.T.);
#333=EDGE_CURVE('',#296,#296,#358,.T.);
#334=EDGE_CURVE('',#297,#297,#359,.T.);
#335=EDGE_CURVE('',#298,#298,#360,.T.);
#336=EDGE_CURVE('',#299,#299,#361,.T.);
#337=EDGE_CURVE('',#300,#300,#362,.T.);
#338=CIRCLE('',#385,12.125);
#339=CIRCLE('',#386,17.25);
#340=CIRCLE('',#387,17.25);
#341=CIRCLE('',#389,18.25);
#342=CIRCLE('',#390,18.25);
#343=CIRCLE('',#392,18.25);
#344=CIRCLE('',#393,18.25);
#345=CIRCLE('',#397,12.1500000000001);
#346=CIRCLE('',#399,11.2957060059976);
#347=CIRCLE('',#400,6.32735026918976);
#348=CIRCLE('',#402,11.7287187078898);
#349=CIRCLE('',#403,14.5);
#350=CIRCLE('',#405,14.5);
#351=CIRCLE('',#407,10.4279437251523);
#352=CIRCLE('',#409,9.72500000000004);
#353=CIRCLE('',#410,9.72500000000004);
#354=CIRCLE('',#412,9.75000000000007);
#355=CIRCLE('',#413,9.75000000000007);
#356=CIRCLE('',#415,10.084936490539);
#357=CIRCLE('',#416,12.0000000000001);
#358=CIRCLE('',#418,12.);
#359=CIRCLE('',#420,10.);
#360=CIRCLE('',#422,6.32735026918976);
#361=CIRCLE('',#424,5.75000000000013);
#362=CIRCLE('',#426,5.75000000000013);
#363=PRESENTATION_LAYER_ASSIGNMENT('1','Layer 1',(#382,#383,#384));
#364=PRESENTATION_LAYER_ASSIGNMENT('4','Layer 4',(#30));
#365=STYLED_ITEM('',(#369),#382);
#366=STYLED_ITEM('',(#370),#383);
#367=STYLED_ITEM('',(#371),#384);
#368=STYLED_ITEM('',(#372),#30);
#369=PRESENTATION_STYLE_ASSIGNMENT((#373));
#370=PRESENTATION_STYLE_ASSIGNMENT((#374));
#371=PRESENTATION_STYLE_ASSIGNMENT((#375));
#372=PRESENTATION_STYLE_ASSIGNMENT((#25));
#373=CURVE_STYLE('',#378,POSITIVE_LENGTH_MEASURE(0.13),#376);
#374=CURVE_STYLE('',#379,POSITIVE_LENGTH_MEASURE(0.13),#376);
#375=CURVE_STYLE('',#380,POSITIVE_LENGTH_MEASURE(0.13),#376);
#376=COLOUR_RGB('Strong Stone',0.576470588235294,0.54508278019379,0.392156862745098);
#377=COLOUR_RGB('TLS_NOCUT',0.499992370489052,0.499992370489052,0.499992370489052);
#378=DRAUGHTING_PRE_DEFINED_CURVE_FONT('continuous');
#379=DRAUGHTING_PRE_DEFINED_CURVE_FONT('continuous');
#380=DRAUGHTING_PRE_DEFINED_CURVE_FONT('continuous');
#381=AXIS2_PLACEMENT_3D('',#554,#436,#437);
#382=AXIS2_PLACEMENT_3D('PCS',#555,#438,#439);
#383=AXIS2_PLACEMENT_3D('MCS',#556,#440,#441);
#384=AXIS2_PLACEMENT_3D('CSW',#557,#442,#443);
#385=AXIS2_PLACEMENT_3D('',#558,#444,#445);
#386=AXIS2_PLACEMENT_3D('',#563,#447,#448);
#387=AXIS2_PLACEMENT_3D('',#567,#450,#451);
#388=AXIS2_PLACEMENT_3D('',#568,#452,#453);
#389=AXIS2_PLACEMENT_3D('',#572,#455,#456);
#390=AXIS2_PLACEMENT_3D('',#576,#458,#459);
#391=AXIS2_PLACEMENT_3D('',#577,#460,#461);
#392=AXIS2_PLACEMENT_3D('',#581,#463,#464);
#393=AXIS2_PLACEMENT_3D('',#585,#466,#467);
#394=AXIS2_PLACEMENT_3D('',#586,#468,#469);
#395=AXIS2_PLACEMENT_3D('',#595,#470,#471);
#396=AXIS2_PLACEMENT_3D('',#604,#472,#473);
#397=AXIS2_PLACEMENT_3D('',#605,#474,#475);
#398=AXIS2_PLACEMENT_3D('',#609,#478,#479);
#399=AXIS2_PLACEMENT_3D('',#610,#480,#481);
#400=AXIS2_PLACEMENT_3D('',#612,#482,#483);
#401=AXIS2_PLACEMENT_3D('',#614,#484,#485);
#402=AXIS2_PLACEMENT_3D('',#615,#486,#487);
#403=AXIS2_PLACEMENT_3D('',#617,#488,#489);
#404=AXIS2_PLACEMENT_3D('',#619,#490,#491);
#405=AXIS2_PLACEMENT_3D('',#620,#492,#493);
#406=AXIS2_PLACEMENT_3D('',#622,#494,#495);
#407=AXIS2_PLACEMENT_3D('',#623,#496,#497);
#408=AXIS2_PLACEMENT_3D('',#625,#498,#499);
#409=AXIS2_PLACEMENT_3D('',#626,#500,#501);
#410=AXIS2_PLACEMENT_3D('',#628,#502,#503);
#411=AXIS2_PLACEMENT_3D('',#630,#504,#505);
#412=AXIS2_PLACEMENT_3D('',#631,#506,#507);
#413=AXIS2_PLACEMENT_3D('',#633,#508,#509);
#414=AXIS2_PLACEMENT_3D('',#635,#510,#511);
#415=AXIS2_PLACEMENT_3D('',#636,#512,#513);
#416=AXIS2_PLACEMENT_3D('',#638,#514,#515);
#417=AXIS2_PLACEMENT_3D('',#640,#516,#517);
#418=AXIS2_PLACEMENT_3D('',#641,#518,#519);
#419=AXIS2_PLACEMENT_3D('',#643,#520,#521);
#420=AXIS2_PLACEMENT_3D('',#644,#522,#523);
#421=AXIS2_PLACEMENT_3D('',#646,#524,#525);
#422=AXIS2_PLACEMENT_3D('',#647,#526,#527);
#423=AXIS2_PLACEMENT_3D('',#649,#528,#529);
#424=AXIS2_PLACEMENT_3D('',#650,#530,#531);
#425=AXIS2_PLACEMENT_3D('',#652,#532,#533);
#426=AXIS2_PLACEMENT_3D('',#653,#534,#535);
#427=AXIS2_PLACEMENT_3D('',#655,#536,#537);
#428=AXIS2_PLACEMENT_3D('',#656,#538,#539);
#429=AXIS2_PLACEMENT_3D('',#657,#540,#541);
#430=AXIS2_PLACEMENT_3D('',#658,#542,#543);
#431=AXIS2_PLACEMENT_3D('',#659,#544,#545);
#432=AXIS2_PLACEMENT_3D('',#660,#546,#547);
#433=AXIS2_PLACEMENT_3D('',#661,#548,#549);
#434=AXIS2_PLACEMENT_3D('',#662,#550,#551);
#435=AXIS2_PLACEMENT_3D('',#663,#552,#553);
#436=DIRECTION('',(0.,0.,1.));
#437=DIRECTION('',(1.,0.,0.));
#438=DIRECTION('',(0.,0.,1.));
#439=DIRECTION('',(1.,0.,0.));
#440=DIRECTION('',(0.,0.,1.));
#441=DIRECTION('',(1.,0.,0.));
#442=DIRECTION('',(0.,0.,1.));
#443=DIRECTION('',(1.,0.,0.));
#444=DIRECTION('',(0.,0.,-1.));
#445=DIRECTION('',(0.,1.,0.));
#446=DIRECTION('',(1.,0.,0.));
#447=DIRECTION('',(0.,0.,1.));
#448=DIRECTION('',(0.,1.,0.));
#449=DIRECTION('',(1.,0.,0.));
#450=DIRECTION('',(0.,0.,1.));
#451=DIRECTION('',(0.,1.,0.));
#452=DIRECTION('',(0.,0.,-1.));
#453=DIRECTION('',(0.,1.,0.));
#454=DIRECTION('',(0.,0.,1.));
#455=DIRECTION('',(0.,0.,-1.));
#456=DIRECTION('',(0.,1.,0.));
#457=DIRECTION('',(0.,0.,1.));
#458=DIRECTION('',(0.,0.,-1.));
#459=DIRECTION('',(0.,1.,0.));
#460=DIRECTION('',(0.,0.,-1.));
#461=DIRECTION('',(0.,1.,0.));
#462=DIRECTION('',(0.,0.,-1.));
#463=DIRECTION('',(0.,0.,-1.));
#464=DIRECTION('',(0.,1.,0.));
#465=DIRECTION('',(0.,0.,-1.));
#466=DIRECTION('',(0.,0.,-1.));
#467=DIRECTION('',(0.,1.,0.));
#468=DIRECTION('',(0.,0.,-1.));
#469=DIRECTION('',(0.,1.,0.));
#470=DIRECTION('',(0.,0.,-1.));
#471=DIRECTION('',(0.,1.,-4.77017012790087E-017));
#472=DIRECTION('',(0.,0.,-1.));
#473=DIRECTION('',(0.,1.,-4.77017012790087E-017));
#474=DIRECTION('',(0.,0.,1.));
#475=DIRECTION('',(0.,-1.,0.));
#476=DIRECTION('',(1.,0.,0.));
#477=DIRECTION('',(1.,0.,0.));
#478=DIRECTION('',(0.,0.,1.));
#479=DIRECTION('',(0.,-1.,0.));
#480=DIRECTION('',(0.,0.,1.));
#481=DIRECTION('',(0.,1.,0.));
#482=DIRECTION('',(0.,0.,-1.));
#483=DIRECTION('',(0.,1.,0.));
#484=DIRECTION('',(0.,0.,-1.));
#485=DIRECTION('',(0.,1.,0.));
#486=DIRECTION('',(0.,0.,-1.));
#487=DIRECTION('',(0.,-1.,0.));
#488=DIRECTION('',(0.,0.,-1.));
#489=DIRECTION('',(0.,1.,0.));
#490=DIRECTION('',(0.,0.,-1.));
#491=DIRECTION('',(0.,1.,-3.53463354551302E-017));
#492=DIRECTION('',(0.,0.,-1.));
#493=DIRECTION('',(0.,1.,0.));
#494=DIRECTION('',(0.,0.,-1.));
#495=DIRECTION('',(0.,1.,0.));
#496=DIRECTION('',(0.,0.,1.));
#497=DIRECTION('',(0.,-1.,0.));
#498=DIRECTION('',(0.,0.,1.));
#499=DIRECTION('',(0.,-1.,-8.54964749126076E-017));
#500=DIRECTION('',(0.,0.,-1.));
#501=DIRECTION('',(0.,1.,0.));
#502=DIRECTION('',(0.,0.,1.));
#503=DIRECTION('',(0.,1.,0.));
#504=DIRECTION('',(0.,0.,-1.));
#505=DIRECTION('',(0.,1.,0.));
#506=DIRECTION('',(0.,0.,1.));
#507=DIRECTION('',(0.,1.,0.));
#508=DIRECTION('',(0.,0.,-1.));
#509=DIRECTION('',(0.,-1.,0.));
#510=DIRECTION('',(0.,0.,-1.));
#511=DIRECTION('',(0.,1.,0.));
#512=DIRECTION('',(0.,0.,-1.));
#513=DIRECTION('',(0.,1.,0.));
#514=DIRECTION('',(0.,0.,-1.));
#515=DIRECTION('',(0.,1.,0.));
#516=DIRECTION('',(0.,0.,-1.));
#517=DIRECTION('',(0.,1.,-7.97777420814731E-017));
#518=DIRECTION('',(0.,0.,-1.));
#519=DIRECTION('',(0.,1.,0.));
#520=DIRECTION('',(0.,0.,-1.));
#521=DIRECTION('',(0.,1.,0.));
#522=DIRECTION('',(0.,0.,-1.));
#523=DIRECTION('',(0.,1.,0.));
#524=DIRECTION('',(0.,0.,1.));
#525=DIRECTION('',(0.,-1.,-2.74264581182104E-017));
#526=DIRECTION('',(0.,0.,-1.));
#527=DIRECTION('',(0.,1.,0.));
#528=DIRECTION('',(0.,0.,1.));
#529=DIRECTION('',(0.,-1.,0.));
#530=DIRECTION('',(0.,0.,-1.));
#531=DIRECTION('',(0.,1.,0.));
#532=DIRECTION('',(0.,0.,-1.));
#533=DIRECTION('',(0.,1.,1.42658762424523E-016));
#534=DIRECTION('',(0.,0.,-1.));
#535=DIRECTION('',(0.,1.,0.));
#536=DIRECTION('',(0.,0.,-1.));
#537=DIRECTION('',(0.,1.,0.));
#538=DIRECTION('',(0.,0.,1.));
#539=DIRECTION('',(0.,-1.,-3.57000036042721E-017));
#540=DIRECTION('',(0.,0.,-1.));
#541=DIRECTION('',(0.,1.,0.));
#542=DIRECTION('',(0.,0.,-1.));
#543=DIRECTION('',(0.,1.,0.));
#544=DIRECTION('',(0.,0.,-1.));
#545=DIRECTION('',(0.,1.,0.));
#546=DIRECTION('',(0.,1.,9.86411388300537E-015));
#547=DIRECTION('',(0.,-9.86363768440413E-015,1.));
#548=DIRECTION('',(0.,1.,9.5239720249707E-015));
#549=DIRECTION('',(0.,-9.52363188311267E-015,1.));
#550=DIRECTION('',(0.,0.,1.));
#551=DIRECTION('',(0.,-1.,0.));
#552=DIRECTION('',(0.,0.,-1.));
#553=DIRECTION('',(0.,1.,0.));
#554=CARTESIAN_POINT('',(0.,0.,0.));
#555=CARTESIAN_POINT('',(0.,0.,0.));
#556=CARTESIAN_POINT('',(0.,0.,0.));
#557=CARTESIAN_POINT('',(0.,0.,-33.));
#558=CARTESIAN_POINT('',(0.,0.,5.09999999999993));
#559=CARTESIAN_POINT('',(0.,12.125,5.09999999999993));
#560=CARTESIAN_POINT('',(-20.075,15.0000000000001,5.09999999999993));
#561=CARTESIAN_POINT('',(-8.51836251870027,15.0000000000001,5.09999999999993));
#562=CARTESIAN_POINT('',(8.51836251870027,15.0000000000001,5.09999999999993));
#563=CARTESIAN_POINT('',(0.,0.,5.09999999999993));
#564=CARTESIAN_POINT('',(-8.51836251870054,-14.9999999999999,5.09999999999993));
#565=CARTESIAN_POINT('',(-20.075,-14.9999999999999,5.09999999999993));
#566=CARTESIAN_POINT('',(8.51836251870054,-14.9999999999999,5.09999999999993));
#567=CARTESIAN_POINT('',(0.,0.,5.09999999999993));
#568=CARTESIAN_POINT('',(-7.04927525594826E-029,9.72500000000008,5.09999999999993));
#569=CARTESIAN_POINT('',(10.3953114431458,15.0000000000001,1.42859580374562E-013));
#570=CARTESIAN_POINT('',(10.3953114431458,15.0000000000001,-7.12763181809351E-014));
#571=CARTESIAN_POINT('',(10.3953114431458,15.0000000000001,4.09999999999992));
#572=CARTESIAN_POINT('',(0.,0.,4.09999999999993));
#573=CARTESIAN_POINT('',(10.3953114431461,-14.9999999999999,4.09999999999988));
#574=CARTESIAN_POINT('',(10.3953114431462,-14.9999999999999,-1.47961708245079E-013));
#575=CARTESIAN_POINT('',(10.3953114431461,-14.9999999999999,-7.105427357601E-014));
#576=CARTESIAN_POINT('',(0.,0.,-7.28583859910259E-014));
#577=CARTESIAN_POINT('',(0.,0.,0.));
#578=CARTESIAN_POINT('',(-10.3953114431458,15.0000000000001,1.42859580374562E-013));
#579=CARTESIAN_POINT('',(-10.3953114431458,15.0000000000001,4.09999999999992));
#580=CARTESIAN_POINT('',(-10.3953114431458,15.0000000000001,-7.12763181809351E-014));
#581=CARTESIAN_POINT('',(0.,0.,-7.28583859910259E-014));
#582=CARTESIAN_POINT('',(-10.3953114431461,-14.9999999999999,-7.105427357601E-014));
#583=CARTESIAN_POINT('',(-10.3953114431462,-14.9999999999999,-1.47961708245079E-013));
#584=CARTESIAN_POINT('',(-10.3953114431461,-14.9999999999999,4.09999999999988));
#585=CARTESIAN_POINT('',(0.,0.,4.09999999999993));
#586=CARTESIAN_POINT('',(0.,0.,0.));
#587=CARTESIAN_POINT('',(10.3953114431458,15.0000000000001,4.09999999999992));
#588=CARTESIAN_POINT('',(9.75812221101899,15.0000000000001,4.46294687759866));
#589=CARTESIAN_POINT('',(9.13340635487424,15.0000000000001,4.79628021093199));
#590=CARTESIAN_POINT('',(8.51836251870032,15.0000000000001,5.09999999999991));
#591=CARTESIAN_POINT('',(10.3953114431461,-14.9999999999999,4.09999999999988));
#592=CARTESIAN_POINT('',(9.77932513304012,-14.9999999999999,4.45086956374048));
#593=CARTESIAN_POINT('',(9.15399183070968,-14.9999999999999,4.78611473001697));
#594=CARTESIAN_POINT('',(8.51836251870054,-14.9999999999999,5.09999999999993));
#595=CARTESIAN_POINT('',(0.,0.,4.09999999999993));
#596=CARTESIAN_POINT('',(-8.51836251870031,15.0000000000001,5.09999999999991));
#597=CARTESIAN_POINT('',(-9.13340635487427,15.0000000000001,4.79628021093198));
#598=CARTESIAN_POINT('',(-9.75812221101902,15.0000000000001,4.46294687759864));
#599=CARTESIAN_POINT('',(-10.3953114431458,15.0000000000001,4.09999999999991));
#600=CARTESIAN_POINT('',(-8.51836251870054,-14.9999999999999,5.09999999999993));
#601=CARTESIAN_POINT('',(-9.15399183070968,-14.9999999999999,4.78611473001697));
#602=CARTESIAN_POINT('',(-9.77932513304012,-14.9999999999999,4.45086956374048));
#603=CARTESIAN_POINT('',(-10.3953114431461,-14.9999999999999,4.09999999999988));
#604=CARTESIAN_POINT('',(0.,0.,4.09999999999993));
#605=CARTESIAN_POINT('',(0.,0.,-7.45931094670027E-014));
#606=CARTESIAN_POINT('',(0.,-12.1500000000001,-7.45931094670027E-014));
#607=CARTESIAN_POINT('',(-20.075,15.0000000000001,-7.12763181809351E-014));
#608=CARTESIAN_POINT('',(-20.075,-14.9999999999999,-7.105427357601E-014));
#609=CARTESIAN_POINT('',(-8.51969777638693E-029,18.25,-7.44265760133089E-014));
#610=CARTESIAN_POINT('',(0.,0.,25.4));
#611=CARTESIAN_POINT('',(0.,11.2957060059976,25.4));
#612=CARTESIAN_POINT('',(0.,0.,25.4));
#613=CARTESIAN_POINT('',(0.,6.32735026918976,25.4));
#614=CARTESIAN_POINT('',(0.,6.32735026918976,25.4));
#615=CARTESIAN_POINT('',(0.,0.,25.15));
#616=CARTESIAN_POINT('',(0.,-11.7287187078898,25.15));
#617=CARTESIAN_POINT('',(0.,0.,20.35));
#618=CARTESIAN_POINT('',(0.,14.5,20.35));
#619=CARTESIAN_POINT('',(0.,0.,25.4));
#620=CARTESIAN_POINT('',(0.,0.,17.7999999999999));
#621=CARTESIAN_POINT('',(0.,14.5,17.7999999999999));
#622=CARTESIAN_POINT('',(0.,0.,0.));
#623=CARTESIAN_POINT('',(0.,0.,13.7279437251522));
#624=CARTESIAN_POINT('',(0.,-10.4279437251523,13.7279437251522));
#625=CARTESIAN_POINT('',(0.,0.,17.7999999999999));
#626=CARTESIAN_POINT('',(0.,0.,12.0308874503045));
#627=CARTESIAN_POINT('',(0.,9.72500000000004,12.0308874503045));
#628=CARTESIAN_POINT('',(0.,0.,7.49999999999993));
#629=CARTESIAN_POINT('',(0.,9.72500000000004,7.49999999999993));
#630=CARTESIAN_POINT('',(0.,0.,0.));
#631=CARTESIAN_POINT('',(0.,0.,-6.33012701892215));
#632=CARTESIAN_POINT('',(0.,9.75000000000007,-6.33012701892215));
#633=CARTESIAN_POINT('',(0.,0.,-2.40000000000007));
#634=CARTESIAN_POINT('',(0.,-9.75000000000007,-2.40000000000007));
#635=CARTESIAN_POINT('',(0.,0.,0.));
#636=CARTESIAN_POINT('',(0.,0.,-7.58012701892216));
#637=CARTESIAN_POINT('',(0.,10.084936490539,-7.58012701892216));
#638=CARTESIAN_POINT('',(0.,0.,-10.89711431703));
#639=CARTESIAN_POINT('',(0.,12.0000000000001,-10.89711431703));
#640=CARTESIAN_POINT('',(0.,0.,-7.00000000000007));
#641=CARTESIAN_POINT('',(0.,0.,-31.));
#642=CARTESIAN_POINT('',(0.,12.,-31.));
#643=CARTESIAN_POINT('',(0.,0.,0.));
#644=CARTESIAN_POINT('',(0.,0.,-33.));
#645=CARTESIAN_POINT('',(0.,10.,-33.));
#646=CARTESIAN_POINT('',(0.,0.,-31.));
#647=CARTESIAN_POINT('',(0.,0.,-33.));
#648=CARTESIAN_POINT('',(0.,6.32735026918976,-33.));
#649=CARTESIAN_POINT('',(-6.16472344984919E-030,10.,-33.));
#650=CARTESIAN_POINT('',(0.,0.,-32.));
#651=CARTESIAN_POINT('',(0.,5.75000000000013,-32.));
#652=CARTESIAN_POINT('',(0.,0.,-33.));
#653=CARTESIAN_POINT('',(0.,0.,24.4));
#654=CARTESIAN_POINT('',(0.,5.75000000000013,24.4));
#655=CARTESIAN_POINT('',(0.,0.,0.));
#656=CARTESIAN_POINT('',(0.,0.,24.4));
#657=CARTESIAN_POINT('',(0.,0.,24.9));
#658=CARTESIAN_POINT('',(0.,0.,7.49999999999993));
#659=CARTESIAN_POINT('',(0.,0.,12.0308874503045));
#660=CARTESIAN_POINT('',(-20.075,-14.9999999999999,-7.105427357601E-014));
#661=CARTESIAN_POINT('',(-20.075,15.0000000000001,-7.12763181809351E-014));
#662=CARTESIAN_POINT('',(0.,0.,-2.40000000000007));
#663=CARTESIAN_POINT('',(0.,0.,-6.33012701892215));
#664=MECHANICAL_DESIGN_GEOMETRIC_PRESENTATION_REPRESENTATION('',(#365,#366,
#367,#368),#665);
#665=(
GEOMETRIC_REPRESENTATION_CONTEXT(3)
GLOBAL_UNCERTAINTY_ASSIGNED_CONTEXT((#666))
GLOBAL_UNIT_ASSIGNED_CONTEXT((#672,#668,#667))
REPRESENTATION_CONTEXT('1498482514067','TOP_LEVEL_ASSEMBLY_PART')
);
#666=UNCERTAINTY_MEASURE_WITH_UNIT(LENGTH_MEASURE(0.0508),#672,
'DISTANCE_ACCURACY_VALUE','Maximum Tolerance applied to model');
#667=(
NAMED_UNIT(*)
SI_UNIT($,.STERADIAN.)
SOLID_ANGLE_UNIT()
);
#668=(
CONVERSION_BASED_UNIT('DEGREE',#670)
NAMED_UNIT(#669)
PLANE_ANGLE_UNIT()
);
#669=DIMENSIONAL_EXPONENTS(0.,0.,0.,0.,0.,0.,0.);
#670=PLANE_ANGLE_MEASURE_WITH_UNIT(PLANE_ANGLE_MEASURE(0.0174532925),#671);
#671=(
NAMED_UNIT(*)
PLANE_ANGLE_UNIT()
SI_UNIT($,.RADIAN.)
);
#672=(
LENGTH_UNIT()
NAMED_UNIT(*)
SI_UNIT(.MILLI.,.METRE.)
);
ENDSEC;
END-ISO-10303-21;
