ISO-10303-21;
HEADER;
/* Generated by software containing ST-Developer
 * from STEP Tools, Inc. (www.steptools.com) 
 */
/* OPTION: using custom schema-name function */

FILE_DESCRIPTION(
/* description */ (''),
/* implementation_level */ '2;1');

FILE_NAME(
/* name */ '1498472663950.stp',
/* time_stamp */ '2017-06-26T12:24:28+02:00',
/* author */ (''),
/* organization */ ('SMS'),
/* preprocessor_version */ 'ST-DEVELOPER v15',
/* originating_system */ 'SIEMENS PLM Software NX 8.5',
/* authorisation */ '');

FILE_SCHEMA (('AUTOMOTIVE_DESIGN { 1 0 10303 214 3 1 1 1 }'));
ENDSEC;

DATA;
#10=CONSTRUCTIVE_GEOMETRY_REPRESENTATION_RELATIONSHIP(
'supplemental geometry','',#24,#11);
#11=CONSTRUCTIVE_GEOMETRY_REPRESENTATION('supplemental geometry',(#417,
#418,#419),#723);
#12=SHAPE_REPRESENTATION_RELATIONSHIP('None',
'relationship between 201120613MOD000_00-None and 201120613MOD000_00-N
one',#24,#13);
#13=ADVANCED_BREP_SHAPE_REPRESENTATION('201120613MOD000_00-None',(#30),
#723);
#14=SHAPE_DEFINITION_REPRESENTATION(#15,#24);
#15=PRODUCT_DEFINITION_SHAPE('','',#16);
#16=PRODUCT_DEFINITION(' ','',#18,#17);
#17=PRODUCT_DEFINITION_CONTEXT('part definition',#23,'design');
#18=PRODUCT_DEFINITION_FORMATION_WITH_SPECIFIED_SOURCE(' ',' ',#20,
 .NOT_KNOWN.);
#19=PRODUCT_RELATED_PRODUCT_CATEGORY('part','',(#20));
#20=PRODUCT('201120613MOD000_00','201120613MOD000_00',' ',(#21));
#21=PRODUCT_CONTEXT(' ',#23,'mechanical');
#22=APPLICATION_PROTOCOL_DEFINITION('international standard',
'automotive_design',2010,#23);
#23=APPLICATION_CONTEXT(
'core data for automotive mechanical design processes');
#24=SHAPE_REPRESENTATION('201120613MOD000_00-None',(#416),#723);
#25=SURFACE_STYLE_USAGE(.BOTH.,#26);
#26=SURFACE_SIDE_STYLE('',(#27));
#27=SURFACE_STYLE_FILL_AREA(#28);
#28=FILL_AREA_STYLE('',(#29));
#29=FILL_AREA_STYLE_COLOUR('',#412);
#30=MANIFOLD_SOLID_BREP('NOCUT',#31);
#31=CLOSED_SHELL('',(#100,#101,#102,#103,#104,#105,#106,#107,#108,#109,
#110,#111,#112,#113,#114,#115,#116,#117,#118,#119,#120,#121,#122,#123,#124,
#125,#126,#127,#128));
#32=TOROIDAL_SURFACE('',#449,8.65,0.4);
#33=TOROIDAL_SURFACE('',#472,7.15000000000006,0.4);
#34=TOROIDAL_SURFACE('',#473,8.223,2.);
#35=TOROIDAL_SURFACE('',#474,8.223,2.);
#36=CONICAL_SURFACE('',#432,9.6,69.9999999999999);
#37=CONICAL_SURFACE('',#438,7.34494244276166,30.0000000000001);
#38=CONICAL_SURFACE('',#442,9.398,45.);
#39=CONICAL_SURFACE('',#453,8.25,30.);
#40=CONICAL_SURFACE('',#457,8.5,44.9999999999997);
#41=CONICAL_SURFACE('',#464,6.75000000000013,30.0000000000024);
#42=CONICAL_SURFACE('',#468,8.,45.0000000000001);
#43=B_SPLINE_CURVE_WITH_KNOTS('',3,(#644,#645,#646,#647),.UNSPECIFIED.,
 .F.,.F.,(4,4),(0.,1.),.UNSPECIFIED.);
#44=B_SPLINE_CURVE_WITH_KNOTS('',3,(#651,#652,#653,#654),.UNSPECIFIED.,
 .F.,.F.,(4,4),(0.,1.),.UNSPECIFIED.);
#45=CYLINDRICAL_SURFACE('',#428,11.);
#46=CYLINDRICAL_SURFACE('',#429,11.);
#47=CYLINDRICAL_SURFACE('',#440,9.39799999999999);
#48=CYLINDRICAL_SURFACE('',#445,6.223);
#49=CYLINDRICAL_SURFACE('',#451,8.25);
#50=CYLINDRICAL_SURFACE('',#455,8.5);
#51=CYLINDRICAL_SURFACE('',#462,6.75000000000006);
#52=CYLINDRICAL_SURFACE('',#466,8.00000000000006);
#53=CYLINDRICAL_SURFACE('',#471,3.50000000000001);
#54=FACE_BOUND('',#145,.T.);
#55=FACE_BOUND('',#146,.T.);
#56=FACE_BOUND('',#149,.T.);
#57=FACE_BOUND('',#150,.T.);
#58=FACE_BOUND('',#152,.T.);
#59=FACE_BOUND('',#153,.T.);
#60=FACE_BOUND('',#154,.T.);
#61=FACE_BOUND('',#155,.T.);
#62=FACE_BOUND('',#156,.T.);
#63=FACE_BOUND('',#157,.T.);
#64=FACE_BOUND('',#158,.T.);
#65=FACE_BOUND('',#159,.T.);
#66=FACE_BOUND('',#160,.T.);
#67=FACE_BOUND('',#161,.T.);
#68=FACE_BOUND('',#162,.T.);
#69=FACE_BOUND('',#163,.T.);
#70=FACE_BOUND('',#164,.T.);
#71=FACE_BOUND('',#165,.T.);
#72=FACE_BOUND('',#166,.T.);
#73=FACE_BOUND('',#167,.T.);
#74=FACE_BOUND('',#168,.T.);
#75=FACE_BOUND('',#169,.T.);
#76=FACE_BOUND('',#170,.T.);
#77=FACE_BOUND('',#171,.T.);
#78=FACE_BOUND('',#172,.T.);
#79=FACE_BOUND('',#173,.T.);
#80=FACE_BOUND('',#174,.T.);
#81=FACE_BOUND('',#175,.T.);
#82=FACE_BOUND('',#176,.T.);
#83=FACE_BOUND('',#177,.T.);
#84=FACE_BOUND('',#178,.T.);
#85=FACE_BOUND('',#179,.T.);
#86=FACE_BOUND('',#180,.T.);
#87=FACE_BOUND('',#181,.T.);
#88=FACE_BOUND('',#182,.T.);
#89=FACE_BOUND('',#183,.T.);
#90=FACE_BOUND('',#184,.T.);
#91=FACE_BOUND('',#185,.T.);
#92=FACE_BOUND('',#186,.T.);
#93=FACE_BOUND('',#187,.T.);
#94=FACE_BOUND('',#188,.T.);
#95=FACE_BOUND('',#189,.T.);
#96=FACE_BOUND('',#190,.T.);
#97=FACE_BOUND('',#191,.T.);
#98=FACE_BOUND('',#192,.T.);
#99=FACE_BOUND('',#193,.T.);
#100=ADVANCED_FACE('',(#138),#129,.F.);
#101=ADVANCED_FACE('',(#54,#55),#130,.F.);
#102=ADVANCED_FACE('',(#139),#45,.T.);
#103=ADVANCED_FACE('',(#140),#46,.T.);
#104=ADVANCED_FACE('',(#56,#57),#36,.F.);
#105=ADVANCED_FACE('',(#141),#131,.F.);
#106=ADVANCED_FACE('',(#58,#59),#132,.F.);
#107=ADVANCED_FACE('',(#60,#61),#37,.T.);
#108=ADVANCED_FACE('',(#62,#63),#47,.T.);
#109=ADVANCED_FACE('',(#64,#65),#38,.T.);
#110=ADVANCED_FACE('',(#66,#67),#48,.T.);
#111=ADVANCED_FACE('',(#68,#69),#133,.F.);
#112=ADVANCED_FACE('',(#70,#71),#32,.F.);
#113=ADVANCED_FACE('',(#72,#73),#49,.T.);
#114=ADVANCED_FACE('',(#74,#75),#39,.T.);
#115=ADVANCED_FACE('',(#76,#77),#50,.T.);
#116=ADVANCED_FACE('',(#78,#79),#40,.T.);
#117=ADVANCED_FACE('',(#80,#81),#134,.F.);
#118=ADVANCED_FACE('',(#82,#83),#51,.T.);
#119=ADVANCED_FACE('',(#84,#85),#41,.T.);
#120=ADVANCED_FACE('',(#86,#87),#52,.T.);
#121=ADVANCED_FACE('',(#88,#89),#42,.T.);
#122=ADVANCED_FACE('',(#90,#91),#135,.F.);
#123=ADVANCED_FACE('',(#92,#93),#53,.F.);
#124=ADVANCED_FACE('',(#94,#95),#33,.F.);
#125=ADVANCED_FACE('',(#96,#97),#34,.F.);
#126=ADVANCED_FACE('',(#98,#99),#35,.F.);
#127=ADVANCED_FACE('',(#142),#136,.F.);
#128=ADVANCED_FACE('',(#143),#137,.T.);
#129=PLANE('',#422);
#130=PLANE('',#426);
#131=PLANE('',#433);
#132=PLANE('',#436);
#133=PLANE('',#447);
#134=PLANE('',#459);
#135=PLANE('',#470);
#136=PLANE('',#475);
#137=PLANE('',#476);
#138=FACE_OUTER_BOUND('',#144,.T.);
#139=FACE_OUTER_BOUND('',#147,.T.);
#140=FACE_OUTER_BOUND('',#148,.T.);
#141=FACE_OUTER_BOUND('',#151,.T.);
#142=FACE_OUTER_BOUND('',#194,.T.);
#143=FACE_OUTER_BOUND('',#195,.T.);
#144=EDGE_LOOP('',(#216,#217,#218,#219));
#145=EDGE_LOOP('',(#220));
#146=EDGE_LOOP('',(#221,#222,#223,#224));
#147=EDGE_LOOP('',(#225,#226,#227,#228));
#148=EDGE_LOOP('',(#229,#230,#231,#232));
#149=EDGE_LOOP('',(#233));
#150=EDGE_LOOP('',(#234,#235,#236,#237));
#151=EDGE_LOOP('',(#238,#239,#240,#241));
#152=EDGE_LOOP('',(#242));
#153=EDGE_LOOP('',(#243));
#154=EDGE_LOOP('',(#244));
#155=EDGE_LOOP('',(#245));
#156=EDGE_LOOP('',(#246));
#157=EDGE_LOOP('',(#247));
#158=EDGE_LOOP('',(#248));
#159=EDGE_LOOP('',(#249));
#160=EDGE_LOOP('',(#250));
#161=EDGE_LOOP('',(#251));
#162=EDGE_LOOP('',(#252));
#163=EDGE_LOOP('',(#253));
#164=EDGE_LOOP('',(#254));
#165=EDGE_LOOP('',(#255));
#166=EDGE_LOOP('',(#256));
#167=EDGE_LOOP('',(#257));
#168=EDGE_LOOP('',(#258));
#169=EDGE_LOOP('',(#259));
#170=EDGE_LOOP('',(#260));
#171=EDGE_LOOP('',(#261));
#172=EDGE_LOOP('',(#262));
#173=EDGE_LOOP('',(#263));
#174=EDGE_LOOP('',(#264));
#175=EDGE_LOOP('',(#265));
#176=EDGE_LOOP('',(#266));
#177=EDGE_LOOP('',(#267));
#178=EDGE_LOOP('',(#268));
#179=EDGE_LOOP('',(#269));
#180=EDGE_LOOP('',(#270));
#181=EDGE_LOOP('',(#271));
#182=EDGE_LOOP('',(#272));
#183=EDGE_LOOP('',(#273));
#184=EDGE_LOOP('',(#274));
#185=EDGE_LOOP('',(#275));
#186=EDGE_LOOP('',(#276));
#187=EDGE_LOOP('',(#277));
#188=EDGE_LOOP('',(#278));
#189=EDGE_LOOP('',(#279));
#190=EDGE_LOOP('',(#280));
#191=EDGE_LOOP('',(#281));
#192=EDGE_LOOP('',(#282));
#193=EDGE_LOOP('',(#283));
#194=EDGE_LOOP('',(#284,#285,#286,#287,#288,#289));
#195=EDGE_LOOP('',(#290,#291,#292,#293,#294,#295));
#196=LINE('',#616,#206);
#197=LINE('',#620,#207);
#198=LINE('',#624,#208);
#199=LINE('',#629,#209);
#200=LINE('',#633,#210);
#201=LINE('',#635,#211);
#202=LINE('',#639,#212);
#203=LINE('',#640,#213);
#204=LINE('',#656,#214);
#205=LINE('',#657,#215);
#206=VECTOR('',#487,1.);
#207=VECTOR('',#490,1.);
#208=VECTOR('',#495,1.);
#209=VECTOR('',#498,1.);
#210=VECTOR('',#503,1.);
#211=VECTOR('',#504,1.);
#212=VECTOR('',#509,1.);
#213=VECTOR('',#510,1.);
#214=VECTOR('',#519,1.);
#215=VECTOR('',#520,1.);
#216=ORIENTED_EDGE('',*,*,#330,.T.);
#217=ORIENTED_EDGE('',*,*,#331,.T.);
#218=ORIENTED_EDGE('',*,*,#332,.F.);
#219=ORIENTED_EDGE('',*,*,#333,.F.);
#220=ORIENTED_EDGE('',*,*,#334,.T.);
#221=ORIENTED_EDGE('',*,*,#335,.F.);
#222=ORIENTED_EDGE('',*,*,#336,.F.);
#223=ORIENTED_EDGE('',*,*,#337,.T.);
#224=ORIENTED_EDGE('',*,*,#338,.F.);
#225=ORIENTED_EDGE('',*,*,#339,.T.);
#226=ORIENTED_EDGE('',*,*,#338,.T.);
#227=ORIENTED_EDGE('',*,*,#340,.F.);
#228=ORIENTED_EDGE('',*,*,#341,.F.);
#229=ORIENTED_EDGE('',*,*,#342,.T.);
#230=ORIENTED_EDGE('',*,*,#330,.F.);
#231=ORIENTED_EDGE('',*,*,#343,.F.);
#232=ORIENTED_EDGE('',*,*,#336,.T.);
#233=ORIENTED_EDGE('',*,*,#344,.F.);
#234=ORIENTED_EDGE('',*,*,#345,.F.);
#235=ORIENTED_EDGE('',*,*,#346,.T.);
#236=ORIENTED_EDGE('',*,*,#347,.T.);
#237=ORIENTED_EDGE('',*,*,#332,.T.);
#238=ORIENTED_EDGE('',*,*,#346,.F.);
#239=ORIENTED_EDGE('',*,*,#348,.T.);
#240=ORIENTED_EDGE('',*,*,#341,.T.);
#241=ORIENTED_EDGE('',*,*,#349,.F.);
#242=ORIENTED_EDGE('',*,*,#350,.F.);
#243=ORIENTED_EDGE('',*,*,#351,.T.);
#244=ORIENTED_EDGE('',*,*,#352,.F.);
#245=ORIENTED_EDGE('',*,*,#350,.T.);
#246=ORIENTED_EDGE('',*,*,#353,.F.);
#247=ORIENTED_EDGE('',*,*,#352,.T.);
#248=ORIENTED_EDGE('',*,*,#354,.T.);
#249=ORIENTED_EDGE('',*,*,#353,.T.);
#250=ORIENTED_EDGE('',*,*,#355,.T.);
#251=ORIENTED_EDGE('',*,*,#356,.T.);
#252=ORIENTED_EDGE('',*,*,#357,.F.);
#253=ORIENTED_EDGE('',*,*,#344,.T.);
#254=ORIENTED_EDGE('',*,*,#358,.F.);
#255=ORIENTED_EDGE('',*,*,#357,.T.);
#256=ORIENTED_EDGE('',*,*,#359,.F.);
#257=ORIENTED_EDGE('',*,*,#358,.T.);
#258=ORIENTED_EDGE('',*,*,#360,.F.);
#259=ORIENTED_EDGE('',*,*,#359,.T.);
#260=ORIENTED_EDGE('',*,*,#361,.F.);
#261=ORIENTED_EDGE('',*,*,#360,.T.);
#262=ORIENTED_EDGE('',*,*,#362,.F.);
#263=ORIENTED_EDGE('',*,*,#361,.T.);
#264=ORIENTED_EDGE('',*,*,#363,.T.);
#265=ORIENTED_EDGE('',*,*,#362,.T.);
#266=ORIENTED_EDGE('',*,*,#364,.T.);
#267=ORIENTED_EDGE('',*,*,#365,.F.);
#268=ORIENTED_EDGE('',*,*,#366,.F.);
#269=ORIENTED_EDGE('',*,*,#365,.T.);
#270=ORIENTED_EDGE('',*,*,#367,.F.);
#271=ORIENTED_EDGE('',*,*,#366,.T.);
#272=ORIENTED_EDGE('',*,*,#368,.F.);
#273=ORIENTED_EDGE('',*,*,#367,.T.);
#274=ORIENTED_EDGE('',*,*,#369,.F.);
#275=ORIENTED_EDGE('',*,*,#368,.T.);
#276=ORIENTED_EDGE('',*,*,#351,.F.);
#277=ORIENTED_EDGE('',*,*,#369,.T.);
#278=ORIENTED_EDGE('',*,*,#363,.F.);
#279=ORIENTED_EDGE('',*,*,#364,.F.);
#280=ORIENTED_EDGE('',*,*,#356,.F.);
#281=ORIENTED_EDGE('',*,*,#334,.F.);
#282=ORIENTED_EDGE('',*,*,#354,.F.);
#283=ORIENTED_EDGE('',*,*,#355,.F.);
#284=ORIENTED_EDGE('',*,*,#337,.F.);
#285=ORIENTED_EDGE('',*,*,#343,.T.);
#286=ORIENTED_EDGE('',*,*,#333,.T.);
#287=ORIENTED_EDGE('',*,*,#347,.F.);
#288=ORIENTED_EDGE('',*,*,#349,.T.);
#289=ORIENTED_EDGE('',*,*,#340,.T.);
#290=ORIENTED_EDGE('',*,*,#339,.F.);
#291=ORIENTED_EDGE('',*,*,#348,.F.);
#292=ORIENTED_EDGE('',*,*,#345,.T.);
#293=ORIENTED_EDGE('',*,*,#331,.F.);
#294=ORIENTED_EDGE('',*,*,#342,.F.);
#295=ORIENTED_EDGE('',*,*,#335,.T.);
#296=VERTEX_POINT('',#614);
#297=VERTEX_POINT('',#615);
#298=VERTEX_POINT('',#617);
#299=VERTEX_POINT('',#619);
#300=VERTEX_POINT('',#623);
#301=VERTEX_POINT('',#625);
#302=VERTEX_POINT('',#626);
#303=VERTEX_POINT('',#628);
#304=VERTEX_POINT('',#630);
#305=VERTEX_POINT('',#634);
#306=VERTEX_POINT('',#636);
#307=VERTEX_POINT('',#643);
#308=VERTEX_POINT('',#648);
#309=VERTEX_POINT('',#650);
#310=VERTEX_POINT('',#660);
#311=VERTEX_POINT('',#662);
#312=VERTEX_POINT('',#665);
#313=VERTEX_POINT('',#668);
#314=VERTEX_POINT('',#671);
#315=VERTEX_POINT('',#674);
#316=VERTEX_POINT('',#676);
#317=VERTEX_POINT('',#679);
#318=VERTEX_POINT('',#682);
#319=VERTEX_POINT('',#685);
#320=VERTEX_POINT('',#688);
#321=VERTEX_POINT('',#691);
#322=VERTEX_POINT('',#694);
#323=VERTEX_POINT('',#697);
#324=VERTEX_POINT('',#700);
#325=VERTEX_POINT('',#702);
#326=VERTEX_POINT('',#705);
#327=VERTEX_POINT('',#708);
#328=VERTEX_POINT('',#711);
#329=VERTEX_POINT('',#714);
#330=EDGE_CURVE('',#296,#297,#370,.T.);
#331=EDGE_CURVE('',#297,#298,#196,.T.);
#332=EDGE_CURVE('',#299,#298,#371,.T.);
#333=EDGE_CURVE('',#296,#299,#197,.T.);
#334=EDGE_CURVE('',#300,#300,#372,.T.);
#335=EDGE_CURVE('',#301,#302,#198,.T.);
#336=EDGE_CURVE('',#303,#301,#373,.T.);
#337=EDGE_CURVE('',#303,#304,#199,.T.);
#338=EDGE_CURVE('',#302,#304,#374,.T.);
#339=EDGE_CURVE('',#305,#302,#200,.T.);
#340=EDGE_CURVE('',#306,#304,#201,.T.);
#341=EDGE_CURVE('',#305,#306,#375,.T.);
#342=EDGE_CURVE('',#301,#297,#202,.T.);
#343=EDGE_CURVE('',#303,#296,#203,.T.);
#344=EDGE_CURVE('',#307,#307,#376,.T.);
#345=EDGE_CURVE('',#308,#298,#43,.T.);
#346=EDGE_CURVE('',#308,#309,#377,.T.);
#347=EDGE_CURVE('',#309,#299,#44,.T.);
#348=EDGE_CURVE('',#308,#305,#204,.T.);
#349=EDGE_CURVE('',#309,#306,#205,.T.);
#350=EDGE_CURVE('',#310,#310,#378,.T.);
#351=EDGE_CURVE('',#311,#311,#379,.T.);
#352=EDGE_CURVE('',#312,#312,#380,.T.);
#353=EDGE_CURVE('',#313,#313,#381,.T.);
#354=EDGE_CURVE('',#314,#314,#382,.T.);
#355=EDGE_CURVE('',#315,#315,#383,.T.);
#356=EDGE_CURVE('',#316,#316,#384,.T.);
#357=EDGE_CURVE('',#317,#317,#385,.T.);
#358=EDGE_CURVE('',#318,#318,#386,.T.);
#359=EDGE_CURVE('',#319,#319,#387,.T.);
#360=EDGE_CURVE('',#320,#320,#388,.T.);
#361=EDGE_CURVE('',#321,#321,#389,.T.);
#362=EDGE_CURVE('',#322,#322,#390,.T.);
#363=EDGE_CURVE('',#323,#323,#391,.T.);
#364=EDGE_CURVE('',#324,#324,#392,.T.);
#365=EDGE_CURVE('',#325,#325,#393,.T.);
#366=EDGE_CURVE('',#326,#326,#394,.T.);
#367=EDGE_CURVE('',#327,#327,#395,.T.);
#368=EDGE_CURVE('',#328,#328,#396,.T.);
#369=EDGE_CURVE('',#329,#329,#397,.T.);
#370=CIRCLE('',#420,11.);
#371=CIRCLE('',#421,9.6);
#372=CIRCLE('',#423,8.223);
#373=CIRCLE('',#424,11.);
#374=CIRCLE('',#425,11.);
#375=CIRCLE('',#427,11.);
#376=CIRCLE('',#430,9.05050451610908);
#377=CIRCLE('',#431,9.6);
#378=CIRCLE('',#434,7.34494244276166);
#379=CIRCLE('',#435,3.49999999999999);
#380=CIRCLE('',#437,9.39799999999998);
#381=CIRCLE('',#439,9.398);
#382=CIRCLE('',#441,6.80878643762691);
#383=CIRCLE('',#443,6.223);
#384=CIRCLE('',#444,6.223);
#385=CIRCLE('',#446,8.65);
#386=CIRCLE('',#448,8.25);
#387=CIRCLE('',#450,8.25);
#388=CIRCLE('',#452,8.5);
#389=CIRCLE('',#454,8.5);
#390=CIRCLE('',#456,8.);
#391=CIRCLE('',#458,7.15000000000006);
#392=CIRCLE('',#460,6.75000000000006);
#393=CIRCLE('',#461,6.75000000000013);
#394=CIRCLE('',#463,8.00000000000013);
#395=CIRCLE('',#465,8.);
#396=CIRCLE('',#467,5.99999999999999);
#397=CIRCLE('',#469,3.50000000000002);
#398=PRESENTATION_LAYER_ASSIGNMENT('1','Layer 1',(#417,#418,#419));
#399=PRESENTATION_LAYER_ASSIGNMENT('4','Layer 4',(#30));
#400=STYLED_ITEM('',(#404),#417);
#401=STYLED_ITEM('',(#405),#418);
#402=STYLED_ITEM('',(#406),#419);
#403=STYLED_ITEM('',(#407),#30);
#404=PRESENTATION_STYLE_ASSIGNMENT((#408));
#405=PRESENTATION_STYLE_ASSIGNMENT((#409));
#406=PRESENTATION_STYLE_ASSIGNMENT((#410));
#407=PRESENTATION_STYLE_ASSIGNMENT((#25));
#408=CURVE_STYLE('',#413,POSITIVE_LENGTH_MEASURE(0.13),#411);
#409=CURVE_STYLE('',#414,POSITIVE_LENGTH_MEASURE(0.13),#411);
#410=CURVE_STYLE('',#415,POSITIVE_LENGTH_MEASURE(0.13),#411);
#411=COLOUR_RGB('Strong Stone',0.576470588235294,0.54508278019379,0.392156862745098);
#412=COLOUR_RGB('TLS_NOCUT',0.499992370489052,0.499992370489052,0.499992370489052);
#413=DRAUGHTING_PRE_DEFINED_CURVE_FONT('continuous');
#414=DRAUGHTING_PRE_DEFINED_CURVE_FONT('continuous');
#415=DRAUGHTING_PRE_DEFINED_CURVE_FONT('continuous');
#416=AXIS2_PLACEMENT_3D('',#609,#477,#478);
#417=AXIS2_PLACEMENT_3D('PCS',#610,#479,#480);
#418=AXIS2_PLACEMENT_3D('MCS',#611,#481,#482);
#419=AXIS2_PLACEMENT_3D('CSW',#612,#483,#484);
#420=AXIS2_PLACEMENT_3D('',#613,#485,#486);
#421=AXIS2_PLACEMENT_3D('',#618,#488,#489);
#422=AXIS2_PLACEMENT_3D('',#621,#491,#492);
#423=AXIS2_PLACEMENT_3D('',#622,#493,#494);
#424=AXIS2_PLACEMENT_3D('',#627,#496,#497);
#425=AXIS2_PLACEMENT_3D('',#631,#499,#500);
#426=AXIS2_PLACEMENT_3D('',#632,#501,#502);
#427=AXIS2_PLACEMENT_3D('',#637,#505,#506);
#428=AXIS2_PLACEMENT_3D('',#638,#507,#508);
#429=AXIS2_PLACEMENT_3D('',#641,#511,#512);
#430=AXIS2_PLACEMENT_3D('',#642,#513,#514);
#431=AXIS2_PLACEMENT_3D('',#649,#515,#516);
#432=AXIS2_PLACEMENT_3D('',#655,#517,#518);
#433=AXIS2_PLACEMENT_3D('',#658,#521,#522);
#434=AXIS2_PLACEMENT_3D('',#659,#523,#524);
#435=AXIS2_PLACEMENT_3D('',#661,#525,#526);
#436=AXIS2_PLACEMENT_3D('',#663,#527,#528);
#437=AXIS2_PLACEMENT_3D('',#664,#529,#530);
#438=AXIS2_PLACEMENT_3D('',#666,#531,#532);
#439=AXIS2_PLACEMENT_3D('',#667,#533,#534);
#440=AXIS2_PLACEMENT_3D('',#669,#535,#536);
#441=AXIS2_PLACEMENT_3D('',#670,#537,#538);
#442=AXIS2_PLACEMENT_3D('',#672,#539,#540);
#443=AXIS2_PLACEMENT_3D('',#673,#541,#542);
#444=AXIS2_PLACEMENT_3D('',#675,#543,#544);
#445=AXIS2_PLACEMENT_3D('',#677,#545,#546);
#446=AXIS2_PLACEMENT_3D('',#678,#547,#548);
#447=AXIS2_PLACEMENT_3D('',#680,#549,#550);
#448=AXIS2_PLACEMENT_3D('',#681,#551,#552);
#449=AXIS2_PLACEMENT_3D('',#683,#553,#554);
#450=AXIS2_PLACEMENT_3D('',#684,#555,#556);
#451=AXIS2_PLACEMENT_3D('',#686,#557,#558);
#452=AXIS2_PLACEMENT_3D('',#687,#559,#560);
#453=AXIS2_PLACEMENT_3D('',#689,#561,#562);
#454=AXIS2_PLACEMENT_3D('',#690,#563,#564);
#455=AXIS2_PLACEMENT_3D('',#692,#565,#566);
#456=AXIS2_PLACEMENT_3D('',#693,#567,#568);
#457=AXIS2_PLACEMENT_3D('',#695,#569,#570);
#458=AXIS2_PLACEMENT_3D('',#696,#571,#572);
#459=AXIS2_PLACEMENT_3D('',#698,#573,#574);
#460=AXIS2_PLACEMENT_3D('',#699,#575,#576);
#461=AXIS2_PLACEMENT_3D('',#701,#577,#578);
#462=AXIS2_PLACEMENT_3D('',#703,#579,#580);
#463=AXIS2_PLACEMENT_3D('',#704,#581,#582);
#464=AXIS2_PLACEMENT_3D('',#706,#583,#584);
#465=AXIS2_PLACEMENT_3D('',#707,#585,#586);
#466=AXIS2_PLACEMENT_3D('',#709,#587,#588);
#467=AXIS2_PLACEMENT_3D('',#710,#589,#590);
#468=AXIS2_PLACEMENT_3D('',#712,#591,#592);
#469=AXIS2_PLACEMENT_3D('',#713,#593,#594);
#470=AXIS2_PLACEMENT_3D('',#715,#595,#596);
#471=AXIS2_PLACEMENT_3D('',#716,#597,#598);
#472=AXIS2_PLACEMENT_3D('',#717,#599,#600);
#473=AXIS2_PLACEMENT_3D('',#718,#601,#602);
#474=AXIS2_PLACEMENT_3D('',#719,#603,#604);
#475=AXIS2_PLACEMENT_3D('',#720,#605,#606);
#476=AXIS2_PLACEMENT_3D('',#721,#607,#608);
#477=DIRECTION('',(0.,0.,1.));
#478=DIRECTION('',(1.,0.,0.));
#479=DIRECTION('',(0.,0.,1.));
#480=DIRECTION('',(1.,0.,0.));
#481=DIRECTION('',(0.,0.,1.));
#482=DIRECTION('',(1.,0.,0.));
#483=DIRECTION('',(0.,0.,1.));
#484=DIRECTION('',(1.,0.,0.));
#485=DIRECTION('',(0.,0.,-1.));
#486=DIRECTION('',(0.,1.,0.));
#487=DIRECTION('',(1.,0.,0.));
#488=DIRECTION('',(0.,0.,-1.));
#489=DIRECTION('',(0.,1.,0.));
#490=DIRECTION('',(1.,0.,0.));
#491=DIRECTION('',(0.,0.,1.));
#492=DIRECTION('',(0.,-1.,0.));
#493=DIRECTION('',(0.,0.,-1.));
#494=DIRECTION('',(0.,1.,0.));
#495=DIRECTION('',(1.,0.,0.));
#496=DIRECTION('',(0.,0.,-1.));
#497=DIRECTION('',(0.,1.,0.));
#498=DIRECTION('',(1.,0.,0.));
#499=DIRECTION('',(0.,0.,-1.));
#500=DIRECTION('',(0.,1.,0.));
#501=DIRECTION('',(0.,0.,-1.));
#502=DIRECTION('',(0.,1.,0.));
#503=DIRECTION('',(0.,0.,1.));
#504=DIRECTION('',(0.,0.,1.));
#505=DIRECTION('',(0.,0.,-1.));
#506=DIRECTION('',(0.,1.,0.));
#507=DIRECTION('',(0.,0.,-1.));
#508=DIRECTION('',(0.,1.,0.));
#509=DIRECTION('',(0.,0.,-1.));
#510=DIRECTION('',(0.,0.,-1.));
#511=DIRECTION('',(0.,0.,-1.));
#512=DIRECTION('',(0.,1.,0.));
#513=DIRECTION('',(0.,0.,-1.));
#514=DIRECTION('',(0.,1.,0.));
#515=DIRECTION('',(0.,0.,-1.));
#516=DIRECTION('',(0.,1.,0.));
#517=DIRECTION('',(0.,0.,-1.));
#518=DIRECTION('',(0.,1.,3.04225586552527E-017));
#519=DIRECTION('',(1.,0.,0.));
#520=DIRECTION('',(1.,0.,0.));
#521=DIRECTION('',(0.,0.,1.));
#522=DIRECTION('',(0.,-1.,0.));
#523=DIRECTION('',(0.,0.,-1.));
#524=DIRECTION('',(0.,1.,0.));
#525=DIRECTION('',(0.,0.,-1.));
#526=DIRECTION('',(0.,1.,0.));
#527=DIRECTION('',(0.,0.,-1.));
#528=DIRECTION('',(0.,1.,0.));
#529=DIRECTION('',(0.,0.,-1.));
#530=DIRECTION('',(0.,1.,0.));
#531=DIRECTION('',(0.,0.,-1.));
#532=DIRECTION('',(0.,1.,-7.71390110233263E-017));
#533=DIRECTION('',(0.,0.,-1.));
#534=DIRECTION('',(0.,1.,0.));
#535=DIRECTION('',(0.,0.,-1.));
#536=DIRECTION('',(0.,1.,0.));
#537=DIRECTION('',(0.,0.,1.));
#538=DIRECTION('',(0.,-1.,0.));
#539=DIRECTION('',(0.,0.,1.));
#540=DIRECTION('',(0.,-1.,-2.92157296642214E-017));
#541=DIRECTION('',(0.,0.,-1.));
#542=DIRECTION('',(0.,1.,0.));
#543=DIRECTION('',(0.,0.,1.));
#544=DIRECTION('',(0.,1.,0.));
#545=DIRECTION('',(0.,0.,-1.));
#546=DIRECTION('',(0.,1.,0.));
#547=DIRECTION('',(0.,0.,-1.));
#548=DIRECTION('',(0.,1.,0.));
#549=DIRECTION('',(0.,0.,1.));
#550=DIRECTION('',(0.,-1.,0.));
#551=DIRECTION('',(0.,0.,-1.));
#552=DIRECTION('',(0.,1.,0.));
#553=DIRECTION('',(0.,0.,-1.));
#554=DIRECTION('',(0.,1.,0.));
#555=DIRECTION('',(0.,0.,-1.));
#556=DIRECTION('',(0.,1.,0.));
#557=DIRECTION('',(0.,0.,-1.));
#558=DIRECTION('',(0.,1.,0.));
#559=DIRECTION('',(0.,0.,-1.));
#560=DIRECTION('',(0.,1.,0.));
#561=DIRECTION('',(0.,0.,-1.));
#562=DIRECTION('',(0.,1.,-1.47374407886244E-016));
#563=DIRECTION('',(0.,0.,-1.));
#564=DIRECTION('',(0.,1.,0.));
#565=DIRECTION('',(0.,0.,-1.));
#566=DIRECTION('',(0.,1.,0.));
#567=DIRECTION('',(0.,0.,-1.));
#568=DIRECTION('',(0.,1.,0.));
#569=DIRECTION('',(0.,0.,1.));
#570=DIRECTION('',(0.,-1.,-3.52621033788051E-017));
#571=DIRECTION('',(0.,0.,1.));
#572=DIRECTION('',(0.,-1.,0.));
#573=DIRECTION('',(0.,0.,1.));
#574=DIRECTION('',(0.,-1.,0.));
#575=DIRECTION('',(0.,0.,-1.));
#576=DIRECTION('',(0.,-1.,0.));
#577=DIRECTION('',(0.,0.,-1.));
#578=DIRECTION('',(0.,1.,0.));
#579=DIRECTION('',(0.,0.,-1.));
#580=DIRECTION('',(0.,1.,0.));
#581=DIRECTION('',(0.,0.,-1.));
#582=DIRECTION('',(0.,1.,0.));
#583=DIRECTION('',(0.,0.,-1.));
#584=DIRECTION('',(0.,1.,-1.60374977797395E-016));
#585=DIRECTION('',(0.,0.,-1.));
#586=DIRECTION('',(0.,1.,0.));
#587=DIRECTION('',(0.,0.,-1.));
#588=DIRECTION('',(0.,1.,0.));
#589=DIRECTION('',(0.,0.,-1.));
#590=DIRECTION('',(0.,1.,0.));
#591=DIRECTION('',(0.,0.,1.));
#592=DIRECTION('',(0.,-1.,-2.06514699521048E-017));
#593=DIRECTION('',(0.,0.,-1.));
#594=DIRECTION('',(0.,1.,0.));
#595=DIRECTION('',(0.,0.,1.));
#596=DIRECTION('',(0.,-1.,0.));
#597=DIRECTION('',(0.,0.,-1.));
#598=DIRECTION('',(0.,1.,0.));
#599=DIRECTION('',(0.,0.,1.));
#600=DIRECTION('',(0.,-1.,0.));
#601=DIRECTION('',(0.,0.,-1.));
#602=DIRECTION('',(0.,1.,0.));
#603=DIRECTION('',(0.,0.,-1.));
#604=DIRECTION('',(0.,1.,0.));
#605=DIRECTION('',(0.,1.,1.04083408558609E-014));
#606=DIRECTION('',(0.,-1.04083408558608E-014,1.));
#607=DIRECTION('',(0.,1.,0.));
#608=DIRECTION('',(0.,0.,1.));
#609=CARTESIAN_POINT('',(0.,0.,0.));
#610=CARTESIAN_POINT('',(0.,0.,0.));
#611=CARTESIAN_POINT('',(0.,0.,0.));
#612=CARTESIAN_POINT('',(0.,0.,-25.));
#613=CARTESIAN_POINT('',(0.,0.,-8.41340885848751E-014));
#614=CARTESIAN_POINT('',(-5.54526825320477,-9.49999999999996,-7.37188088351104E-014));
#615=CARTESIAN_POINT('',(-5.54526825320471,9.5,-7.01660951563099E-014));
#616=CARTESIAN_POINT('',(-12.1,9.5,-7.01660951563099E-014));
#617=CARTESIAN_POINT('',(-1.38202749610839,9.5,-7.70217223333703E-014));
#618=CARTESIAN_POINT('',(0.,0.,-8.38773495104306E-014));
#619=CARTESIAN_POINT('',(-1.3820274961087,-9.49999999999996,-7.87980791727705E-014));
#620=CARTESIAN_POINT('',(-12.1,-9.49999999999996,-7.37188088351104E-014));
#621=CARTESIAN_POINT('',(-8.51969777638693E-029,11.,-8.40057190476529E-014));
#622=CARTESIAN_POINT('',(0.,0.,2.99999999999992));
#623=CARTESIAN_POINT('',(0.,8.223,2.99999999999992));
#624=CARTESIAN_POINT('',(-12.1,9.5,2.99999999999994));
#625=CARTESIAN_POINT('',(-5.54526825320471,9.5,2.99999999999994));
#626=CARTESIAN_POINT('',(5.54526825320471,9.5,2.99999999999994));
#627=CARTESIAN_POINT('',(0.,0.,2.99999999999992));
#628=CARTESIAN_POINT('',(-5.54526825320471,-9.5,2.99999999999992));
#629=CARTESIAN_POINT('',(-12.1,-9.5,2.99999999999992));
#630=CARTESIAN_POINT('',(5.54526825320471,-9.5,2.99999999999992));
#631=CARTESIAN_POINT('',(0.,0.,2.99999999999992));
#632=CARTESIAN_POINT('',(-7.04927525594826E-029,6.223,2.99999999999992));
#633=CARTESIAN_POINT('',(5.54526825320471,9.5,0.));
#634=CARTESIAN_POINT('',(5.54526825320471,9.5,-7.01660951563099E-014));
#635=CARTESIAN_POINT('',(5.54526825320477,-9.49999999999996,-9.88792381306779E-014));
#636=CARTESIAN_POINT('',(5.54526825320477,-9.49999999999996,-7.37188088351104E-014));
#637=CARTESIAN_POINT('',(0.,0.,-8.41340885848751E-014));
#638=CARTESIAN_POINT('',(0.,0.,0.));
#639=CARTESIAN_POINT('',(-5.54526825320471,9.5,0.));
#640=CARTESIAN_POINT('',(-5.54526825320477,-9.49999999999996,-9.88792381306779E-014));
#641=CARTESIAN_POINT('',(0.,0.,0.));
#642=CARTESIAN_POINT('',(0.,0.,0.199999999999916));
#643=CARTESIAN_POINT('',(0.,9.05050451610908,0.199999999999916));
#644=CARTESIAN_POINT('',(1.38202749610853,9.5,-8.41926099987222E-014));
#645=CARTESIAN_POINT('',(0.461938022575922,9.5,0.0482104717182216));
#646=CARTESIAN_POINT('',(-0.461938022575786,9.5,0.048210471718224));
#647=CARTESIAN_POINT('',(-1.38202749610839,9.5,-7.70217223333703E-014));
#648=CARTESIAN_POINT('',(1.38202749610853,9.5,-8.41926099987222E-014));
#649=CARTESIAN_POINT('',(0.,0.,-8.38773495104306E-014));
#650=CARTESIAN_POINT('',(1.38202749610871,-9.49999999999996,-7.91423733228234E-014));
#651=CARTESIAN_POINT('',(1.38202749610871,-9.49999999999996,-7.91423733228234E-014));
#652=CARTESIAN_POINT('',(0.461938022575941,-9.49999999999996,0.0482104717182383));
#653=CARTESIAN_POINT('',(-0.461938022575932,-9.49999999999996,0.0482104717182413));
#654=CARTESIAN_POINT('',(-1.3820274961087,-9.49999999999996,-7.87980791727705E-014));
#655=CARTESIAN_POINT('',(0.,0.,-8.38773495104306E-014));
#656=CARTESIAN_POINT('',(-12.1,9.5,-7.01660951563099E-014));
#657=CARTESIAN_POINT('',(-12.1,-9.49999999999996,-7.37188088351104E-014));
#658=CARTESIAN_POINT('',(-8.51969777638693E-029,11.,-8.40057190476529E-014));
#659=CARTESIAN_POINT('',(0.,0.,19.106));
#660=CARTESIAN_POINT('',(0.,7.34494244276166,19.106));
#661=CARTESIAN_POINT('',(0.,0.,19.106));
#662=CARTESIAN_POINT('',(0.,3.49999999999999,19.106));
#663=CARTESIAN_POINT('',(0.,3.49999999999999,19.106));
#664=CARTESIAN_POINT('',(0.,0.,15.55));
#665=CARTESIAN_POINT('',(0.,9.39799999999998,15.55));
#666=CARTESIAN_POINT('',(0.,0.,19.106));
#667=CARTESIAN_POINT('',(0.,0.,14.0259999999999));
#668=CARTESIAN_POINT('',(0.,9.398,14.0259999999999));
#669=CARTESIAN_POINT('',(0.,0.,0.));
#670=CARTESIAN_POINT('',(0.,0.,11.4367864376268));
#671=CARTESIAN_POINT('',(0.,-6.80878643762691,11.4367864376268));
#672=CARTESIAN_POINT('',(0.,0.,14.0259999999999));
#673=CARTESIAN_POINT('',(0.,0.,10.0225728752537));
#674=CARTESIAN_POINT('',(0.,6.223,10.0225728752537));
#675=CARTESIAN_POINT('',(0.,0.,4.99999999999992));
#676=CARTESIAN_POINT('',(0.,6.223,4.99999999999992));
#677=CARTESIAN_POINT('',(0.,0.,0.));
#678=CARTESIAN_POINT('',(0.,0.,0.199999999999916));
#679=CARTESIAN_POINT('',(0.,8.65,0.199999999999916));
#680=CARTESIAN_POINT('',(0.,9.05050451610908,0.199999999999916));
#681=CARTESIAN_POINT('',(0.,0.,-0.200000000000084));
#682=CARTESIAN_POINT('',(0.,8.25,-0.200000000000084));
#683=CARTESIAN_POINT('',(0.,0.,-0.200000000000084));
#684=CARTESIAN_POINT('',(0.,0.,-1.06698729810786));
#685=CARTESIAN_POINT('',(0.,8.25,-1.06698729810786));
#686=CARTESIAN_POINT('',(0.,0.,0.));
#687=CARTESIAN_POINT('',(0.,0.,-1.50000000000008));
#688=CARTESIAN_POINT('',(0.,8.5,-1.50000000000008));
#689=CARTESIAN_POINT('',(0.,0.,-1.06698729810786));
#690=CARTESIAN_POINT('',(0.,0.,-5.00000000000008));
#691=CARTESIAN_POINT('',(0.,8.5,-5.00000000000008));
#692=CARTESIAN_POINT('',(0.,0.,0.));
#693=CARTESIAN_POINT('',(0.,0.,-5.50000000000008));
#694=CARTESIAN_POINT('',(0.,8.,-5.50000000000008));
#695=CARTESIAN_POINT('',(0.,0.,-5.00000000000008));
#696=CARTESIAN_POINT('',(0.,0.,-5.50000000000008));
#697=CARTESIAN_POINT('',(0.,-7.15000000000006,-5.50000000000008));
#698=CARTESIAN_POINT('',(0.,8.,-5.50000000000008));
#699=CARTESIAN_POINT('',(0.,0.,-5.90000000000008));
#700=CARTESIAN_POINT('',(0.,-6.75000000000006,-5.90000000000008));
#701=CARTESIAN_POINT('',(0.,0.,-8.50000000000008));
#702=CARTESIAN_POINT('',(0.,6.75000000000013,-8.50000000000008));
#703=CARTESIAN_POINT('',(0.,0.,0.));
#704=CARTESIAN_POINT('',(0.,0.,-10.665063509461));
#705=CARTESIAN_POINT('',(0.,8.00000000000013,-10.665063509461));
#706=CARTESIAN_POINT('',(0.,0.,-8.50000000000008));
#707=CARTESIAN_POINT('',(0.,0.,-23.));
#708=CARTESIAN_POINT('',(0.,8.,-23.));
#709=CARTESIAN_POINT('',(0.,0.,0.));
#710=CARTESIAN_POINT('',(0.,0.,-25.));
#711=CARTESIAN_POINT('',(0.,5.99999999999999,-25.));
#712=CARTESIAN_POINT('',(0.,0.,-23.));
#713=CARTESIAN_POINT('',(0.,0.,-25.));
#714=CARTESIAN_POINT('',(0.,3.50000000000002,-25.));
#715=CARTESIAN_POINT('',(-6.16472344984919E-030,5.99999999999999,-25.));
#716=CARTESIAN_POINT('',(0.,0.,0.));
#717=CARTESIAN_POINT('',(0.,0.,-5.90000000000008));
#718=CARTESIAN_POINT('',(0.,0.,4.99999999999992));
#719=CARTESIAN_POINT('',(0.,0.,10.0225728752537));
#720=CARTESIAN_POINT('',(-12.1,-9.49999999999996,-7.37188088351104E-014));
#721=CARTESIAN_POINT('',(-12.1,9.5,-7.01660951563099E-014));
#722=MECHANICAL_DESIGN_GEOMETRIC_PRESENTATION_REPRESENTATION('',(#400,#401,
#402,#403),#723);
#723=(
GEOMETRIC_REPRESENTATION_CONTEXT(3)
GLOBAL_UNCERTAINTY_ASSIGNED_CONTEXT((#724))
GLOBAL_UNIT_ASSIGNED_CONTEXT((#730,#726,#725))
REPRESENTATION_CONTEXT('1498472663950','TOP_LEVEL_ASSEMBLY_PART')
);
#724=UNCERTAINTY_MEASURE_WITH_UNIT(LENGTH_MEASURE(0.0508),#730,
'DISTANCE_ACCURACY_VALUE','Maximum Tolerance applied to model');
#725=(
NAMED_UNIT(*)
SI_UNIT($,.STERADIAN.)
SOLID_ANGLE_UNIT()
);
#726=(
CONVERSION_BASED_UNIT('DEGREE',#728)
NAMED_UNIT(#727)
PLANE_ANGLE_UNIT()
);
#727=DIMENSIONAL_EXPONENTS(0.,0.,0.,0.,0.,0.,0.);
#728=PLANE_ANGLE_MEASURE_WITH_UNIT(PLANE_ANGLE_MEASURE(0.0174532925),#729);
#729=(
NAMED_UNIT(*)
PLANE_ANGLE_UNIT()
SI_UNIT($,.RADIAN.)
);
#730=(
LENGTH_UNIT()
NAMED_UNIT(*)
SI_UNIT(.MILLI.,.METRE.)
);
ENDSEC;
END-ISO-10303-21;
