ISO-10303-21;
HEADER;
FILE_DESCRIPTION(
/* description */ (''),
/* implementation_level */ '2;1');
FILE_NAME(
/* name */ 'VNGG160401-SGF.stp',
/* time_stamp */ '2017-04-13T13:33:43',
/* author */ ('Sandvik Coromant R&D'),
/* organization */ ('Sandvik Machining Solutions'),
/* preprocessor_version */ 'ST-DEVELOPER v15',
/* originating_system */ 'SIEMENS PLM Software NX v8.5.3.3(64 bits)',
/* authorization */ '');
FILE_SCHEMA(('AUTOMOTIVE_DESIGN'));
ENDSEC;
DATA;
#10=GEOMETRICALLY_BOUNDED_WIREFRAME_SHAPE_REPRESENTATION('IsoTurningInsert-None',
     (#25),#445);
#11=SHAPE_REPRESENTATION_RELATIONSHIP('None','relationship between IsoTurningInsert-None and IsoTurningInsert-None',
     #24,#13);
#12=SHAPE_REPRESENTATION_RELATIONSHIP('None','relationship between IsoTurningInsert-None and IsoTurningInsert-None',
     #24,#10);
#13=ADVANCED_BREP_SHAPE_REPRESENTATION('IsoTurningInsert-None',(#31),#445);
#14=SHAPE_DEFINITION_REPRESENTATION(#15,#24);
#15=PRODUCT_DEFINITION_SHAPE('','',#16);
#16=PRODUCT_DEFINITION(' ','',#18,#17);
#17=PRODUCT_DEFINITION_CONTEXT('part definition',#23,'design');
#18=PRODUCT_DEFINITION_FORMATION_WITH_SPECIFIED_SOURCE(' ',' ',#20,.NOT_KNOWN.);
#19=PRODUCT_RELATED_PRODUCT_CATEGORY('part','',(#20));
#20=PRODUCT('IsoTurningInsert','IsoTurningInsert',' ',(#21));
#21=PRODUCT_CONTEXT(' ',#23,'mechanical');
#22=APPLICATION_PROTOCOL_DEFINITION('international standard','automotive_design',
     2010,#23);
#23=APPLICATION_CONTEXT('core data for automotive mechanical design processes');
#24=SHAPE_REPRESENTATION('IsoTurningInsert-None',(#248),#445);
#25=GEOMETRIC_CURVE_SET('geometric curve set',(#228));
#26=SURFACE_STYLE_USAGE(.BOTH.,#27);
#27=SURFACE_SIDE_STYLE('',(#28));
#28=SURFACE_STYLE_FILL_AREA(#29);
#29=FILL_AREA_STYLE('',(#30));
#30=FILL_AREA_STYLE_COLOUR('',#247);
#31=MANIFOLD_SOLID_BREP('CUT',#32);
#32=CLOSED_SHELL('',(#46,#47,#48,#49,#50,#51,#52,#53,#54,#55,#56));
#33=CYLINDRICAL_SURFACE('',#267,0.0992187500000023);
#34=CYLINDRICAL_SURFACE('',#268,0.0992187500000023);
#35=CYLINDRICAL_SURFACE('',#269,0.0992187500000023);
#36=CYLINDRICAL_SURFACE('',#270,0.0992187500000023);
#37=CYLINDRICAL_SURFACE('',#271,1.90499999999999);
#38=FACE_OUTER_BOUND('',#103,.T.);
#39=FACE_OUTER_BOUND('',#104,.T.);
#40=FACE_OUTER_BOUND('',#105,.T.);
#41=FACE_OUTER_BOUND('',#106,.T.);
#42=FACE_OUTER_BOUND('',#109,.T.);
#43=FACE_OUTER_BOUND('',#110,.T.);
#44=FACE_OUTER_BOUND('',#111,.T.);
#45=FACE_OUTER_BOUND('',#112,.T.);
#46=ADVANCED_FACE('',(#95,#96),#57,.F.);
#47=ADVANCED_FACE('',(#38),#58,.T.);
#48=ADVANCED_FACE('',(#39),#59,.T.);
#49=ADVANCED_FACE('',(#40),#60,.T.);
#50=ADVANCED_FACE('',(#41),#61,.T.);
#51=ADVANCED_FACE('',(#97,#98),#62,.T.);
#52=ADVANCED_FACE('',(#42),#33,.T.);
#53=ADVANCED_FACE('',(#43),#34,.T.);
#54=ADVANCED_FACE('',(#44),#35,.T.);
#55=ADVANCED_FACE('',(#45),#36,.T.);
#56=ADVANCED_FACE('',(#99,#100),#37,.F.);
#57=PLANE('',#256);
#58=PLANE('',#257);
#59=PLANE('',#258);
#60=PLANE('',#259);
#61=PLANE('',#260);
#62=PLANE('',#266);
#63=LINE('',#391,#79);
#64=LINE('',#396,#80);
#65=LINE('',#400,#81);
#66=LINE('',#404,#82);
#67=LINE('',#408,#83);
#68=LINE('',#411,#84);
#69=LINE('',#412,#85);
#70=LINE('',#414,#86);
#71=LINE('',#416,#87);
#72=LINE('',#418,#88);
#73=LINE('',#420,#89);
#74=LINE('',#422,#90);
#75=LINE('',#424,#91);
#76=LINE('',#426,#92);
#77=LINE('',#428,#93);
#78=LINE('',#430,#94);
#79=VECTOR('',#280,1.0);
#80=VECTOR('',#283,1.0);
#81=VECTOR('',#286,1.0);
#82=VECTOR('',#289,1.0);
#83=VECTOR('',#294,1.0);
#84=VECTOR('',#295,1.0);
#85=VECTOR('',#296,1.0);
#86=VECTOR('',#299,1.0);
#87=VECTOR('',#300,1.0);
#88=VECTOR('',#301,1.0);
#89=VECTOR('',#304,1.0);
#90=VECTOR('',#305,1.0);
#91=VECTOR('',#306,1.0);
#92=VECTOR('',#309,1.0);
#93=VECTOR('',#310,1.0);
#94=VECTOR('',#311,1.0);
#95=FACE_BOUND('',#101,.T.);
#96=FACE_BOUND('',#102,.T.);
#97=FACE_BOUND('',#107,.T.);
#98=FACE_BOUND('',#108,.T.);
#99=FACE_BOUND('',#113,.T.);
#100=FACE_BOUND('',#114,.T.);
#101=EDGE_LOOP('',(#115));
#102=EDGE_LOOP('',(#116,#117,#118,#119,#120,#121,#122,#123));
#103=EDGE_LOOP('',(#124,#125,#126,#127));
#104=EDGE_LOOP('',(#128,#129,#130,#131));
#105=EDGE_LOOP('',(#132,#133,#134,#135));
#106=EDGE_LOOP('',(#136,#137,#138,#139));
#107=EDGE_LOOP('',(#140));
#108=EDGE_LOOP('',(#141,#142,#143,#144,#145,#146,#147,#148));
#109=EDGE_LOOP('',(#149,#150,#151,#152));
#110=EDGE_LOOP('',(#153,#154,#155,#156));
#111=EDGE_LOOP('',(#157,#158,#159,#160));
#112=EDGE_LOOP('',(#161,#162,#163,#164));
#113=EDGE_LOOP('',(#165));
#114=EDGE_LOOP('',(#166));
#115=ORIENTED_EDGE('',*,*,#185,.T.);
#116=ORIENTED_EDGE('',*,*,#186,.T.);
#117=ORIENTED_EDGE('',*,*,#187,.T.);
#118=ORIENTED_EDGE('',*,*,#188,.T.);
#119=ORIENTED_EDGE('',*,*,#189,.T.);
#120=ORIENTED_EDGE('',*,*,#190,.T.);
#121=ORIENTED_EDGE('',*,*,#191,.T.);
#122=ORIENTED_EDGE('',*,*,#192,.T.);
#123=ORIENTED_EDGE('',*,*,#193,.T.);
#124=ORIENTED_EDGE('',*,*,#194,.F.);
#125=ORIENTED_EDGE('',*,*,#195,.T.);
#126=ORIENTED_EDGE('',*,*,#186,.F.);
#127=ORIENTED_EDGE('',*,*,#196,.T.);
#128=ORIENTED_EDGE('',*,*,#192,.F.);
#129=ORIENTED_EDGE('',*,*,#197,.T.);
#130=ORIENTED_EDGE('',*,*,#198,.F.);
#131=ORIENTED_EDGE('',*,*,#199,.T.);
#132=ORIENTED_EDGE('',*,*,#190,.F.);
#133=ORIENTED_EDGE('',*,*,#200,.T.);
#134=ORIENTED_EDGE('',*,*,#201,.F.);
#135=ORIENTED_EDGE('',*,*,#202,.T.);
#136=ORIENTED_EDGE('',*,*,#188,.F.);
#137=ORIENTED_EDGE('',*,*,#203,.T.);
#138=ORIENTED_EDGE('',*,*,#204,.F.);
#139=ORIENTED_EDGE('',*,*,#205,.T.);
#140=ORIENTED_EDGE('',*,*,#206,.F.);
#141=ORIENTED_EDGE('',*,*,#204,.T.);
#142=ORIENTED_EDGE('',*,*,#207,.T.);
#143=ORIENTED_EDGE('',*,*,#194,.T.);
#144=ORIENTED_EDGE('',*,*,#208,.T.);
#145=ORIENTED_EDGE('',*,*,#198,.T.);
#146=ORIENTED_EDGE('',*,*,#209,.T.);
#147=ORIENTED_EDGE('',*,*,#201,.T.);
#148=ORIENTED_EDGE('',*,*,#210,.T.);
#149=ORIENTED_EDGE('',*,*,#187,.F.);
#150=ORIENTED_EDGE('',*,*,#195,.F.);
#151=ORIENTED_EDGE('',*,*,#207,.F.);
#152=ORIENTED_EDGE('',*,*,#203,.F.);
#153=ORIENTED_EDGE('',*,*,#189,.F.);
#154=ORIENTED_EDGE('',*,*,#205,.F.);
#155=ORIENTED_EDGE('',*,*,#210,.F.);
#156=ORIENTED_EDGE('',*,*,#200,.F.);
#157=ORIENTED_EDGE('',*,*,#191,.F.);
#158=ORIENTED_EDGE('',*,*,#202,.F.);
#159=ORIENTED_EDGE('',*,*,#209,.F.);
#160=ORIENTED_EDGE('',*,*,#197,.F.);
#161=ORIENTED_EDGE('',*,*,#193,.F.);
#162=ORIENTED_EDGE('',*,*,#199,.F.);
#163=ORIENTED_EDGE('',*,*,#208,.F.);
#164=ORIENTED_EDGE('',*,*,#196,.F.);
#165=ORIENTED_EDGE('',*,*,#185,.F.);
#166=ORIENTED_EDGE('',*,*,#206,.T.);
#167=VERTEX_POINT('',#390);
#168=VERTEX_POINT('',#392);
#169=VERTEX_POINT('',#393);
#170=VERTEX_POINT('',#395);
#171=VERTEX_POINT('',#397);
#172=VERTEX_POINT('',#399);
#173=VERTEX_POINT('',#401);
#174=VERTEX_POINT('',#403);
#175=VERTEX_POINT('',#405);
#176=VERTEX_POINT('',#409);
#177=VERTEX_POINT('',#410);
#178=VERTEX_POINT('',#415);
#179=VERTEX_POINT('',#417);
#180=VERTEX_POINT('',#421);
#181=VERTEX_POINT('',#423);
#182=VERTEX_POINT('',#427);
#183=VERTEX_POINT('',#429);
#184=VERTEX_POINT('',#433);
#185=EDGE_CURVE('',#167,#167,#211,.T.);
#186=EDGE_CURVE('',#168,#169,#63,.T.);
#187=EDGE_CURVE('',#169,#170,#212,.T.);
#188=EDGE_CURVE('',#170,#171,#64,.T.);
#189=EDGE_CURVE('',#171,#172,#213,.T.);
#190=EDGE_CURVE('',#172,#173,#65,.T.);
#191=EDGE_CURVE('',#173,#174,#214,.T.);
#192=EDGE_CURVE('',#174,#175,#66,.T.);
#193=EDGE_CURVE('',#175,#168,#215,.T.);
#194=EDGE_CURVE('',#176,#177,#67,.T.);
#195=EDGE_CURVE('',#176,#169,#68,.T.);
#196=EDGE_CURVE('',#168,#177,#69,.T.);
#197=EDGE_CURVE('',#174,#178,#70,.T.);
#198=EDGE_CURVE('',#179,#178,#71,.T.);
#199=EDGE_CURVE('',#179,#175,#72,.T.);
#200=EDGE_CURVE('',#172,#180,#73,.T.);
#201=EDGE_CURVE('',#181,#180,#74,.T.);
#202=EDGE_CURVE('',#181,#173,#75,.T.);
#203=EDGE_CURVE('',#170,#182,#76,.T.);
#204=EDGE_CURVE('',#183,#182,#77,.T.);
#205=EDGE_CURVE('',#183,#171,#78,.T.);
#206=EDGE_CURVE('',#184,#184,#216,.T.);
#207=EDGE_CURVE('',#182,#176,#217,.T.);
#208=EDGE_CURVE('',#177,#179,#218,.T.);
#209=EDGE_CURVE('',#178,#181,#219,.T.);
#210=EDGE_CURVE('',#180,#183,#220,.T.);
#211=CIRCLE('',#251,1.90499999999999);
#212=CIRCLE('',#252,0.0992187500000023);
#213=CIRCLE('',#253,0.0992187500000023);
#214=CIRCLE('',#254,0.0992187500000023);
#215=CIRCLE('',#255,0.0992187500000023);
#216=CIRCLE('',#261,1.90499999999999);
#217=CIRCLE('',#262,0.0992187500000023);
#218=CIRCLE('',#263,0.0992187500000023);
#219=CIRCLE('',#264,0.0992187500000023);
#220=CIRCLE('',#265,0.0992187500000023);
#221=CURVE_STYLE('',#225,POSITIVE_LENGTH_MEASURE(0.18),#224);
#222=CURVE_STYLE('',#226,POSITIVE_LENGTH_MEASURE(0.18),#246);
#223=CURVE_STYLE('',#227,POSITIVE_LENGTH_MEASURE(0.18),#246);
#224=DRAUGHTING_PRE_DEFINED_COLOUR('blue');
#225=DRAUGHTING_PRE_DEFINED_CURVE_FONT('continuous');
#226=DRAUGHTING_PRE_DEFINED_CURVE_FONT('continuous');
#227=DRAUGHTING_PRE_DEFINED_CURVE_FONT('continuous');
#228=B_SPLINE_CURVE_WITH_KNOTS('CUTTING EDGE LINE',5,(#339,#340,#341,#342,#343,#344,
     #345,#346,#347,#348,#349,#350,#351,#352,#353,#354,#355,#356,#357,#358,#359,
     #360,#361,#362,#363,#364,#365,#366,#367,#368,#369,#370,#371,#372,#373,#374,
     #375,#376,#377,#378,#379,#380,#381,#382,#383,#384,#385,#386),.UNSPECIFIED.,
     .T.,.F.,(2,4,4,4,1,1,1,1,1,1,1,4,4,4,4,1,1,1,1,1,1,1,4,4,2),(-0.2476265476,
     0.0,9.23009199999991E-4,0.2485495568,0.24902754375,0.249505530700012,0.24998351765,
     0.250461504600009,0.25093949155,0.251417478500011,0.25189546545,0.2523734524,
     0.5,0.5009230092,0.7485495568,0.74902754375,0.749505530700012,0.74998351765,
     0.750461504600009,0.75093949155,0.751417478500011,0.75189546545,0.7523734524,
     1.0,1.0009230092),.UNSPECIFIED.);
#229=PRESENTATION_LAYER_ASSIGNMENT('1','Layer 1',(#228,#249,#250,#31));
#232=STYLED_ITEM('',(#238),#228);
#233=STYLED_ITEM('',(#239),#249);
#234=STYLED_ITEM('',(#240),#250);
#235=STYLED_ITEM('',(#241),#31);
#236=PRESENTATION_STYLE_ASSIGNMENT((#242));
#237=PRESENTATION_STYLE_ASSIGNMENT((#243));
#238=PRESENTATION_STYLE_ASSIGNMENT((#221));
#239=PRESENTATION_STYLE_ASSIGNMENT((#222));
#240=PRESENTATION_STYLE_ASSIGNMENT((#223));
#241=PRESENTATION_STYLE_ASSIGNMENT((#26));
#242=POINT_STYLE('',#244,POSITIVE_LENGTH_MEASURE(3.0),#246);
#243=POINT_STYLE('',#245,POSITIVE_LENGTH_MEASURE(3.0),#246);
#244=PRE_DEFINED_POINT_MARKER_SYMBOL('plus');
#245=PRE_DEFINED_POINT_MARKER_SYMBOL('plus');
#246=COLOUR_RGB('Medium Maroon',0.6,0.4,0.4);
#247=COLOUR_RGB('IsoInsertColor',0.8,0.8,0.8);
#248=AXIS2_PLACEMENT_3D('',#336,#272,#273);
#249=AXIS2_PLACEMENT_3D('PCS',#387,#274,#275);
#250=AXIS2_PLACEMENT_3D('MCS',#388,#276,#277);
#251=AXIS2_PLACEMENT_3D('',#389,#278,#279);
#252=AXIS2_PLACEMENT_3D('',#394,#281,#282);
#253=AXIS2_PLACEMENT_3D('',#398,#284,#285);
#254=AXIS2_PLACEMENT_3D('',#402,#287,#288);
#255=AXIS2_PLACEMENT_3D('',#406,#290,#291);
#256=AXIS2_PLACEMENT_3D('',#407,#292,#293);
#257=AXIS2_PLACEMENT_3D('',#413,#297,#298);
#258=AXIS2_PLACEMENT_3D('',#419,#302,#303);
#259=AXIS2_PLACEMENT_3D('',#425,#307,#308);
#260=AXIS2_PLACEMENT_3D('',#431,#312,#313);
#261=AXIS2_PLACEMENT_3D('',#432,#314,#315);
#262=AXIS2_PLACEMENT_3D('',#434,#316,#317);
#263=AXIS2_PLACEMENT_3D('',#435,#318,#319);
#264=AXIS2_PLACEMENT_3D('',#436,#320,#321);
#265=AXIS2_PLACEMENT_3D('',#437,#322,#323);
#266=AXIS2_PLACEMENT_3D('',#438,#324,#325);
#267=AXIS2_PLACEMENT_3D('',#439,#326,#327);
#268=AXIS2_PLACEMENT_3D('',#440,#328,#329);
#269=AXIS2_PLACEMENT_3D('',#441,#330,#331);
#270=AXIS2_PLACEMENT_3D('',#442,#332,#333);
#271=AXIS2_PLACEMENT_3D('',#443,#334,#335);
#272=DIRECTION('',(0.0,0.0,1.0));
#273=DIRECTION('',(1.0,0.0,0.0));
#274=DIRECTION('',(0.0,0.0,1.0));
#275=DIRECTION('',(1.0,0.0,0.0));
#276=DIRECTION('',(0.0,0.0,1.0));
#277=DIRECTION('',(1.0,0.0,0.0));
#278=DIRECTION('',(0.0,0.0,1.0));
#279=DIRECTION('',(-0.953716950748227,-0.300705799504274,0.0));
#280=DIRECTION('',(1.0,9.43689570931383E-16,0.0));
#281=DIRECTION('',(0.0,0.0,-1.0));
#282=DIRECTION('',(-0.953716950748234,-0.300705799504266,0.0));
#283=DIRECTION('',(-0.819152044288991,-0.573576436351047,0.0));
#284=DIRECTION('',(0.0,0.0,-1.0));
#285=DIRECTION('',(-0.953716950748234,-0.300705799504273,0.0));
#286=DIRECTION('',(-1.0,1.66533453693773E-16,0.0));
#287=DIRECTION('',(0.0,0.0,-1.0));
#288=DIRECTION('',(-0.953716950748227,-0.300705799504273,0.0));
#289=DIRECTION('',(0.819152044288992,0.573576436351046,0.0));
#290=DIRECTION('',(0.0,0.0,-1.0));
#291=DIRECTION('',(-0.953716950748234,-0.300705799504266,0.0));
#292=DIRECTION('',(0.0,0.0,1.0));
#293=DIRECTION('',(-0.953716950748227,-0.300705799504273,0.0));
#294=DIRECTION('',(-1.0,-9.43689570931383E-16,-8.02264902071657E-17));
#295=DIRECTION('',(8.02264902071663E-17,-6.05579448138538E-16,-1.0));
#296=DIRECTION('',(-8.02264902071663E-17,6.05579448138538E-16,1.0));
#297=DIRECTION('',(-9.43689570931383E-16,1.0,-6.05579448138538E-16));
#298=DIRECTION('',(-1.0,-9.43689570931383E-16,0.0));
#299=DIRECTION('',(-8.02264902071663E-17,6.05579448138538E-16,1.0));
#300=DIRECTION('',(-0.819152044288992,-0.573576436351046,2.81628408331405E-16));
#301=DIRECTION('',(8.02264902071663E-17,-6.05579448138538E-16,-1.0));
#302=DIRECTION('',(-0.573576436351046,0.819152044288992,-5.42077667276061E-16));
#303=DIRECTION('',(-0.819152044288992,-0.573576436351046,0.0));
#304=DIRECTION('',(-8.02264902071663E-17,6.05579448138538E-16,1.0));
#305=DIRECTION('',(1.0,-1.66533453693773E-16,8.02264902071664E-17));
#306=DIRECTION('',(8.02264902071663E-17,-6.05579448138538E-16,-1.0));
#307=DIRECTION('',(-1.66533453693773E-16,-1.0,6.05579448138537E-16));
#308=DIRECTION('',(1.0,-1.66533453693773E-16,0.0));
#309=DIRECTION('',(-8.02264902071663E-17,6.05579448138538E-16,1.0));
#310=DIRECTION('',(0.819152044288991,0.573576436351047,-2.81628408331405E-16));
#311=DIRECTION('',(8.02264902071663E-17,-6.05579448138538E-16,-1.0));
#312=DIRECTION('',(0.573576436351047,-0.819152044288991,5.4207766727606E-16));
#313=DIRECTION('',(0.819152044288991,0.573576436351047,0.0));
#314=DIRECTION('',(0.0,0.0,1.0));
#315=DIRECTION('',(-0.953716950748227,-0.300705799504274,0.0));
#316=DIRECTION('',(-8.02264902071663E-17,6.05579448138538E-16,1.0));
#317=DIRECTION('',(-0.300705799504266,0.953716950748234,-6.01675955593649E-16));
#318=DIRECTION('',(-8.02264902071663E-17,6.05579448138538E-16,1.0));
#319=DIRECTION('',(-0.300705799504266,0.953716950748234,-6.01675955593649E-16));
#320=DIRECTION('',(-8.02264902071663E-17,6.05579448138538E-16,1.0));
#321=DIRECTION('',(-0.300705799504274,0.953716950748227,-6.01675955593647E-16));
#322=DIRECTION('',(-8.02264902071663E-17,6.05579448138538E-16,1.0));
#323=DIRECTION('',(-0.300705799504266,0.953716950748227,-6.01675955593648E-16));
#324=DIRECTION('',(-8.02264902071663E-17,6.05579448138538E-16,1.0));
#325=DIRECTION('',(-0.300705799504273,0.953716950748227,-6.01675955593648E-16));
#326=DIRECTION('',(-8.02264902071663E-17,6.05579448138538E-16,1.0));
#327=DIRECTION('',(-0.300705799504266,0.953716950748234,-6.01675955593649E-16));
#328=DIRECTION('',(-8.02264902071663E-17,6.05579448138538E-16,1.0));
#329=DIRECTION('',(-0.300705799504266,0.953716950748227,-6.01675955593648E-16));
#330=DIRECTION('',(-8.02264902071663E-17,6.05579448138538E-16,1.0));
#331=DIRECTION('',(-0.300705799504274,0.953716950748227,-6.01675955593647E-16));
#332=DIRECTION('',(-8.02264902071663E-17,6.05579448138538E-16,1.0));
#333=DIRECTION('',(-0.300705799504266,0.953716950748234,-6.01675955593649E-16));
#334=DIRECTION('',(0.0,0.0,1.0));
#335=DIRECTION('',(-0.953716950748227,-0.300705799504274,0.0));
#336=CARTESIAN_POINT('',(0.0,0.0,0.0));
#339=CARTESIAN_POINT('',(13.3229740756249,-8.88178419700125E-16,4.93038065763132E-33));
#340=CARTESIAN_POINT('',(16.5869814379997,-6.21724893790088E-15,6.1042279776764E-17));
#341=CARTESIAN_POINT('',(16.5989156994175,0.00179435081056578,6.09131017098989E-17));
#342=CARTESIAN_POINT('',(16.6113755670076,0.00572293197131302,5.92731939095589E-17));
#343=CARTESIAN_POINT('',(16.6221807389886,0.0110982969711806,5.12690087527019E-17));
#344=CARTESIAN_POINT('',(19.2958990424522,1.8832560081057,5.3784268550048E-18));
#345=CARTESIAN_POINT('',(21.9598413712783,3.7485685081057,-4.31408307542741E-33));
#346=CARTESIAN_POINT('',(24.6237837001045,5.6138810081057,-2.95822839457879E-32));
#347=CARTESIAN_POINT('',(27.2877260289306,7.4791935081057,5.37842685500474E-18));
#348=CARTESIAN_POINT('',(29.9564742412273,9.34787112393952,3.06182753036491E-17));
#349=CARTESIAN_POINT('',(29.9655885518033,9.3553117969235,3.52728796365767E-17));
#350=CARTESIAN_POINT('',(29.9788790592521,9.36972907612857,3.62104190370785E-17));
#351=CARTESIAN_POINT('',(29.9912028582915,9.39272917748254,2.70995399801343E-17));
#352=CARTESIAN_POINT('',(29.9966389302113,9.42635720320077,7.97508671894993E-18));
#353=CARTESIAN_POINT('',(29.9912950955271,9.45621902053207,-1.0678921365313E-17));
#354=CARTESIAN_POINT('',(29.9785444738648,9.48374548690018,-2.85559298665421E-17));
#355=CARTESIAN_POINT('',(29.9548032612858,9.50817395015271,-4.43446055763823E-17));
#356=CARTESIAN_POINT('',(29.9315158799391,9.51994588946027,-4.90687540150166E-17));
#357=CARTESIAN_POINT('',(29.9123595219645,9.52413271129432,-4.35304140503149E-17));
#358=CARTESIAN_POINT('',(29.9006257211299,9.52500000000001,-3.55802206931184E-17));
#359=CARTESIAN_POINT('',(26.6426857197556,9.525,-6.00848358699967E-18));
#360=CARTESIAN_POINT('',(23.3906126187986,9.525,-1.72563323017096E-32));
#361=CARTESIAN_POINT('',(20.1385395178417,9.525,0.0));
#362=CARTESIAN_POINT('',(16.8864664168847,9.52499999999999,-6.00848358699972E-18));
#363=CARTESIAN_POINT('',(13.6224590545099,9.52499999999999,-5.44776143061932E-17));
#364=CARTESIAN_POINT('',(13.6105247930921,9.52320564918942,-6.06221398713585E-17));
#365=CARTESIAN_POINT('',(13.598064925502,9.51927706802867,-5.92731939095577E-17));
#366=CARTESIAN_POINT('',(13.587259753521,9.51390170302881,-5.1269008752702E-17));
#367=CARTESIAN_POINT('',(10.9135414500574,7.64174399189429,-5.3784268550048E-18));
#368=CARTESIAN_POINT('',(8.24959912123121,5.77643149189429,3.08148791101958E-33));
#369=CARTESIAN_POINT('',(5.58565679240506,3.91111899189429,-2.95822839457879E-32));
#370=CARTESIAN_POINT('',(2.92171446357892,2.0458064918943,-5.37842685500489E-18));
#371=CARTESIAN_POINT('',(0.252966251282254,0.177128876060485,-3.06182753036499E-17));
#372=CARTESIAN_POINT('',(0.243851940706202,0.169688203076507,-3.52728796365783E-17));
#373=CARTESIAN_POINT('',(0.230561433257401,0.155270923871431,-3.62104190370798E-17));
#374=CARTESIAN_POINT('',(0.218237634218067,0.132270822517461,-2.70995399801358E-17));
#375=CARTESIAN_POINT('',(0.212801562298294,0.09864279679923,-7.97508671895053E-18));
#376=CARTESIAN_POINT('',(0.218145396982425,0.0687809794679373,1.06789213653123E-17));
#377=CARTESIAN_POINT('',(0.230896018644707,0.0412545130998208,2.85559298665422E-17));
#378=CARTESIAN_POINT('',(0.254637231223764,0.0168260498472961,4.43446055763826E-17));
#379=CARTESIAN_POINT('',(0.277924612570406,0.00505411053972882,4.90687540150171E-17));
#380=CARTESIAN_POINT('',(0.297080970545032,8.6728870567665E-4,4.35304140503151E-17));
#381=CARTESIAN_POINT('',(0.308814771379607,-5.32907051820075E-15,3.55802206931187E-17));
#382=CARTESIAN_POINT('',(3.56675477275395,-2.66453525910038E-15,6.00848358699968E-18));
#383=CARTESIAN_POINT('',(6.81882787371093,-2.66453525910038E-15,-7.39557098644699E-33));
#384=CARTESIAN_POINT('',(10.0709009746679,-8.88178419700125E-16,7.39557098644699E-33));
#385=CARTESIAN_POINT('',(13.3229740756249,-8.88178419700125E-16,4.93038065763132E-33));
#386=CARTESIAN_POINT('',(16.5869814379997,-6.21724893790088E-15,6.1042279776764E-17));
#387=CARTESIAN_POINT('',(0.0,0.0,0.0));
#388=CARTESIAN_POINT('',(15.1047202462548,4.7625,0.0));
#389=CARTESIAN_POINT('',(15.1047202462548,4.7625,-4.7625));
#390=CARTESIAN_POINT('',(13.2878894550794,4.18965545194436,-4.7625));
#391=CARTESIAN_POINT('',(15.1047202462548,9.52499999999999,-4.7625));
#392=CARTESIAN_POINT('',(13.6343933159277,9.52499999999999,-4.7625));
#393=CARTESIAN_POINT('',(29.8947588207126,9.525,-4.7625));
#394=CARTESIAN_POINT('',(29.8947588207126,9.42578125,-4.7625));
#395=CARTESIAN_POINT('',(29.9516683577568,9.3445060081057,-4.7625));
#396=CARTESIAN_POINT('',(17.8363780243766,0.861288389073672,-4.7625));
#397=CARTESIAN_POINT('',(16.6319567136261,0.017943508105695,-4.7625));
#398=CARTESIAN_POINT('',(16.5750471765819,0.0992187499999943,-4.7625));
#399=CARTESIAN_POINT('',(16.5750471765819,-6.93889390390723E-15,-4.7625));
#400=CARTESIAN_POINT('',(15.1047202462548,-6.07153216591882E-15,-4.7625));
#401=CARTESIAN_POINT('',(0.314681671796976,-4.33680868994202E-15,-4.7625));
#402=CARTESIAN_POINT('',(0.314681671796978,0.0992187499999943,-4.7625));
#403=CARTESIAN_POINT('',(0.257772134752775,0.180493991894296,-4.7625));
#404=CARTESIAN_POINT('',(12.3730624681329,8.66371161092631,-4.7625));
#405=CARTESIAN_POINT('',(13.5774837788835,9.50705649189429,-4.7625));
#406=CARTESIAN_POINT('',(13.6343933159277,9.42578124999999,-4.7625));
#407=CARTESIAN_POINT('',(14.8598410645383,4.29209146865531,-4.7625));
#408=CARTESIAN_POINT('',(15.1047202462548,9.52499999999999,-5.81748951963656E-15));
#409=CARTESIAN_POINT('',(29.8947588207126,9.52500000000001,-4.63093663477922E-15));
#410=CARTESIAN_POINT('',(13.6343933159277,9.52499999999999,-5.93544868871378E-15));
#411=CARTESIAN_POINT('',(29.8947588207126,9.52500000000001,-4.33680868994202E-15));
#412=CARTESIAN_POINT('',(13.6343933159277,9.52499999999999,-5.20417042793042E-15));
#413=CARTESIAN_POINT('',(15.1047202462548,9.52499999999999,-5.81748951963656E-15));
#414=CARTESIAN_POINT('',(0.257772134752773,0.180493991894299,-8.67361737988404E-16));
#415=CARTESIAN_POINT('',(0.257772134752773,0.180493991894299,-1.34976726539439E-15));
#416=CARTESIAN_POINT('',(12.3730624681329,8.66371161092632,-5.51506228827902E-15));
#417=CARTESIAN_POINT('',(13.5774837788835,9.50705649189429,-5.92914812139383E-15));
#418=CARTESIAN_POINT('',(13.5774837788835,9.50705649189429,-5.20417042793042E-15));
#419=CARTESIAN_POINT('',(12.3730624681329,8.66371161092631,-5.51506228827901E-15));
#420=CARTESIAN_POINT('',(16.5750471765819,-4.33680868994202E-15,-5.83797514392381E-31));
#421=CARTESIAN_POINT('',(16.5750471765819,-4.33680868994202E-15,6.8613892960225E-17));
#422=CARTESIAN_POINT('',(15.1047202462548,-3.46944695195361E-15,-4.93452761169929E-17));
#423=CARTESIAN_POINT('',(0.314681671796975,-1.73472347597681E-15,-1.23589816097435E-15));
#424=CARTESIAN_POINT('',(0.314681671796975,-1.73472347597681E-15,-8.67361737988405E-16));
#425=CARTESIAN_POINT('',(15.1047202462548,-3.46944695195361E-15,-4.93452761169937E-17));
#426=CARTESIAN_POINT('',(29.9516683577568,9.3445060081057,-4.33680868994202E-15));
#427=CARTESIAN_POINT('',(29.9516683577568,9.3445060081057,-4.51706753035917E-15));
#428=CARTESIAN_POINT('',(17.8363780243767,0.861288389073683,-3.51772507474542E-16));
#429=CARTESIAN_POINT('',(16.6319567136261,0.0179435081056976,6.23133256402757E-17));
#430=CARTESIAN_POINT('',(16.6319567136261,0.0179435081056976,-1.44444745829043E-31));
#431=CARTESIAN_POINT('',(17.8363780243766,0.861288389073674,-3.51772507474538E-16));
#432=CARTESIAN_POINT('',(15.1047202462548,4.7625,0.0));
#433=CARTESIAN_POINT('',(13.2878894550794,4.18965545194436,0.0));
#434=CARTESIAN_POINT('',(29.8947588207126,9.42578125,-4.57085179890922E-15));
#435=CARTESIAN_POINT('',(13.6343933159277,9.42578124999999,-5.87536385284378E-15));
#436=CARTESIAN_POINT('',(0.314681671796978,0.0992187499999969,-1.29598299684434E-15));
#437=CARTESIAN_POINT('',(16.5750471765819,0.0992187499999977,8.52905709022895E-18));
#438=CARTESIAN_POINT('',(15.1047202462548,4.7625,-2.93341739787678E-15));
#439=CARTESIAN_POINT('',(29.8947588207126,9.42578125,-4.33680868994202E-15));
#440=CARTESIAN_POINT('',(16.5750471765819,0.0992187499999977,0.0));
#441=CARTESIAN_POINT('',(0.314681671796978,0.0992187499999969,-8.67361737988404E-16));
#442=CARTESIAN_POINT('',(13.6343933159277,9.42578124999999,-5.20417042793042E-15));
#443=CARTESIAN_POINT('',(15.1047202462548,4.7625,-33.3676978394524));
#444=MECHANICAL_DESIGN_GEOMETRIC_PRESENTATION_REPRESENTATION('',(#232,#233,#234,
     #235),#445);
#445=(GEOMETRIC_REPRESENTATION_CONTEXT(3)GLOBAL_UNCERTAINTY_ASSIGNED_CONTEXT((#446))
     GLOBAL_UNIT_ASSIGNED_CONTEXT((#452,#448,#447))REPRESENTATION_CONTEXT('VNGG160401-SGF',
     'TOP_LEVEL_ASSEMBLY_PART'));
#446=UNCERTAINTY_MEASURE_WITH_UNIT(LENGTH_MEASURE(2.0E-5),#452,'DISTANCE_ACCURACY_VALUE',
     'Maximum Tolerance applied to model');
#447=(NAMED_UNIT(*)SI_UNIT($,.STERADIAN.)SOLID_ANGLE_UNIT());
#448=(CONVERSION_BASED_UNIT('DEGREE',#450)NAMED_UNIT(#449)PLANE_ANGLE_UNIT());
#449=DIMENSIONAL_EXPONENTS(0.0,0.0,0.0,0.0,0.0,0.0,0.0);
#450=PLANE_ANGLE_MEASURE_WITH_UNIT(PLANE_ANGLE_MEASURE(0.0174532925),#451);
#451=(NAMED_UNIT(*)PLANE_ANGLE_UNIT()SI_UNIT($,.RADIAN.));
#452=(LENGTH_UNIT()NAMED_UNIT(*)SI_UNIT(.MILLI.,.METRE.));
#453=CONSTRUCTIVE_GEOMETRY_REPRESENTATION('supplemental geometry',(#249,#250),#445);
#454=CONSTRUCTIVE_GEOMETRY_REPRESENTATION_RELATIONSHIP('supplemental geometry','contains PCS and MCS coordinate systems',
     #24,#453);
ENDSEC;
END-ISO-10303-21;
