ISO-10303-21;
HEADER;
FILE_DESCRIPTION(
/* description */ (''),
/* implementation_level */ '2;1');
FILE_NAME(
/* name */ 'CCGT120408-UM.stp',
/* time_stamp */ '2017-04-13T13:33:40',
/* author */ ('Sandvik Coromant R&D'),
/* organization */ ('Sandvik Machining Solutions'),
/* preprocessor_version */ 'ST-DEVELOPER v15',
/* originating_system */ 'SIEMENS PLM Software NX v8.5.3.3(64 bits)',
/* authorization */ '');
FILE_SCHEMA(('AUTOMOTIVE_DESIGN'));
ENDSEC;
DATA;
#10=GEOMETRICALLY_BOUNDED_WIREFRAME_SHAPE_REPRESENTATION('IsoTurningInsert-None',
     (#25),#519);
#11=SHAPE_REPRESENTATION_RELATIONSHIP('None','relationship between IsoTurningInsert-None and IsoTurningInsert-None',
     #24,#13);
#12=SHAPE_REPRESENTATION_RELATIONSHIP('None','relationship between IsoTurningInsert-None and IsoTurningInsert-None',
     #24,#10);
#13=ADVANCED_BREP_SHAPE_REPRESENTATION('IsoTurningInsert-None',(#31),#519);
#14=SHAPE_DEFINITION_REPRESENTATION(#15,#24);
#15=PRODUCT_DEFINITION_SHAPE('','',#16);
#16=PRODUCT_DEFINITION(' ','',#18,#17);
#17=PRODUCT_DEFINITION_CONTEXT('part definition',#23,'design');
#18=PRODUCT_DEFINITION_FORMATION_WITH_SPECIFIED_SOURCE(' ',' ',#20,.NOT_KNOWN.);
#19=PRODUCT_RELATED_PRODUCT_CATEGORY('part','',(#20));
#20=PRODUCT('IsoTurningInsert','IsoTurningInsert',' ',(#21));
#21=PRODUCT_CONTEXT(' ',#23,'mechanical');
#22=APPLICATION_PROTOCOL_DEFINITION('international standard','automotive_design',
     2010,#23);
#23=APPLICATION_CONTEXT('core data for automotive mechanical design processes');
#24=SHAPE_REPRESENTATION('IsoTurningInsert-None',(#281),#519);
#25=GEOMETRIC_CURVE_SET('geometric curve set',(#261));
#26=SURFACE_STYLE_USAGE(.BOTH.,#27);
#27=SURFACE_SIDE_STYLE('',(#28));
#28=SURFACE_STYLE_FILL_AREA(#29);
#29=FILL_AREA_STYLE('',(#30));
#30=FILL_AREA_STYLE_COLOUR('',#280);
#31=MANIFOLD_SOLID_BREP('CUT',#32);
#32=CLOSED_SHELL('',(#49,#50,#51,#52,#53,#54,#55,#56,#57,#58,#59,#60,#61,#62));
#33=CYLINDRICAL_SURFACE('',#309,2.74999999999999);
#34=TOROIDAL_SURFACE('',#308,7.75,5.0);
#35=TOROIDAL_SURFACE('',#310,3.70770146243638,0.3);
#36=CONICAL_SURFACE('',#300,0.793749999999997,7.0);
#37=CONICAL_SURFACE('',#301,0.793749999999997,7.0);
#38=CONICAL_SURFACE('',#302,0.793749999999997,7.0);
#39=CONICAL_SURFACE('',#303,0.793749999999997,7.0);
#40=CONICAL_SURFACE('',#305,3.99999999997937,4.00000000120347);
#41=FACE_OUTER_BOUND('',#115,.T.);
#42=FACE_OUTER_BOUND('',#116,.T.);
#43=FACE_OUTER_BOUND('',#117,.T.);
#44=FACE_OUTER_BOUND('',#118,.T.);
#45=FACE_OUTER_BOUND('',#121,.T.);
#46=FACE_OUTER_BOUND('',#122,.T.);
#47=FACE_OUTER_BOUND('',#123,.T.);
#48=FACE_OUTER_BOUND('',#124,.T.);
#49=ADVANCED_FACE('',(#101,#102),#63,.F.);
#50=ADVANCED_FACE('',(#41),#64,.F.);
#51=ADVANCED_FACE('',(#42),#65,.F.);
#52=ADVANCED_FACE('',(#43),#66,.F.);
#53=ADVANCED_FACE('',(#44),#67,.F.);
#54=ADVANCED_FACE('',(#103,#104),#68,.T.);
#55=ADVANCED_FACE('',(#45),#36,.T.);
#56=ADVANCED_FACE('',(#46),#37,.T.);
#57=ADVANCED_FACE('',(#47),#38,.T.);
#58=ADVANCED_FACE('',(#48),#39,.T.);
#59=ADVANCED_FACE('',(#105,#106),#40,.F.);
#60=ADVANCED_FACE('',(#107,#108),#34,.T.);
#61=ADVANCED_FACE('',(#109,#110),#33,.F.);
#62=ADVANCED_FACE('',(#111,#112),#35,.F.);
#63=PLANE('',#289);
#64=PLANE('',#290);
#65=PLANE('',#291);
#66=PLANE('',#292);
#67=PLANE('',#293);
#68=PLANE('',#299);
#69=LINE('',#456,#85);
#70=LINE('',#461,#86);
#71=LINE('',#465,#87);
#72=LINE('',#469,#88);
#73=LINE('',#473,#89);
#74=LINE('',#476,#90);
#75=LINE('',#477,#91);
#76=LINE('',#479,#92);
#77=LINE('',#481,#93);
#78=LINE('',#483,#94);
#79=LINE('',#485,#95);
#80=LINE('',#487,#96);
#81=LINE('',#489,#97);
#82=LINE('',#491,#98);
#83=LINE('',#493,#99);
#84=LINE('',#495,#100);
#85=VECTOR('',#319,1.0);
#86=VECTOR('',#322,1.0);
#87=VECTOR('',#325,1.0);
#88=VECTOR('',#328,1.0);
#89=VECTOR('',#333,1.0);
#90=VECTOR('',#334,1.0);
#91=VECTOR('',#335,1.0);
#92=VECTOR('',#338,1.0);
#93=VECTOR('',#339,1.0);
#94=VECTOR('',#340,1.0);
#95=VECTOR('',#343,1.0);
#96=VECTOR('',#344,1.0);
#97=VECTOR('',#345,1.0);
#98=VECTOR('',#348,1.0);
#99=VECTOR('',#349,1.0);
#100=VECTOR('',#350,1.0);
#101=FACE_BOUND('',#113,.T.);
#102=FACE_BOUND('',#114,.T.);
#103=FACE_BOUND('',#119,.T.);
#104=FACE_BOUND('',#120,.T.);
#105=FACE_BOUND('',#125,.T.);
#106=FACE_BOUND('',#126,.T.);
#107=FACE_BOUND('',#127,.T.);
#108=FACE_BOUND('',#128,.T.);
#109=FACE_BOUND('',#129,.T.);
#110=FACE_BOUND('',#130,.T.);
#111=FACE_BOUND('',#131,.T.);
#112=FACE_BOUND('',#132,.T.);
#113=EDGE_LOOP('',(#133));
#114=EDGE_LOOP('',(#134,#135,#136,#137,#138,#139,#140,#141));
#115=EDGE_LOOP('',(#142,#143,#144,#145));
#116=EDGE_LOOP('',(#146,#147,#148,#149));
#117=EDGE_LOOP('',(#150,#151,#152,#153));
#118=EDGE_LOOP('',(#154,#155,#156,#157));
#119=EDGE_LOOP('',(#158));
#120=EDGE_LOOP('',(#159,#160,#161,#162,#163,#164,#165,#166));
#121=EDGE_LOOP('',(#167,#168,#169,#170));
#122=EDGE_LOOP('',(#171,#172,#173,#174));
#123=EDGE_LOOP('',(#175,#176,#177,#178));
#124=EDGE_LOOP('',(#179,#180,#181,#182));
#125=EDGE_LOOP('',(#183));
#126=EDGE_LOOP('',(#184));
#127=EDGE_LOOP('',(#185));
#128=EDGE_LOOP('',(#186));
#129=EDGE_LOOP('',(#187));
#130=EDGE_LOOP('',(#188));
#131=EDGE_LOOP('',(#189));
#132=EDGE_LOOP('',(#190));
#133=ORIENTED_EDGE('',*,*,#212,.T.);
#134=ORIENTED_EDGE('',*,*,#213,.T.);
#135=ORIENTED_EDGE('',*,*,#214,.T.);
#136=ORIENTED_EDGE('',*,*,#215,.T.);
#137=ORIENTED_EDGE('',*,*,#216,.T.);
#138=ORIENTED_EDGE('',*,*,#217,.T.);
#139=ORIENTED_EDGE('',*,*,#218,.T.);
#140=ORIENTED_EDGE('',*,*,#219,.T.);
#141=ORIENTED_EDGE('',*,*,#220,.T.);
#142=ORIENTED_EDGE('',*,*,#221,.F.);
#143=ORIENTED_EDGE('',*,*,#222,.T.);
#144=ORIENTED_EDGE('',*,*,#213,.F.);
#145=ORIENTED_EDGE('',*,*,#223,.T.);
#146=ORIENTED_EDGE('',*,*,#219,.F.);
#147=ORIENTED_EDGE('',*,*,#224,.T.);
#148=ORIENTED_EDGE('',*,*,#225,.F.);
#149=ORIENTED_EDGE('',*,*,#226,.T.);
#150=ORIENTED_EDGE('',*,*,#217,.F.);
#151=ORIENTED_EDGE('',*,*,#227,.T.);
#152=ORIENTED_EDGE('',*,*,#228,.F.);
#153=ORIENTED_EDGE('',*,*,#229,.T.);
#154=ORIENTED_EDGE('',*,*,#215,.F.);
#155=ORIENTED_EDGE('',*,*,#230,.T.);
#156=ORIENTED_EDGE('',*,*,#231,.F.);
#157=ORIENTED_EDGE('',*,*,#232,.T.);
#158=ORIENTED_EDGE('',*,*,#233,.F.);
#159=ORIENTED_EDGE('',*,*,#231,.T.);
#160=ORIENTED_EDGE('',*,*,#234,.T.);
#161=ORIENTED_EDGE('',*,*,#221,.T.);
#162=ORIENTED_EDGE('',*,*,#235,.T.);
#163=ORIENTED_EDGE('',*,*,#225,.T.);
#164=ORIENTED_EDGE('',*,*,#236,.T.);
#165=ORIENTED_EDGE('',*,*,#228,.T.);
#166=ORIENTED_EDGE('',*,*,#237,.T.);
#167=ORIENTED_EDGE('',*,*,#214,.F.);
#168=ORIENTED_EDGE('',*,*,#222,.F.);
#169=ORIENTED_EDGE('',*,*,#234,.F.);
#170=ORIENTED_EDGE('',*,*,#230,.F.);
#171=ORIENTED_EDGE('',*,*,#216,.F.);
#172=ORIENTED_EDGE('',*,*,#232,.F.);
#173=ORIENTED_EDGE('',*,*,#237,.F.);
#174=ORIENTED_EDGE('',*,*,#227,.F.);
#175=ORIENTED_EDGE('',*,*,#218,.F.);
#176=ORIENTED_EDGE('',*,*,#229,.F.);
#177=ORIENTED_EDGE('',*,*,#236,.F.);
#178=ORIENTED_EDGE('',*,*,#224,.F.);
#179=ORIENTED_EDGE('',*,*,#220,.F.);
#180=ORIENTED_EDGE('',*,*,#226,.F.);
#181=ORIENTED_EDGE('',*,*,#235,.F.);
#182=ORIENTED_EDGE('',*,*,#223,.F.);
#183=ORIENTED_EDGE('',*,*,#238,.T.);
#184=ORIENTED_EDGE('',*,*,#233,.T.);
#185=ORIENTED_EDGE('',*,*,#239,.T.);
#186=ORIENTED_EDGE('',*,*,#240,.T.);
#187=ORIENTED_EDGE('',*,*,#240,.F.);
#188=ORIENTED_EDGE('',*,*,#212,.F.);
#189=ORIENTED_EDGE('',*,*,#239,.F.);
#190=ORIENTED_EDGE('',*,*,#238,.F.);
#191=VERTEX_POINT('',#455);
#192=VERTEX_POINT('',#457);
#193=VERTEX_POINT('',#458);
#194=VERTEX_POINT('',#460);
#195=VERTEX_POINT('',#462);
#196=VERTEX_POINT('',#464);
#197=VERTEX_POINT('',#466);
#198=VERTEX_POINT('',#468);
#199=VERTEX_POINT('',#470);
#200=VERTEX_POINT('',#474);
#201=VERTEX_POINT('',#475);
#202=VERTEX_POINT('',#480);
#203=VERTEX_POINT('',#482);
#204=VERTEX_POINT('',#486);
#205=VERTEX_POINT('',#488);
#206=VERTEX_POINT('',#492);
#207=VERTEX_POINT('',#494);
#208=VERTEX_POINT('',#498);
#209=VERTEX_POINT('',#509);
#210=VERTEX_POINT('',#512);
#211=VERTEX_POINT('',#514);
#212=EDGE_CURVE('',#191,#191,#241,.T.);
#213=EDGE_CURVE('',#192,#193,#69,.T.);
#214=EDGE_CURVE('',#193,#194,#242,.T.);
#215=EDGE_CURVE('',#194,#195,#70,.T.);
#216=EDGE_CURVE('',#195,#196,#243,.T.);
#217=EDGE_CURVE('',#196,#197,#71,.T.);
#218=EDGE_CURVE('',#197,#198,#244,.T.);
#219=EDGE_CURVE('',#198,#199,#72,.T.);
#220=EDGE_CURVE('',#199,#192,#245,.T.);
#221=EDGE_CURVE('',#200,#201,#73,.T.);
#222=EDGE_CURVE('',#200,#193,#74,.T.);
#223=EDGE_CURVE('',#192,#201,#75,.T.);
#224=EDGE_CURVE('',#198,#202,#76,.T.);
#225=EDGE_CURVE('',#203,#202,#77,.T.);
#226=EDGE_CURVE('',#203,#199,#78,.T.);
#227=EDGE_CURVE('',#196,#204,#79,.T.);
#228=EDGE_CURVE('',#205,#204,#80,.T.);
#229=EDGE_CURVE('',#205,#197,#81,.T.);
#230=EDGE_CURVE('',#194,#206,#82,.T.);
#231=EDGE_CURVE('',#207,#206,#83,.T.);
#232=EDGE_CURVE('',#207,#195,#84,.T.);
#233=EDGE_CURVE('',#208,#208,#246,.T.);
#234=EDGE_CURVE('',#206,#200,#247,.T.);
#235=EDGE_CURVE('',#201,#203,#248,.T.);
#236=EDGE_CURVE('',#202,#205,#249,.T.);
#237=EDGE_CURVE('',#204,#207,#250,.T.);
#238=EDGE_CURVE('',#209,#209,#251,.T.);
#239=EDGE_CURVE('',#210,#210,#252,.T.);
#240=EDGE_CURVE('',#211,#211,#253,.T.);
#241=CIRCLE('',#284,2.74999999999999);
#242=CIRCLE('',#285,0.208988528699915);
#243=CIRCLE('',#286,0.208988528699914);
#244=CIRCLE('',#287,0.208988528699915);
#245=CIRCLE('',#288,0.208988528699915);
#246=CIRCLE('',#294,4.06293413074916);
#247=CIRCLE('',#295,0.793749999999997);
#248=CIRCLE('',#296,0.793749999999997);
#249=CIRCLE('',#297,0.793749999999997);
#250=CIRCLE('',#298,0.793749999999997);
#251=CIRCLE('',#304,4.00697067751389);
#252=CIRCLE('',#306,3.93651081361923);
#253=CIRCLE('',#307,2.74999999999999);
#254=CURVE_STYLE('',#258,POSITIVE_LENGTH_MEASURE(0.18),#257);
#255=CURVE_STYLE('',#259,POSITIVE_LENGTH_MEASURE(0.18),#279);
#256=CURVE_STYLE('',#260,POSITIVE_LENGTH_MEASURE(0.18),#279);
#257=DRAUGHTING_PRE_DEFINED_COLOUR('blue');
#258=DRAUGHTING_PRE_DEFINED_CURVE_FONT('continuous');
#259=DRAUGHTING_PRE_DEFINED_CURVE_FONT('continuous');
#260=DRAUGHTING_PRE_DEFINED_CURVE_FONT('continuous');
#261=B_SPLINE_CURVE_WITH_KNOTS('CUTTING EDGE LINE',5,(#390,#391,#392,#393,#394,#395,
     #396,#397,#398,#399,#400,#401,#402,#403,#404,#405,#406,#407,#408,#409,#410,
     #411,#412,#413,#414,#415,#416,#417,#418,#419,#420,#421,#422,#423,#424,#425,
     #426,#427,#428,#429,#430,#431,#432,#433,#434,#435,#436,#437,#438,#439,#440,
     #441,#442,#443,#444,#445,#446,#447,#448,#449,#450,#451),.UNSPECIFIED.,.T.,.F.,
     (2,4,1,1,1,1,1,1,1,4,4,1,1,1,1,1,1,1,4,4,1,1,1,1,1,1,1,4,4,1,1,1,1,1,1,1,4,
     4,1,1),(-0.225124797,0.0,0.00276391143749999,0.00552782287499998,0.00829173431249997,
     0.01105564575,0.0138195571875001,0.016583468625,0.0193473800625,0.0221112915,
     0.2472360885,0.2506909778125,0.254145867125,0.2576007564375,0.26105564575,0.2645105350625,
     0.267965424375,0.2714203136875,0.274875203,0.5,0.5027639114375,0.505527822875,
     0.5082917343125,0.51105564575,0.5138195571875,0.516583468625,0.5193473800625,
     0.5221112915,0.7472360885,0.7506909778125,0.754145867125,0.7576007564375,0.76105564575,
     0.7645105350625,0.767965424375,0.7714203136875,0.774875203,1.0,1.0027639114375,
     1.005527822875),.UNSPECIFIED.);
#262=PRESENTATION_LAYER_ASSIGNMENT('1','Layer 1',(#261,#282,#283,#31));
#265=STYLED_ITEM('',(#271),#261);
#266=STYLED_ITEM('',(#272),#282);
#267=STYLED_ITEM('',(#273),#283);
#268=STYLED_ITEM('',(#274),#31);
#269=PRESENTATION_STYLE_ASSIGNMENT((#275));
#270=PRESENTATION_STYLE_ASSIGNMENT((#276));
#271=PRESENTATION_STYLE_ASSIGNMENT((#254));
#272=PRESENTATION_STYLE_ASSIGNMENT((#255));
#273=PRESENTATION_STYLE_ASSIGNMENT((#256));
#274=PRESENTATION_STYLE_ASSIGNMENT((#26));
#275=POINT_STYLE('',#277,POSITIVE_LENGTH_MEASURE(3.0),#279);
#276=POINT_STYLE('',#278,POSITIVE_LENGTH_MEASURE(3.0),#279);
#277=PRE_DEFINED_POINT_MARKER_SYMBOL('plus');
#278=PRE_DEFINED_POINT_MARKER_SYMBOL('plus');
#279=COLOUR_RGB('Medium Maroon',0.6,0.4,0.4);
#280=COLOUR_RGB('IsoInsertColor',0.8,0.8,0.8);
#281=AXIS2_PLACEMENT_3D('',#387,#311,#312);
#282=AXIS2_PLACEMENT_3D('PCS',#452,#313,#314);
#283=AXIS2_PLACEMENT_3D('MCS',#453,#315,#316);
#284=AXIS2_PLACEMENT_3D('',#454,#317,#318);
#285=AXIS2_PLACEMENT_3D('',#459,#320,#321);
#286=AXIS2_PLACEMENT_3D('',#463,#323,#324);
#287=AXIS2_PLACEMENT_3D('',#467,#326,#327);
#288=AXIS2_PLACEMENT_3D('',#471,#329,#330);
#289=AXIS2_PLACEMENT_3D('',#472,#331,#332);
#290=AXIS2_PLACEMENT_3D('',#478,#336,#337);
#291=AXIS2_PLACEMENT_3D('',#484,#341,#342);
#292=AXIS2_PLACEMENT_3D('',#490,#346,#347);
#293=AXIS2_PLACEMENT_3D('',#496,#351,#352);
#294=AXIS2_PLACEMENT_3D('',#497,#353,#354);
#295=AXIS2_PLACEMENT_3D('',#499,#355,#356);
#296=AXIS2_PLACEMENT_3D('',#500,#357,#358);
#297=AXIS2_PLACEMENT_3D('',#501,#359,#360);
#298=AXIS2_PLACEMENT_3D('',#502,#361,#362);
#299=AXIS2_PLACEMENT_3D('',#503,#363,#364);
#300=AXIS2_PLACEMENT_3D('',#504,#365,#366);
#301=AXIS2_PLACEMENT_3D('',#505,#367,#368);
#302=AXIS2_PLACEMENT_3D('',#506,#369,#370);
#303=AXIS2_PLACEMENT_3D('',#507,#371,#372);
#304=AXIS2_PLACEMENT_3D('',#508,#373,#374);
#305=AXIS2_PLACEMENT_3D('',#510,#375,#376);
#306=AXIS2_PLACEMENT_3D('',#511,#377,#378);
#307=AXIS2_PLACEMENT_3D('',#513,#379,#380);
#308=AXIS2_PLACEMENT_3D('',#515,#381,#382);
#309=AXIS2_PLACEMENT_3D('',#516,#383,#384);
#310=AXIS2_PLACEMENT_3D('',#517,#385,#386);
#311=DIRECTION('',(0.0,0.0,1.0));
#312=DIRECTION('',(1.0,0.0,0.0));
#313=DIRECTION('',(0.0,0.0,1.0));
#314=DIRECTION('',(1.0,0.0,0.0));
#315=DIRECTION('',(0.0,0.0,1.0));
#316=DIRECTION('',(1.0,0.0,0.0));
#317=DIRECTION('',(0.0,0.0,1.0));
#318=DIRECTION('',(-0.766044443118978,-0.64278760968654,0.0));
#319=DIRECTION('',(1.0,3.88578058618805E-16,0.0));
#320=DIRECTION('',(0.0,0.0,-1.0));
#321=DIRECTION('',(-0.766044443118977,-0.642787609686537,0.0));
#322=DIRECTION('',(-0.173648177666928,-0.984807753012209,0.0));
#323=DIRECTION('',(0.0,0.0,-1.0));
#324=DIRECTION('',(-0.766044443118979,-0.64278760968654,0.0));
#325=DIRECTION('',(-1.0,7.21644966006352E-16,0.0));
#326=DIRECTION('',(0.0,0.0,-1.0));
#327=DIRECTION('',(-0.766044443118978,-0.642787609686539,0.0));
#328=DIRECTION('',(0.173648177666929,0.984807753012208,0.0));
#329=DIRECTION('',(0.0,0.0,-1.0));
#330=DIRECTION('',(-0.766044443118979,-0.642787609686537,0.0));
#331=DIRECTION('',(0.0,0.0,1.0));
#332=DIRECTION('',(-0.766044443118978,-0.64278760968654,0.0));
#333=DIRECTION('',(-1.0,-3.88578058618805E-16,-1.01774888095285E-16));
#334=DIRECTION('',(1.73472347597681E-16,-0.121869343405148,-0.992546151641322));
#335=DIRECTION('',(-1.73472347597681E-16,0.121869343405148,0.992546151641322));
#336=DIRECTION('',(3.88578058618805E-16,-0.992546151641322,0.121869343405148));
#337=DIRECTION('',(1.0,3.88578058618805E-16,0.0));
#338=DIRECTION('',(-0.120017874239897,0.0211623893957694,0.992546151641322));
#339=DIRECTION('',(-0.173648177666929,-0.984807753012208,3.57272263417822E-16));
#340=DIRECTION('',(0.120017874239897,-0.0211623893957694,-0.992546151641322));
#341=DIRECTION('',(0.977467145358805,-0.172353830482839,0.121869343405148));
#342=DIRECTION('',(0.173648177666929,0.984807753012208,0.0));
#343=DIRECTION('',(-1.94289029309402E-16,-0.121869343405147,0.992546151641322));
#344=DIRECTION('',(1.0,-7.21644966006352E-16,1.01774888095285E-16));
#345=DIRECTION('',(1.94289029309402E-16,0.121869343405147,-0.992546151641322));
#346=DIRECTION('',(6.66133814775094E-16,0.992546151641322,0.121869343405147));
#347=DIRECTION('',(-1.0,7.21644966006352E-16,0.0));
#348=DIRECTION('',(0.120017874239896,-0.0211623893957685,0.992546151641322));
#349=DIRECTION('',(0.173648177666928,0.984807753012209,-3.57272263417822E-16));
#350=DIRECTION('',(-0.120017874239896,0.0211623893957685,-0.992546151641322));
#351=DIRECTION('',(-0.977467145358805,0.172353830482838,0.121869343405147));
#352=DIRECTION('',(-0.173648177666928,-0.984807753012209,0.0));
#353=DIRECTION('',(0.0,0.0,1.0));
#354=DIRECTION('',(-0.766044443118978,-0.64278760968654,0.0));
#355=DIRECTION('',(-1.03309251233719E-16,3.86469317895238E-16,1.0));
#356=DIRECTION('',(-0.642787609686539,0.766044443118977,-3.62458580068657E-16));
#357=DIRECTION('',(-1.03309251233719E-16,3.86469317895238E-16,1.0));
#358=DIRECTION('',(-0.64278760968654,0.766044443118977,-3.62458580068657E-16));
#359=DIRECTION('',(-1.03309251233719E-16,3.86469317895238E-16,1.0));
#360=DIRECTION('',(-0.64278760968654,0.766044443118978,-3.62458580068657E-16));
#361=DIRECTION('',(-1.03309251233719E-16,3.86469317895238E-16,1.0));
#362=DIRECTION('',(-0.642787609686539,0.766044443118978,-3.62458580068657E-16));
#363=DIRECTION('',(-1.03309251233719E-16,3.86469317895238E-16,1.0));
#364=DIRECTION('',(-0.64278760968654,0.766044443118978,-3.62458580068657E-16));
#365=DIRECTION('',(-1.03309251233719E-16,3.86469317895238E-16,1.0));
#366=DIRECTION('',(-0.64278760968654,0.766044443118978,3.50936071083659E-17));
#367=DIRECTION('',(-1.03309251233719E-16,3.86469317895238E-16,1.0));
#368=DIRECTION('',(-0.64278760968654,0.766044443118978,0.0));
#369=DIRECTION('',(-1.03309251233719E-16,3.86469317895238E-16,1.0));
#370=DIRECTION('',(-0.64278760968654,0.766044443118978,7.01872142167317E-18));
#371=DIRECTION('',(-1.03309251233719E-16,3.86469317895238E-16,1.0));
#372=DIRECTION('',(-0.64278760968654,0.766044443118978,4.2112328530039E-17));
#373=DIRECTION('',(0.0,0.0,-1.0));
#374=DIRECTION('',(0.766044443118978,0.64278760968654,0.0));
#375=DIRECTION('',(0.0,0.0,1.0));
#376=DIRECTION('',(-0.766044443118978,-0.64278760968654,-5.6317000986572E-16));
#377=DIRECTION('',(0.0,0.0,1.0));
#378=DIRECTION('',(0.766044443118978,0.64278760968654,0.0));
#379=DIRECTION('',(0.0,0.0,-1.0));
#380=DIRECTION('',(-0.766044443118978,-0.64278760968654,0.0));
#381=DIRECTION('',(0.0,0.0,1.0));
#382=DIRECTION('',(-0.766044443118978,-0.64278760968654,0.0));
#383=DIRECTION('',(0.0,0.0,1.0));
#384=DIRECTION('',(-0.766044443118978,-0.64278760968654,0.0));
#385=DIRECTION('',(0.0,0.0,-1.0));
#386=DIRECTION('',(0.766044443118978,0.64278760968654,0.0));
#387=CARTESIAN_POINT('',(0.0,0.0,0.0));
#390=CARTESIAN_POINT('',(9.9730969937859,4.17443857259059E-14,0.0));
#391=CARTESIAN_POINT('',(12.2553932719614,3.99680288865056E-14,3.09395505499874E-16));
#392=CARTESIAN_POINT('',(12.3064145384803,0.00204973987184509,3.13664899885734E-16));
#393=CARTESIAN_POINT('',(12.3873862996279,0.011628853865437,3.17349342408893E-16));
#394=CARTESIAN_POINT('',(12.4937253395888,0.0386932046924855,3.15110562407668E-16));
#395=CARTESIAN_POINT('',(12.6248336639111,0.0975702289839813,2.99885895832323E-16));
#396=CARTESIAN_POINT('',(12.7443166086952,0.180671468108081,2.71623422997535E-16));
#397=CARTESIAN_POINT('',(12.8469033488936,0.283908819748524,2.31776208416499E-16));
#398=CARTESIAN_POINT('',(12.9276526204857,0.402801426050853,1.82023277371878E-16));
#399=CARTESIAN_POINT('',(12.9727713835144,0.502825261851225,1.37809325118775E-16));
#400=CARTESIAN_POINT('',(12.9962655680081,0.580903484315916,1.02084746618501E-16));
#401=CARTESIAN_POINT('',(13.0071439176788,0.630793689558772,7.8830484891746E-17));
#402=CARTESIAN_POINT('',(13.40346050728,2.87841675897691,4.02072739357343E-17));
#403=CARTESIAN_POINT('',(13.7953472219045,5.1009167589769,2.68048492904895E-17));
#404=CARTESIAN_POINT('',(14.1872339365291,7.32341675897689,2.68048492904895E-17));
#405=CARTESIAN_POINT('',(14.5791206511536,9.54591675897688,4.02072739357343E-17));
#406=CARTESIAN_POINT('',(14.9762866851963,11.7983572672129,5.81401660923372E-17));
#407=CARTESIAN_POINT('',(14.9839783540378,11.858743807848,4.04203744214623E-17));
#408=CARTESIAN_POINT('',(14.9875621382335,11.9589521113832,1.15554107185627E-17));
#409=CARTESIAN_POINT('',(14.9703259113089,12.094305363469,-2.61341716501599E-17));
#410=CARTESIAN_POINT('',(14.9086848648275,12.2668163291543,-7.1836328054408E-17));
#411=CARTESIAN_POINT('',(14.8056824900697,12.4234427167455,-1.10562913049168E-16));
#412=CARTESIAN_POINT('',(14.6693217839157,12.5520781407654,-1.39323007262864E-16));
#413=CARTESIAN_POINT('',(14.5101355028198,12.6427389360629,-1.558815092687E-16));
#414=CARTESIAN_POINT('',(14.3798316101668,12.6832171515369,-1.59789790206536E-16));
#415=CARTESIAN_POINT('',(14.2805233783336,12.6970888023718,-1.57913638084099E-16));
#416=CARTESIAN_POINT('',(14.219718600661,12.7,-1.55168701030704E-16));
#417=CARTESIAN_POINT('',(11.9325305669087,12.7,-9.20280063238033E-17));
#418=CARTESIAN_POINT('',(9.67574492199262,12.7,-6.13520042158689E-17));
#419=CARTESIAN_POINT('',(7.41895927707657,12.7,-6.13520042158688E-17));
#420=CARTESIAN_POINT('',(5.16217363216051,12.7,-9.20280063238033E-17));
#421=CARTESIAN_POINT('',(2.87987735398502,12.7,-1.61890290198175E-16));
#422=CARTESIAN_POINT('',(2.82885608746616,12.6979502601282,-1.77826043312102E-16));
#423=CARTESIAN_POINT('',(2.74788432631854,12.6883711461346,-1.99768349231239E-16));
#424=CARTESIAN_POINT('',(2.64154528635767,12.6613067953075,-2.20919209423429E-16));
#425=CARTESIAN_POINT('',(2.51043696203535,12.6024297710161,-2.3349646886716E-16));
#426=CARTESIAN_POINT('',(2.39095401725124,12.5193285318919,-2.29375086904003E-16));
#427=CARTESIAN_POINT('',(2.28836727705279,12.4160911802515,-2.08960321270614E-16));
#428=CARTESIAN_POINT('',(2.20761800546076,12.2971985739492,-1.7297523268889E-16));
#429=CARTESIAN_POINT('',(2.16249924243198,12.1971747381488,-1.35090026207705E-16));
#430=CARTESIAN_POINT('',(2.13900505793832,12.1190965156841,-1.01605434085565E-16));
#431=CARTESIAN_POINT('',(2.12812670826765,12.0692063104413,-7.88304848917463E-17));
#432=CARTESIAN_POINT('',(1.73181011866646,9.82158324102313,-4.02072739357345E-17));
#433=CARTESIAN_POINT('',(1.3399234040419,7.59908324102314,-2.68048492904897E-17));
#434=CARTESIAN_POINT('',(0.948036689417342,5.37658324102315,-2.68048492904897E-17));
#435=CARTESIAN_POINT('',(0.556149974792783,3.15408324102316,-4.02072739357345E-17));
#436=CARTESIAN_POINT('',(0.158983940750081,0.901642732787105,-5.81401660923376E-17));
#437=CARTESIAN_POINT('',(0.151292271908599,0.841256192152014,-4.04203744214627E-17));
#438=CARTESIAN_POINT('',(0.147708487712853,0.741047888616827,-1.15554107185632E-17));
#439=CARTESIAN_POINT('',(0.164944714637491,0.605694636531072,2.61341716501594E-17));
#440=CARTESIAN_POINT('',(0.226585761118915,0.433183670845779,7.18363280544075E-17));
#441=CARTESIAN_POINT('',(0.329588135876705,0.276557283254593,1.10562913049168E-16));
#442=CARTESIAN_POINT('',(0.46594884203072,0.147921859234661,1.39323007262864E-16));
#443=CARTESIAN_POINT('',(0.625135123126585,0.0572610639371973,1.55881509268699E-16));
#444=CARTESIAN_POINT('',(0.755439015779545,0.0167828484631309,1.59789790206536E-16));
#445=CARTESIAN_POINT('',(0.854747247612808,0.00291119762824454,1.57913638084099E-16));
#446=CARTESIAN_POINT('',(0.915552025285377,4.79616346638068E-14,1.55168701030704E-16));
#447=CARTESIAN_POINT('',(3.20274005903772,4.61852778244065E-14,9.20280063238032E-17));
#448=CARTESIAN_POINT('',(5.45952570395378,4.52970994047064E-14,4.60140031619016E-17));
#449=CARTESIAN_POINT('',(7.71631134886984,4.35207425653061E-14,1.53380010539672E-17));
#450=CARTESIAN_POINT('',(9.9730969937859,4.17443857259059E-14,0.0));
#451=CARTESIAN_POINT('',(12.2553932719614,3.99680288865056E-14,3.09395505499874E-16));
#452=CARTESIAN_POINT('',(0.0,0.0,0.0));
#453=CARTESIAN_POINT('',(7.56763531297323,6.35,0.0));
#454=CARTESIAN_POINT('',(7.56763531297323,6.35,-4.7625));
#455=CARTESIAN_POINT('',(5.46101309439605,4.58233407336202,-4.7625));
#456=CARTESIAN_POINT('',(7.5676353129732,12.1152385286999,-4.7625));
#457=CARTESIAN_POINT('',(2.90538798724446,12.1152385286999,-4.7625));
#458=CARTESIAN_POINT('',(14.1893162118247,12.1152385286999,-4.7625));
#459=CARTESIAN_POINT('',(14.1893162118247,11.90625,-4.7625));
#460=CARTESIAN_POINT('',(14.395129735179,11.869959522838,-4.7625));
#461=CARTESIAN_POINT('',(13.2452869140016,5.34887683567612,-4.7625));
#462=CARTESIAN_POINT('',(12.4356961620562,0.757459522838003,-4.7625));
#463=CARTESIAN_POINT('',(12.229882638702,0.793750000000038,-4.7625));
#464=CARTESIAN_POINT('',(12.229882638702,0.584761471300123,-4.7625));
#465=CARTESIAN_POINT('',(7.5676353129732,0.584761471300125,-4.7625));
#466=CARTESIAN_POINT('',(0.945954414121661,0.58476147130013,-4.7625));
#467=CARTESIAN_POINT('',(0.945954414121663,0.793750000000046,-4.7625));
#468=CARTESIAN_POINT('',(0.740140890767372,0.830040477162077,-4.7625));
#469=CARTESIAN_POINT('',(1.88998371194486,7.35112316432392,-4.7625));
#470=CARTESIAN_POINT('',(2.69957446389017,11.942540477162,-4.7625));
#471=CARTESIAN_POINT('',(2.90538798724446,11.90625,-4.7625));
#472=CARTESIAN_POINT('',(7.52141400043606,5.82168798019793,-4.7625));
#473=CARTESIAN_POINT('',(7.56763531297323,12.7,-5.38749756651153E-15));
#474=CARTESIAN_POINT('',(14.1893162118247,12.7,-4.70341667094256E-15));
#475=CARTESIAN_POINT('',(2.90538798724445,12.7,-5.86915084679898E-15));
#476=CARTESIAN_POINT('',(14.1893162118247,12.7,-4.41985430433861E-15));
#477=CARTESIAN_POINT('',(2.90538798724445,12.7,-5.00304446457366E-15));
#478=CARTESIAN_POINT('',(7.5676353129732,12.7,-5.38749756651153E-15));
#479=CARTESIAN_POINT('',(0.164263260168224,0.93158324102317,-8.54015443892259E-16));
#480=CARTESIAN_POINT('',(0.164263260168224,0.93158324102317,-1.60420239234279E-15));
#481=CARTESIAN_POINT('',(1.31410608134571,7.452665928185,-4.00561136949636E-15));
#482=CARTESIAN_POINT('',(2.12369683329102,12.0440832410231,-5.69641507217208E-15));
#483=CARTESIAN_POINT('',(2.12369683329102,12.0440832410231,-5.06469762363097E-15));
#484=CARTESIAN_POINT('',(1.31410608134571,7.45266592818501,-4.00561136949636E-15));
#485=CARTESIAN_POINT('',(12.229882638702,4.0766001685455E-14,1.94137097334028E-16));
#486=CARTESIAN_POINT('',(12.229882638702,4.0766001685455E-14,2.31605104541941E-18));
#487=CARTESIAN_POINT('',(7.56763531297322,4.42354486374086E-14,-4.79337229242026E-16));
#488=CARTESIAN_POINT('',(0.94595441412166,4.9439619065339E-14,-1.163418124811E-15));
#489=CARTESIAN_POINT('',(0.94595441412166,4.9439619065339E-14,-6.45913014938668E-16));
#490=CARTESIAN_POINT('',(7.5676353129732,4.42354486374086E-14,-4.79337229242028E-16));
#491=CARTESIAN_POINT('',(14.9710073657782,11.7684167589769,-4.2655579100801E-15));
#492=CARTESIAN_POINT('',(14.9710073657782,11.7684167589769,-4.26263240341077E-15));
#493=CARTESIAN_POINT('',(13.8211645446007,5.24733407181502,-1.86122342625719E-15));
#494=CARTESIAN_POINT('',(13.0115737926554,0.655916758976915,-1.70419723581477E-16));
#495=CARTESIAN_POINT('',(13.0115737926554,0.655916758976915,-5.31371272788411E-17));
#496=CARTESIAN_POINT('',(13.8211645446007,5.24733407181503,-1.8612234262572E-15));
#497=CARTESIAN_POINT('',(7.56763531297323,6.35,-6.93889390390723E-15));
#498=CARTESIAN_POINT('',(4.4552471993544,3.73839628178189,-6.93889390390723E-15));
#499=CARTESIAN_POINT('',(14.1893162118247,11.90625,-4.39665664986322E-15));
#500=CARTESIAN_POINT('',(2.90538798724446,11.90625,-5.56239082571963E-15));
#501=CARTESIAN_POINT('',(0.945954414121662,0.793750000000045,-1.47017814589034E-15));
#502=CARTESIAN_POINT('',(12.229882638702,0.793750000000037,-3.04443970033924E-16));
#503=CARTESIAN_POINT('',(7.56763531297323,6.35,-2.93341739787677E-15));
#504=CARTESIAN_POINT('',(14.1893162118247,11.90625,-4.33680868994202E-15));
#505=CARTESIAN_POINT('',(12.229882638702,0.793750000000037,0.0));
#506=CARTESIAN_POINT('',(0.945954414121662,0.793750000000045,-8.67361737988404E-16));
#507=CARTESIAN_POINT('',(2.90538798724446,11.90625,-5.20417042793042E-15));
#508=CARTESIAN_POINT('',(7.56763531297323,6.35,-0.800314667049148));
#509=CARTESIAN_POINT('',(10.6371529342234,8.92563110388321,-0.800314667049148));
#510=CARTESIAN_POINT('',(7.56763531297323,6.35,-0.900000000023396));
#511=CARTESIAN_POINT('',(7.56763531297323,6.35,-0.973414220046671));
#512=CARTESIAN_POINT('',(10.583177547024,8.88034037639152,-0.973414220046671));
#513=CARTESIAN_POINT('',(7.56763531297323,6.35,-4.20718913883075));
#514=CARTESIAN_POINT('',(5.46101309439604,4.58233407336202,-4.20718913883075));
#515=CARTESIAN_POINT('',(7.56763531297323,6.35,-4.20718913883075));
#516=CARTESIAN_POINT('',(7.56763531297323,6.35,-33.3676978394524));
#517=CARTESIAN_POINT('',(7.56763531297323,6.35,-0.779387724919627));
#518=MECHANICAL_DESIGN_GEOMETRIC_PRESENTATION_REPRESENTATION('',(#265,#266,#267,
     #268),#519);
#519=(GEOMETRIC_REPRESENTATION_CONTEXT(3)GLOBAL_UNCERTAINTY_ASSIGNED_CONTEXT((#520))
     GLOBAL_UNIT_ASSIGNED_CONTEXT((#526,#522,#521))REPRESENTATION_CONTEXT('CCGT120408-UM',
     'TOP_LEVEL_ASSEMBLY_PART'));
#520=UNCERTAINTY_MEASURE_WITH_UNIT(LENGTH_MEASURE(2.0E-5),#526,'DISTANCE_ACCURACY_VALUE',
     'Maximum Tolerance applied to model');
#521=(NAMED_UNIT(*)SI_UNIT($,.STERADIAN.)SOLID_ANGLE_UNIT());
#522=(CONVERSION_BASED_UNIT('DEGREE',#524)NAMED_UNIT(#523)PLANE_ANGLE_UNIT());
#523=DIMENSIONAL_EXPONENTS(0.0,0.0,0.0,0.0,0.0,0.0,0.0);
#524=PLANE_ANGLE_MEASURE_WITH_UNIT(PLANE_ANGLE_MEASURE(0.0174532925),#525);
#525=(NAMED_UNIT(*)PLANE_ANGLE_UNIT()SI_UNIT($,.RADIAN.));
#526=(LENGTH_UNIT()NAMED_UNIT(*)SI_UNIT(.MILLI.,.METRE.));
#527=CONSTRUCTIVE_GEOMETRY_REPRESENTATION('supplemental geometry',(#282,#283),#519);
#528=CONSTRUCTIVE_GEOMETRY_REPRESENTATION_RELATIONSHIP('supplemental geometry','contains PCS and MCS coordinate systems',
     #24,#527);
ENDSEC;
END-ISO-10303-21;
