ISO-10303-21;
HEADER;
FILE_DESCRIPTION(
/* description */ (''),
/* implementation_level */ '2;1');
FILE_NAME(
/* name */ 'DNGA110412.stp',
/* time_stamp */ '2017-03-21T10:54:03',
/* author */ ('Sandvik Coromant R&D'),
/* organization */ ('Sandvik Machining Solutions'),
/* preprocessor_version */ 'ST-DEVELOPER v15',
/* originating_system */ 'SIEMENS PLM Software NX v8.5.3.3(64 bits)',
/* authorization */ '');
FILE_SCHEMA(('AUTOMOTIVE_DESIGN'));
ENDSEC;
DATA;
#10=GEOMETRICALLY_BOUNDED_WIREFRAME_SHAPE_REPRESENTATION('IsoTurningInsert-None',
     (#25),#467);
#11=SHAPE_REPRESENTATION_RELATIONSHIP('None','relationship between IsoTurningInsert-None and IsoTurningInsert-None',
     #24,#13);
#12=SHAPE_REPRESENTATION_RELATIONSHIP('None','relationship between IsoTurningInsert-None and IsoTurningInsert-None',
     #24,#10);
#13=ADVANCED_BREP_SHAPE_REPRESENTATION('IsoTurningInsert-None',(#31),#467);
#14=SHAPE_DEFINITION_REPRESENTATION(#15,#24);
#15=PRODUCT_DEFINITION_SHAPE('','',#16);
#16=PRODUCT_DEFINITION(' ','',#18,#17);
#17=PRODUCT_DEFINITION_CONTEXT('part definition',#23,'design');
#18=PRODUCT_DEFINITION_FORMATION_WITH_SPECIFIED_SOURCE(' ',' ',#20,.NOT_KNOWN.);
#19=PRODUCT_RELATED_PRODUCT_CATEGORY('part','',(#20));
#20=PRODUCT('IsoTurningInsert','IsoTurningInsert',' ',(#21));
#21=PRODUCT_CONTEXT(' ',#23,'mechanical');
#22=APPLICATION_PROTOCOL_DEFINITION('international standard','automotive_design',
     2010,#23);
#23=APPLICATION_CONTEXT('core data for automotive mechanical design processes');
#24=SHAPE_REPRESENTATION('IsoTurningInsert-None',(#248),#467);
#25=GEOMETRIC_CURVE_SET('geometric curve set',(#228));
#26=SURFACE_STYLE_USAGE(.BOTH.,#27);
#27=SURFACE_SIDE_STYLE('',(#28));
#28=SURFACE_STYLE_FILL_AREA(#29);
#29=FILL_AREA_STYLE('',(#30));
#30=FILL_AREA_STYLE_COLOUR('',#247);
#31=MANIFOLD_SOLID_BREP('CUT',#32);
#32=CLOSED_SHELL('',(#46,#47,#48,#49,#50,#51,#52,#53,#54,#55,#56));
#33=CYLINDRICAL_SURFACE('',#267,1.190625);
#34=CYLINDRICAL_SURFACE('',#268,1.190625);
#35=CYLINDRICAL_SURFACE('',#269,1.190625);
#36=CYLINDRICAL_SURFACE('',#270,1.190625);
#37=CYLINDRICAL_SURFACE('',#271,1.905);
#38=FACE_OUTER_BOUND('',#103,.T.);
#39=FACE_OUTER_BOUND('',#104,.T.);
#40=FACE_OUTER_BOUND('',#105,.T.);
#41=FACE_OUTER_BOUND('',#106,.T.);
#42=FACE_OUTER_BOUND('',#109,.T.);
#43=FACE_OUTER_BOUND('',#110,.T.);
#44=FACE_OUTER_BOUND('',#111,.T.);
#45=FACE_OUTER_BOUND('',#112,.T.);
#46=ADVANCED_FACE('',(#95,#96),#57,.F.);
#47=ADVANCED_FACE('',(#38),#58,.T.);
#48=ADVANCED_FACE('',(#39),#59,.T.);
#49=ADVANCED_FACE('',(#40),#60,.T.);
#50=ADVANCED_FACE('',(#41),#61,.T.);
#51=ADVANCED_FACE('',(#97,#98),#62,.T.);
#52=ADVANCED_FACE('',(#42),#33,.T.);
#53=ADVANCED_FACE('',(#43),#34,.T.);
#54=ADVANCED_FACE('',(#44),#35,.T.);
#55=ADVANCED_FACE('',(#45),#36,.T.);
#56=ADVANCED_FACE('',(#99,#100),#37,.F.);
#57=PLANE('',#256);
#58=PLANE('',#257);
#59=PLANE('',#258);
#60=PLANE('',#259);
#61=PLANE('',#260);
#62=PLANE('',#266);
#63=LINE('',#413,#79);
#64=LINE('',#418,#80);
#65=LINE('',#422,#81);
#66=LINE('',#426,#82);
#67=LINE('',#430,#83);
#68=LINE('',#433,#84);
#69=LINE('',#434,#85);
#70=LINE('',#436,#86);
#71=LINE('',#438,#87);
#72=LINE('',#440,#88);
#73=LINE('',#442,#89);
#74=LINE('',#444,#90);
#75=LINE('',#446,#91);
#76=LINE('',#448,#92);
#77=LINE('',#450,#93);
#78=LINE('',#452,#94);
#79=VECTOR('',#280,1.0);
#80=VECTOR('',#283,1.0);
#81=VECTOR('',#286,1.0);
#82=VECTOR('',#289,1.0);
#83=VECTOR('',#294,1.0);
#84=VECTOR('',#295,1.0);
#85=VECTOR('',#296,1.0);
#86=VECTOR('',#299,1.0);
#87=VECTOR('',#300,1.0);
#88=VECTOR('',#301,1.0);
#89=VECTOR('',#304,1.0);
#90=VECTOR('',#305,1.0);
#91=VECTOR('',#306,1.0);
#92=VECTOR('',#309,1.0);
#93=VECTOR('',#310,1.0);
#94=VECTOR('',#311,1.0);
#95=FACE_BOUND('',#101,.T.);
#96=FACE_BOUND('',#102,.T.);
#97=FACE_BOUND('',#107,.T.);
#98=FACE_BOUND('',#108,.T.);
#99=FACE_BOUND('',#113,.T.);
#100=FACE_BOUND('',#114,.T.);
#101=EDGE_LOOP('',(#115));
#102=EDGE_LOOP('',(#116,#117,#118,#119,#120,#121,#122,#123));
#103=EDGE_LOOP('',(#124,#125,#126,#127));
#104=EDGE_LOOP('',(#128,#129,#130,#131));
#105=EDGE_LOOP('',(#132,#133,#134,#135));
#106=EDGE_LOOP('',(#136,#137,#138,#139));
#107=EDGE_LOOP('',(#140));
#108=EDGE_LOOP('',(#141,#142,#143,#144,#145,#146,#147,#148));
#109=EDGE_LOOP('',(#149,#150,#151,#152));
#110=EDGE_LOOP('',(#153,#154,#155,#156));
#111=EDGE_LOOP('',(#157,#158,#159,#160));
#112=EDGE_LOOP('',(#161,#162,#163,#164));
#113=EDGE_LOOP('',(#165));
#114=EDGE_LOOP('',(#166));
#115=ORIENTED_EDGE('',*,*,#185,.T.);
#116=ORIENTED_EDGE('',*,*,#186,.T.);
#117=ORIENTED_EDGE('',*,*,#187,.T.);
#118=ORIENTED_EDGE('',*,*,#188,.T.);
#119=ORIENTED_EDGE('',*,*,#189,.T.);
#120=ORIENTED_EDGE('',*,*,#190,.T.);
#121=ORIENTED_EDGE('',*,*,#191,.T.);
#122=ORIENTED_EDGE('',*,*,#192,.T.);
#123=ORIENTED_EDGE('',*,*,#193,.T.);
#124=ORIENTED_EDGE('',*,*,#194,.F.);
#125=ORIENTED_EDGE('',*,*,#195,.T.);
#126=ORIENTED_EDGE('',*,*,#186,.F.);
#127=ORIENTED_EDGE('',*,*,#196,.T.);
#128=ORIENTED_EDGE('',*,*,#192,.F.);
#129=ORIENTED_EDGE('',*,*,#197,.T.);
#130=ORIENTED_EDGE('',*,*,#198,.F.);
#131=ORIENTED_EDGE('',*,*,#199,.T.);
#132=ORIENTED_EDGE('',*,*,#190,.F.);
#133=ORIENTED_EDGE('',*,*,#200,.T.);
#134=ORIENTED_EDGE('',*,*,#201,.F.);
#135=ORIENTED_EDGE('',*,*,#202,.T.);
#136=ORIENTED_EDGE('',*,*,#188,.F.);
#137=ORIENTED_EDGE('',*,*,#203,.T.);
#138=ORIENTED_EDGE('',*,*,#204,.F.);
#139=ORIENTED_EDGE('',*,*,#205,.T.);
#140=ORIENTED_EDGE('',*,*,#206,.F.);
#141=ORIENTED_EDGE('',*,*,#204,.T.);
#142=ORIENTED_EDGE('',*,*,#207,.T.);
#143=ORIENTED_EDGE('',*,*,#194,.T.);
#144=ORIENTED_EDGE('',*,*,#208,.T.);
#145=ORIENTED_EDGE('',*,*,#198,.T.);
#146=ORIENTED_EDGE('',*,*,#209,.T.);
#147=ORIENTED_EDGE('',*,*,#201,.T.);
#148=ORIENTED_EDGE('',*,*,#210,.T.);
#149=ORIENTED_EDGE('',*,*,#187,.F.);
#150=ORIENTED_EDGE('',*,*,#195,.F.);
#151=ORIENTED_EDGE('',*,*,#207,.F.);
#152=ORIENTED_EDGE('',*,*,#203,.F.);
#153=ORIENTED_EDGE('',*,*,#189,.F.);
#154=ORIENTED_EDGE('',*,*,#205,.F.);
#155=ORIENTED_EDGE('',*,*,#210,.F.);
#156=ORIENTED_EDGE('',*,*,#200,.F.);
#157=ORIENTED_EDGE('',*,*,#191,.F.);
#158=ORIENTED_EDGE('',*,*,#202,.F.);
#159=ORIENTED_EDGE('',*,*,#209,.F.);
#160=ORIENTED_EDGE('',*,*,#197,.F.);
#161=ORIENTED_EDGE('',*,*,#193,.F.);
#162=ORIENTED_EDGE('',*,*,#199,.F.);
#163=ORIENTED_EDGE('',*,*,#208,.F.);
#164=ORIENTED_EDGE('',*,*,#196,.F.);
#165=ORIENTED_EDGE('',*,*,#185,.F.);
#166=ORIENTED_EDGE('',*,*,#206,.T.);
#167=VERTEX_POINT('',#412);
#168=VERTEX_POINT('',#414);
#169=VERTEX_POINT('',#415);
#170=VERTEX_POINT('',#417);
#171=VERTEX_POINT('',#419);
#172=VERTEX_POINT('',#421);
#173=VERTEX_POINT('',#423);
#174=VERTEX_POINT('',#425);
#175=VERTEX_POINT('',#427);
#176=VERTEX_POINT('',#431);
#177=VERTEX_POINT('',#432);
#178=VERTEX_POINT('',#437);
#179=VERTEX_POINT('',#439);
#180=VERTEX_POINT('',#443);
#181=VERTEX_POINT('',#445);
#182=VERTEX_POINT('',#449);
#183=VERTEX_POINT('',#451);
#184=VERTEX_POINT('',#455);
#185=EDGE_CURVE('',#167,#167,#211,.T.);
#186=EDGE_CURVE('',#168,#169,#63,.T.);
#187=EDGE_CURVE('',#169,#170,#212,.T.);
#188=EDGE_CURVE('',#170,#171,#64,.T.);
#189=EDGE_CURVE('',#171,#172,#213,.T.);
#190=EDGE_CURVE('',#172,#173,#65,.T.);
#191=EDGE_CURVE('',#173,#174,#214,.T.);
#192=EDGE_CURVE('',#174,#175,#66,.T.);
#193=EDGE_CURVE('',#175,#168,#215,.T.);
#194=EDGE_CURVE('',#176,#177,#67,.T.);
#195=EDGE_CURVE('',#176,#169,#68,.T.);
#196=EDGE_CURVE('',#168,#177,#69,.T.);
#197=EDGE_CURVE('',#174,#178,#70,.T.);
#198=EDGE_CURVE('',#179,#178,#71,.T.);
#199=EDGE_CURVE('',#179,#175,#72,.T.);
#200=EDGE_CURVE('',#172,#180,#73,.T.);
#201=EDGE_CURVE('',#181,#180,#74,.T.);
#202=EDGE_CURVE('',#181,#173,#75,.T.);
#203=EDGE_CURVE('',#170,#182,#76,.T.);
#204=EDGE_CURVE('',#183,#182,#77,.T.);
#205=EDGE_CURVE('',#183,#171,#78,.T.);
#206=EDGE_CURVE('',#184,#184,#216,.T.);
#207=EDGE_CURVE('',#182,#176,#217,.T.);
#208=EDGE_CURVE('',#177,#179,#218,.T.);
#209=EDGE_CURVE('',#178,#181,#219,.T.);
#210=EDGE_CURVE('',#180,#183,#220,.T.);
#211=CIRCLE('',#251,1.905);
#212=CIRCLE('',#252,1.190625);
#213=CIRCLE('',#253,1.190625);
#214=CIRCLE('',#254,1.190625);
#215=CIRCLE('',#255,1.190625);
#216=CIRCLE('',#261,1.905);
#217=CIRCLE('',#262,1.190625);
#218=CIRCLE('',#263,1.190625);
#219=CIRCLE('',#264,1.190625);
#220=CIRCLE('',#265,1.190625);
#221=CURVE_STYLE('',#225,POSITIVE_LENGTH_MEASURE(0.18),#224);
#222=CURVE_STYLE('',#226,POSITIVE_LENGTH_MEASURE(0.18),#246);
#223=CURVE_STYLE('',#227,POSITIVE_LENGTH_MEASURE(0.18),#246);
#224=DRAUGHTING_PRE_DEFINED_COLOUR('blue');
#225=DRAUGHTING_PRE_DEFINED_CURVE_FONT('continuous');
#226=DRAUGHTING_PRE_DEFINED_CURVE_FONT('continuous');
#227=DRAUGHTING_PRE_DEFINED_CURVE_FONT('continuous');
#228=B_SPLINE_CURVE_WITH_KNOTS('CUTTING EDGE LINE',5,(#339,#340,#341,#342,#343,#344,
     #345,#346,#347,#348,#349,#350,#351,#352,#353,#354,#355,#356,#357,#358,#359,
     #360,#361,#362,#363,#364,#365,#366,#367,#368,#369,#370,#371,#372,#373,#374,
     #375,#376,#377,#378,#379,#380,#381,#382,#383,#384,#385,#386,#387,#388,#389,
     #390,#391,#392,#393,#394,#395,#396,#397,#398,#399,#400,#401,#402,#403,#404,
     #405,#406,#407,#408),.UNSPECIFIED.,.T.,.F.,(2,4,1,1,1,4,4,1,1,1,1,1,1,1,1,1,
     1,1,1,1,1,1,4,4,1,1,1,4,4,1,1,1,1,1,1,1,1,1,1,1,1,1,1,1,4,4,1,1),(-0.2058539082,
     0.0,0.00674454179999995,0.0134890836000096,0.0202336254,0.0269781672,0.2328320753,
     0.23666420133125,0.2404963273625,0.24432845339375,0.248160579425,0.25199270545625,
     0.2558248314875,0.25965695751875,0.26348908355,0.26732120958125,0.2711533356125,
     0.27498546164375,0.278817587675009,0.28264971370625,0.2864818397375,0.29031396576875,
     0.2941460918,0.5,0.5067445418,0.51348908360001,0.5202336254,0.5269781672,0.7328320753,
     0.73666420133125,0.7404963273625,0.74432845339375,0.748160579425,0.75199270545625,
     0.7558248314875,0.75965695751875,0.76348908355,0.76732120958125,0.7711533356125,
     0.77498546164375,0.778817587675036,0.78264971370625,0.7864818397375,0.79031396576875,
     0.7941460918,1.0,1.0067445418,1.01348908360001),.UNSPECIFIED.);
#229=PRESENTATION_LAYER_ASSIGNMENT('1','Layer 1',(#228,#249,#250,#31));
#232=STYLED_ITEM('',(#238),#228);
#233=STYLED_ITEM('',(#239),#249);
#234=STYLED_ITEM('',(#240),#250);
#235=STYLED_ITEM('',(#241),#31);
#236=PRESENTATION_STYLE_ASSIGNMENT((#242));
#237=PRESENTATION_STYLE_ASSIGNMENT((#243));
#238=PRESENTATION_STYLE_ASSIGNMENT((#221));
#239=PRESENTATION_STYLE_ASSIGNMENT((#222));
#240=PRESENTATION_STYLE_ASSIGNMENT((#223));
#241=PRESENTATION_STYLE_ASSIGNMENT((#26));
#242=POINT_STYLE('',#244,POSITIVE_LENGTH_MEASURE(3.0),#246);
#243=POINT_STYLE('',#245,POSITIVE_LENGTH_MEASURE(3.0),#246);
#244=PRE_DEFINED_POINT_MARKER_SYMBOL('plus');
#245=PRE_DEFINED_POINT_MARKER_SYMBOL('plus');
#246=COLOUR_RGB('Medium Maroon',0.6,0.4,0.4);
#247=COLOUR_RGB('IsoInsertColor',0.8,0.8,0.8);
#248=AXIS2_PLACEMENT_3D('',#336,#272,#273);
#249=AXIS2_PLACEMENT_3D('PCS',#409,#274,#275);
#250=AXIS2_PLACEMENT_3D('MCS',#410,#276,#277);
#251=AXIS2_PLACEMENT_3D('',#411,#278,#279);
#252=AXIS2_PLACEMENT_3D('',#416,#281,#282);
#253=AXIS2_PLACEMENT_3D('',#420,#284,#285);
#254=AXIS2_PLACEMENT_3D('',#424,#287,#288);
#255=AXIS2_PLACEMENT_3D('',#428,#290,#291);
#256=AXIS2_PLACEMENT_3D('',#429,#292,#293);
#257=AXIS2_PLACEMENT_3D('',#435,#297,#298);
#258=AXIS2_PLACEMENT_3D('',#441,#302,#303);
#259=AXIS2_PLACEMENT_3D('',#447,#307,#308);
#260=AXIS2_PLACEMENT_3D('',#453,#312,#313);
#261=AXIS2_PLACEMENT_3D('',#454,#314,#315);
#262=AXIS2_PLACEMENT_3D('',#456,#316,#317);
#263=AXIS2_PLACEMENT_3D('',#457,#318,#319);
#264=AXIS2_PLACEMENT_3D('',#458,#320,#321);
#265=AXIS2_PLACEMENT_3D('',#459,#322,#323);
#266=AXIS2_PLACEMENT_3D('',#460,#324,#325);
#267=AXIS2_PLACEMENT_3D('',#461,#326,#327);
#268=AXIS2_PLACEMENT_3D('',#462,#328,#329);
#269=AXIS2_PLACEMENT_3D('',#463,#330,#331);
#270=AXIS2_PLACEMENT_3D('',#464,#332,#333);
#271=AXIS2_PLACEMENT_3D('',#465,#334,#335);
#272=DIRECTION('',(0.0,0.0,1.0));
#273=DIRECTION('',(1.0,0.0,0.0));
#274=DIRECTION('',(0.0,0.0,1.0));
#275=DIRECTION('',(1.0,0.0,0.0));
#276=DIRECTION('',(0.0,0.0,1.0));
#277=DIRECTION('',(1.0,0.0,0.0));
#278=DIRECTION('',(0.0,0.0,1.0));
#279=DIRECTION('',(-0.887010833178222,-0.461748613235034,0.0));
#280=DIRECTION('',(1.0,3.33066907387547E-16,0.0));
#281=DIRECTION('',(0.0,0.0,-1.0));
#282=DIRECTION('',(-0.887010833178221,-0.461748613235034,0.0));
#283=DIRECTION('',(-0.573576436351046,-0.819152044288992,0.0));
#284=DIRECTION('',(0.0,0.0,-1.0));
#285=DIRECTION('',(-0.887010833178221,-0.461748613235034,0.0));
#286=DIRECTION('',(-1.0,3.33066907387547E-16,0.0));
#287=DIRECTION('',(0.0,0.0,-1.0));
#288=DIRECTION('',(-0.887010833178222,-0.461748613235034,0.0));
#289=DIRECTION('',(0.573576436351046,0.819152044288991,0.0));
#290=DIRECTION('',(0.0,0.0,-1.0));
#291=DIRECTION('',(-0.887010833178222,-0.461748613235034,0.0));
#292=DIRECTION('',(0.0,0.0,1.0));
#293=DIRECTION('',(-0.887010833178222,-0.461748613235034,0.0));
#294=DIRECTION('',(-1.0,-3.33066907387547E-16,-1.14575302077279E-16));
#295=DIRECTION('',(1.1457530207728E-16,-5.71230636268423E-16,-1.0));
#296=DIRECTION('',(-1.1457530207728E-16,5.71230636268423E-16,1.0));
#297=DIRECTION('',(-3.33066907387547E-16,1.0,-5.71230636268424E-16));
#298=DIRECTION('',(-1.0,-3.33066907387547E-16,0.0));
#299=DIRECTION('',(-1.1457530207728E-16,5.71230636268423E-16,1.0));
#300=DIRECTION('',(-0.573576436351046,-0.819152044288991,4.0220705000045E-16));
#301=DIRECTION('',(1.1457530207728E-16,-5.71230636268423E-16,-1.0));
#302=DIRECTION('',(-0.819152044288992,0.573576436351046,-4.21499025607016E-16));
#303=DIRECTION('',(-0.573576436351046,-0.819152044288991,0.0));
#304=DIRECTION('',(-1.1457530207728E-16,5.71230636268423E-16,1.0));
#305=DIRECTION('',(1.0,-3.33066907387547E-16,1.1457530207728E-16));
#306=DIRECTION('',(1.1457530207728E-16,-5.71230636268423E-16,-1.0));
#307=DIRECTION('',(-3.33066907387547E-16,-1.0,5.71230636268423E-16));
#308=DIRECTION('',(1.0,-3.33066907387547E-16,0.0));
#309=DIRECTION('',(-1.1457530207728E-16,5.71230636268423E-16,1.0));
#310=DIRECTION('',(0.573576436351046,0.819152044288992,-4.0220705000045E-16));
#311=DIRECTION('',(1.1457530207728E-16,-5.71230636268423E-16,-1.0));
#312=DIRECTION('',(0.819152044288992,-0.573576436351046,4.21499025607015E-16));
#313=DIRECTION('',(0.573576436351046,0.819152044288992,0.0));
#314=DIRECTION('',(0.0,0.0,1.0));
#315=DIRECTION('',(-0.887010833178222,-0.461748613235034,0.0));
#316=DIRECTION('',(-1.1457530207728E-16,5.71230636268423E-16,1.0));
#317=DIRECTION('',(-0.461748613235033,0.887010833178221,-5.59592749458549E-16));
#318=DIRECTION('',(-1.1457530207728E-16,5.71230636268423E-16,1.0));
#319=DIRECTION('',(-0.461748613235034,0.887010833178221,-5.59592749458549E-16));
#320=DIRECTION('',(-1.1457530207728E-16,5.71230636268423E-16,1.0));
#321=DIRECTION('',(-0.461748613235034,0.887010833178222,-5.59592749458549E-16));
#322=DIRECTION('',(-1.1457530207728E-16,5.71230636268423E-16,1.0));
#323=DIRECTION('',(-0.461748613235033,0.887010833178222,-5.59592749458549E-16));
#324=DIRECTION('',(-1.1457530207728E-16,5.71230636268423E-16,1.0));
#325=DIRECTION('',(-0.461748613235034,0.887010833178222,-5.59592749458549E-16));
#326=DIRECTION('',(-1.1457530207728E-16,5.71230636268423E-16,1.0));
#327=DIRECTION('',(-0.461748613235033,0.887010833178221,-5.59592749458549E-16));
#328=DIRECTION('',(-1.1457530207728E-16,5.71230636268423E-16,1.0));
#329=DIRECTION('',(-0.461748613235033,0.887010833178222,-5.59592749458549E-16));
#330=DIRECTION('',(-1.1457530207728E-16,5.71230636268423E-16,1.0));
#331=DIRECTION('',(-0.461748613235034,0.887010833178222,-5.59592749458549E-16));
#332=DIRECTION('',(-1.1457530207728E-16,5.71230636268423E-16,1.0));
#333=DIRECTION('',(-0.461748613235034,0.887010833178221,-5.59592749458549E-16));
#334=DIRECTION('',(0.0,0.0,1.0));
#335=DIRECTION('',(-0.887010833178222,-0.461748613235034,0.0));
#336=CARTESIAN_POINT('',(0.0,0.0,0.0));
#339=CARTESIAN_POINT('',(9.26389611969676,1.77635683940025E-15,0.0));
#340=CARTESIAN_POINT('',(11.063054757653,0.0,6.86420476303345E-16));
#341=CARTESIAN_POINT('',(11.1730086461796,0.00634638194337445,6.95393228500344E-16));
#342=CARTESIAN_POINT('',(11.346051545582,0.0357630268550793,6.98654208723447E-16));
#343=CARTESIAN_POINT('',(11.5657999019346,0.119250836088448,6.70087160933938E-16));
#344=CARTESIAN_POINT('',(11.760231590672,0.251371511325012,5.77302585758365E-16));
#345=CARTESIAN_POINT('',(11.8835816250625,0.376247261762266,4.39860691257985E-16));
#346=CARTESIAN_POINT('',(11.9518472363493,0.46267607918749,3.20385315701139E-16));
#347=CARTESIAN_POINT('',(12.9838022363384,1.93646055546953,5.01847277363353E-17));
#348=CARTESIAN_POINT('',(13.9842237565555,3.36521055546953,9.86076131526265E-33));
#349=CARTESIAN_POINT('',(14.9846452767726,4.79396055546953,3.94430452610506E-32));
#350=CARTESIAN_POINT('',(15.9850667969897,6.22271055546953,5.01847277363353E-17));
#351=CARTESIAN_POINT('',(17.0032022047786,7.6767586086967,2.63594553528024E-16));
#352=CARTESIAN_POINT('',(17.0369894857347,7.72850340154733,2.82866338445176E-16));
#353=CARTESIAN_POINT('',(17.0844782620738,7.81241984102764,2.96451483597185E-16));
#354=CARTESIAN_POINT('',(17.1361758270767,7.9306480490291,2.86250291567999E-16));
#355=CARTESIAN_POINT('',(17.181541860864,8.09048040218966,2.39717533817174E-16));
#356=CARTESIAN_POINT('',(17.2040971511614,8.25602972544877,1.68636867321058E-16));
#357=CARTESIAN_POINT('',(17.2032764529618,8.4235498931515,8.24086915274578E-17));
#358=CARTESIAN_POINT('',(17.1794794315476,8.58713030372451,-1.07032790361515E-17));
#359=CARTESIAN_POINT('',(17.1338457745357,8.74394394950844,-1.05160986369298E-16));
#360=CARTESIAN_POINT('',(17.0706304427128,8.88640774062739,-1.93827819393391E-16));
#361=CARTESIAN_POINT('',(16.9901897617416,9.01990458251908,-2.79392803670673E-16));
#362=CARTESIAN_POINT('',(16.887909933582,9.14723009808564,-3.63360229174836E-16));
#363=CARTESIAN_POINT('',(16.7675621165983,9.26054934577123,-4.37743091112694E-16));
#364=CARTESIAN_POINT('',(16.6308083619118,9.35730724319005,-4.95726574686546E-16));
#365=CARTESIAN_POINT('',(16.4822611123046,9.43378622190734,-5.28107499450011E-16));
#366=CARTESIAN_POINT('',(16.3253132254781,9.48830061412925,-5.23602270012456E-16));
#367=CARTESIAN_POINT('',(16.1988138420989,9.51376536229368,-4.82968199186979E-16));
#368=CARTESIAN_POINT('',(16.1028350760499,9.52299732638322,-4.23237253683602E-16));
#369=CARTESIAN_POINT('',(16.0410686350002,9.52499999999999,-3.70528357648144E-16));
#370=CARTESIAN_POINT('',(14.2660037207824,9.52499999999999,-6.80121476307092E-17));
#371=CARTESIAN_POINT('',(12.5218220270894,9.52499999999999,-1.08468374467889E-31));
#372=CARTESIAN_POINT('',(10.7776403333965,9.52499999999999,-1.57772181044202E-31));
#373=CARTESIAN_POINT('',(9.03345863970358,9.52499999999999,-6.80121476307092E-17));
#374=CARTESIAN_POINT('',(7.23430000174735,9.52499999999999,-4.10529567833232E-16));
#375=CARTESIAN_POINT('',(7.12434611322068,9.51865361805662,-5.2511062742023E-16));
#376=CARTESIAN_POINT('',(6.95130321381838,9.48923697314491,-6.37118326223499E-16));
#377=CARTESIAN_POINT('',(6.73155485746575,9.40574916391154,-6.62205432267631E-16));
#378=CARTESIAN_POINT('',(6.53712316872838,9.27362848867497,-5.77625438933903E-16));
#379=CARTESIAN_POINT('',(6.41377313433781,9.14875273823771,-4.39860691257985E-16));
#380=CARTESIAN_POINT('',(6.34550752305108,9.06232392081249,-3.20385315701138E-16));
#381=CARTESIAN_POINT('',(5.31355252306195,7.58853944453046,-5.01847277363353E-17));
#382=CARTESIAN_POINT('',(4.31313100284483,6.15978944453046,9.86076131526265E-33));
#383=CARTESIAN_POINT('',(3.31270948262771,4.73103944453046,0.0));
#384=CARTESIAN_POINT('',(2.31228796241059,3.30228944453046,-5.01847277363354E-17));
#385=CARTESIAN_POINT('',(1.29415255462177,1.84824139130329,-2.63594553528023E-16));
#386=CARTESIAN_POINT('',(1.2603652736656,1.79649659845267,-2.82866338445176E-16));
#387=CARTESIAN_POINT('',(1.21287649732657,1.71258015897236,-2.96451483597184E-16));
#388=CARTESIAN_POINT('',(1.16117893232359,1.59435195097089,-2.86250291568E-16));
#389=CARTESIAN_POINT('',(1.1158128985363,1.43451959781033,-2.39717533817172E-16));
#390=CARTESIAN_POINT('',(1.09325760823893,1.26897027455124,-1.6863686732106E-16));
#391=CARTESIAN_POINT('',(1.09407830643849,1.10145010684848,-8.24086915274517E-17));
#392=CARTESIAN_POINT('',(1.11787532785275,0.937869696275509,1.07032790361359E-17));
#393=CARTESIAN_POINT('',(1.16350898486471,0.781056050491511,1.05160986369333E-16));
#394=CARTESIAN_POINT('',(1.22672431668744,0.638592259372727,1.93827819393302E-16));
#395=CARTESIAN_POINT('',(1.3071649976589,0.505095417480641,2.79392803670863E-16));
#396=CARTESIAN_POINT('',(1.40944482581837,0.377769901914287,3.63360229174871E-16));
#397=CARTESIAN_POINT('',(1.52979264280228,0.264450654228567,4.37743091112832E-16));
#398=CARTESIAN_POINT('',(1.66654639748874,0.167692756809838,4.95726574686595E-16));
#399=CARTESIAN_POINT('',(1.81509364709599,0.0912137780925599,5.2810749945003E-16));
#400=CARTESIAN_POINT('',(1.97204153392245,0.0366993858707003,5.2360227001238E-16));
#401=CARTESIAN_POINT('',(2.09854091730145,0.0112346377063162,4.8296819918698E-16));
#402=CARTESIAN_POINT('',(2.19451968335044,0.00200267361677575,4.23237253683602E-16));
#403=CARTESIAN_POINT('',(2.25628612440018,3.5527136788005E-15,3.70528357648145E-16));
#404=CARTESIAN_POINT('',(4.03135103861797,8.88178419700125E-16,6.80121476307092E-17));
#405=CARTESIAN_POINT('',(5.7755327323109,8.88178419700125E-16,1.57772181044202E-31));
#406=CARTESIAN_POINT('',(7.51971442600383,3.5527136788005E-15,0.0));
#407=CARTESIAN_POINT('',(9.26389611969676,1.77635683940025E-15,0.0));
#408=CARTESIAN_POINT('',(11.063054757653,0.0,6.86420476303345E-16));
#409=CARTESIAN_POINT('',(0.0,0.0,0.0));
#410=CARTESIAN_POINT('',(9.14867737970017,4.7625,0.0));
#411=CARTESIAN_POINT('',(9.14867737970017,4.7625,-4.7625));
#412=CARTESIAN_POINT('',(7.45892174249566,3.88286889178726,-4.7625));
#413=CARTESIAN_POINT('',(9.14867737970017,9.52499999999999,-4.7625));
#414=CARTESIAN_POINT('',(7.28927694601065,9.52499999999999,-4.7625));
#415=CARTESIAN_POINT('',(16.0101854144753,9.52499999999999,-4.7625));
#416=CARTESIAN_POINT('',(16.0101854144753,8.33437499999999,-4.7625));
#417=CARTESIAN_POINT('',(16.9854883172069,7.65146055546952,-4.7625));
#418=CARTESIAN_POINT('',(13.0498889906265,2.03084222187814,-4.7625));
#419=CARTESIAN_POINT('',(11.9833807161213,0.507710555469534,-4.7625));
#420=CARTESIAN_POINT('',(11.0080778133897,1.190625,-4.7625));
#421=CARTESIAN_POINT('',(11.0080778133897,-2.60208521396521E-15,-4.7625));
#422=CARTESIAN_POINT('',(9.14867737970017,-2.60208521396521E-15,-4.7625));
#423=CARTESIAN_POINT('',(2.28716934492504,0.0,-4.7625));
#424=CARTESIAN_POINT('',(2.28716934492505,1.190625,-4.7625));
#425=CARTESIAN_POINT('',(1.31186644219346,1.87353944453047,-4.7625));
#426=CARTESIAN_POINT('',(5.24746576877385,7.49415777812185,-4.7625));
#427=CARTESIAN_POINT('',(6.31397404327907,9.01728944453045,-4.7625));
#428=CARTESIAN_POINT('',(7.28927694601065,8.33437499999999,-4.7625));
#429=CARTESIAN_POINT('',(8.98920404722148,4.25671520759503,-4.7625));
#430=CARTESIAN_POINT('',(9.14867737970017,9.52499999999999,-5.65390330310514E-15));
#431=CARTESIAN_POINT('',(16.0101854144753,9.52499999999999,-4.8677439473151E-15));
#432=CARTESIAN_POINT('',(7.28927694601065,9.52499999999999,-5.86694466947774E-15));
#433=CARTESIAN_POINT('',(16.0101854144753,9.52499999999999,-4.33680868994202E-15));
#434=CARTESIAN_POINT('',(7.28927694601065,9.52499999999999,-5.20417042793042E-15));
#435=CARTESIAN_POINT('',(9.14867737970017,9.52499999999999,-5.65390330310514E-15));
#436=CARTESIAN_POINT('',(1.31186644219346,1.87353944453047,-1.73472347597681E-15));
#437=CARTESIAN_POINT('',(1.31186644219346,1.87353944453047,-2.1810596021089E-15));
#438=CARTESIAN_POINT('',(5.24746576877385,7.49415777812186,-4.94080650733019E-15));
#439=CARTESIAN_POINT('',(6.31397404327907,9.01728944453045,-5.68867047053401E-15));
#440=CARTESIAN_POINT('',(6.31397404327907,9.01728944453045,-5.20417042793042E-15));
#441=CARTESIAN_POINT('',(5.24746576877385,7.49415777812185,-4.94080650733019E-15));
#442=CARTESIAN_POINT('',(11.0080778133897,-8.67361737988404E-16,-1.68518870133883E-31));
#443=CARTESIAN_POINT('',(11.0080778133897,-8.67361737988404E-16,1.09873724185352E-19));
#444=CARTESIAN_POINT('',(9.14867737970017,0.0,-2.12931492648415E-16));
#445=CARTESIAN_POINT('',(2.28716934492504,2.60208521396521E-15,-9.99090848438458E-16));
#446=CARTESIAN_POINT('',(2.28716934492504,2.60208521396521E-15,-8.67361737988404E-16));
#447=CARTESIAN_POINT('',(9.14867737970017,8.67361737988404E-16,-2.12931492648416E-16));
#448=CARTESIAN_POINT('',(16.9854883172069,7.65146055546953,-3.46944695195362E-15));
#449=CARTESIAN_POINT('',(16.9854883172069,7.65146055546953,-3.68577519364466E-15));
#450=CARTESIAN_POINT('',(13.0498889906265,2.03084222187815,-9.26028288423374E-16));
#451=CARTESIAN_POINT('',(11.9833807161213,0.507710555469536,-1.78164325219554E-16));
#452=CARTESIAN_POINT('',(11.9833807161213,0.507710555469536,1.92592994438724E-31));
#453=CARTESIAN_POINT('',(13.0498889906265,2.03084222187814,-9.26028288423372E-16));
#454=CARTESIAN_POINT('',(9.14867737970017,4.7625,0.0));
#455=CARTESIAN_POINT('',(7.45892174249566,3.88286889178726,0.0));
#456=CARTESIAN_POINT('',(16.0101854144753,8.33437499999999,-4.18762247100801E-15));
#457=CARTESIAN_POINT('',(7.28927694601065,8.33437499999999,-5.18682319317065E-15));
#458=CARTESIAN_POINT('',(2.28716934492505,1.190625,-1.67921232474555E-15));
#459=CARTESIAN_POINT('',(11.0080778133897,1.190625,-6.80011602582906E-16));
#460=CARTESIAN_POINT('',(9.14867737970017,4.7625,-2.93341739787678E-15));
#461=CARTESIAN_POINT('',(16.0101854144753,8.33437499999999,-3.46944695195361E-15));
#462=CARTESIAN_POINT('',(11.0080778133897,1.190625,0.0));
#463=CARTESIAN_POINT('',(2.28716934492505,1.190625,-1.73472347597681E-15));
#464=CARTESIAN_POINT('',(7.28927694601065,8.33437499999999,-5.20417042793042E-15));
#465=CARTESIAN_POINT('',(9.14867737970017,4.7625,-33.3676978394524));
#466=MECHANICAL_DESIGN_GEOMETRIC_PRESENTATION_REPRESENTATION('',(#232,#233,#234,
     #235),#467);
#467=(GEOMETRIC_REPRESENTATION_CONTEXT(3)GLOBAL_UNCERTAINTY_ASSIGNED_CONTEXT((#468))
     GLOBAL_UNIT_ASSIGNED_CONTEXT((#474,#470,#469))REPRESENTATION_CONTEXT('DNGA110412',
     'TOP_LEVEL_ASSEMBLY_PART'));
#468=UNCERTAINTY_MEASURE_WITH_UNIT(LENGTH_MEASURE(2.0E-5),#474,'DISTANCE_ACCURACY_VALUE',
     'Maximum Tolerance applied to model');
#469=(NAMED_UNIT(*)SI_UNIT($,.STERADIAN.)SOLID_ANGLE_UNIT());
#470=(CONVERSION_BASED_UNIT('DEGREE',#472)NAMED_UNIT(#471)PLANE_ANGLE_UNIT());
#471=DIMENSIONAL_EXPONENTS(0.0,0.0,0.0,0.0,0.0,0.0,0.0);
#472=PLANE_ANGLE_MEASURE_WITH_UNIT(PLANE_ANGLE_MEASURE(0.0174532925),#473);
#473=(NAMED_UNIT(*)PLANE_ANGLE_UNIT()SI_UNIT($,.RADIAN.));
#474=(LENGTH_UNIT()NAMED_UNIT(*)SI_UNIT(.MILLI.,.METRE.));
#475=CONSTRUCTIVE_GEOMETRY_REPRESENTATION('supplemental geometry',(#249,#250),#467);
#476=CONSTRUCTIVE_GEOMETRY_REPRESENTATION_RELATIONSHIP('supplemental geometry','contains PCS and MCS coordinate systems',
     #24,#475);
ENDSEC;
END-ISO-10303-21;
