ISO-10303-21;
HEADER;
FILE_DESCRIPTION(
/* description */ (''),
/* implementation_level */ '2;1');
FILE_NAME(
/* name */ 'RNMG190600.stp',
/* time_stamp */ '2017-03-21T10:54:15',
/* author */ ('Sandvik Coromant R&D'),
/* organization */ ('Sandvik Machining Solutions'),
/* preprocessor_version */ 'ST-DEVELOPER v15',
/* originating_system */ 'SIEMENS PLM Software NX v8.5.3.3(64 bits)',
/* authorization */ '');
FILE_SCHEMA(('AUTOMOTIVE_DESIGN'));
ENDSEC;
DATA;
#10=GEOMETRICALLY_BOUNDED_WIREFRAME_SHAPE_REPRESENTATION('IsoTurningInsert-None',
     (#25),#224);
#11=SHAPE_REPRESENTATION_RELATIONSHIP('None','relationship between IsoTurningInsert-None and IsoTurningInsert-None',
     #24,#13);
#12=SHAPE_REPRESENTATION_RELATIONSHIP('None','relationship between IsoTurningInsert-None and IsoTurningInsert-None',
     #24,#10);
#13=ADVANCED_BREP_SHAPE_REPRESENTATION('IsoTurningInsert-None',(#31),#224);
#14=SHAPE_DEFINITION_REPRESENTATION(#15,#24);
#15=PRODUCT_DEFINITION_SHAPE('','',#16);
#16=PRODUCT_DEFINITION(' ','',#18,#17);
#17=PRODUCT_DEFINITION_CONTEXT('part definition',#23,'design');
#18=PRODUCT_DEFINITION_FORMATION_WITH_SPECIFIED_SOURCE(' ',' ',#20,.NOT_KNOWN.);
#19=PRODUCT_RELATED_PRODUCT_CATEGORY('part','',(#20));
#20=PRODUCT('IsoTurningInsert','IsoTurningInsert',' ',(#21));
#21=PRODUCT_CONTEXT(' ',#23,'mechanical');
#22=APPLICATION_PROTOCOL_DEFINITION('international standard','automotive_design',
     2010,#23);
#23=APPLICATION_CONTEXT('core data for automotive mechanical design processes');
#24=SHAPE_REPRESENTATION('IsoTurningInsert-None',(#104),#224);
#25=GEOMETRIC_CURVE_SET('geometric curve set',(#84));
#26=SURFACE_STYLE_USAGE(.BOTH.,#27);
#27=SURFACE_SIDE_STYLE('',(#28));
#28=SURFACE_STYLE_FILL_AREA(#29);
#29=FILL_AREA_STYLE('',(#30));
#30=FILL_AREA_STYLE_COLOUR('',#103);
#31=MANIFOLD_SOLID_BREP('CUT',#32);
#32=CLOSED_SHELL('',(#35,#36,#37,#38));
#33=CYLINDRICAL_SURFACE('',#113,9.52499999999998);
#34=CYLINDRICAL_SURFACE('',#114,3.9625);
#35=ADVANCED_FACE('',(#41,#42),#39,.F.);
#36=ADVANCED_FACE('',(#43,#44),#40,.F.);
#37=ADVANCED_FACE('',(#45,#46),#33,.T.);
#38=ADVANCED_FACE('',(#47,#48),#34,.F.);
#39=PLANE('',#109);
#40=PLANE('',#112);
#41=FACE_BOUND('',#49,.T.);
#42=FACE_BOUND('',#50,.T.);
#43=FACE_BOUND('',#51,.T.);
#44=FACE_BOUND('',#52,.T.);
#45=FACE_BOUND('',#53,.T.);
#46=FACE_BOUND('',#54,.T.);
#47=FACE_BOUND('',#55,.T.);
#48=FACE_BOUND('',#56,.T.);
#49=EDGE_LOOP('',(#57));
#50=EDGE_LOOP('',(#58));
#51=EDGE_LOOP('',(#59));
#52=EDGE_LOOP('',(#60));
#53=EDGE_LOOP('',(#61));
#54=EDGE_LOOP('',(#62));
#55=EDGE_LOOP('',(#63));
#56=EDGE_LOOP('',(#64));
#57=ORIENTED_EDGE('',*,*,#69,.F.);
#58=ORIENTED_EDGE('',*,*,#70,.F.);
#59=ORIENTED_EDGE('',*,*,#71,.T.);
#60=ORIENTED_EDGE('',*,*,#72,.F.);
#61=ORIENTED_EDGE('',*,*,#72,.T.);
#62=ORIENTED_EDGE('',*,*,#69,.T.);
#63=ORIENTED_EDGE('',*,*,#71,.F.);
#64=ORIENTED_EDGE('',*,*,#70,.T.);
#65=VERTEX_POINT('',#212);
#66=VERTEX_POINT('',#214);
#67=VERTEX_POINT('',#217);
#68=VERTEX_POINT('',#219);
#69=EDGE_CURVE('',#65,#65,#73,.T.);
#70=EDGE_CURVE('',#66,#66,#74,.T.);
#71=EDGE_CURVE('',#67,#67,#75,.T.);
#72=EDGE_CURVE('',#68,#68,#76,.T.);
#73=CIRCLE('',#107,9.52499999999998);
#74=CIRCLE('',#108,3.9625);
#75=CIRCLE('',#110,3.9625);
#76=CIRCLE('',#111,9.52499999999998);
#77=CURVE_STYLE('',#81,POSITIVE_LENGTH_MEASURE(0.18),#80);
#78=CURVE_STYLE('',#82,POSITIVE_LENGTH_MEASURE(0.18),#102);
#79=CURVE_STYLE('',#83,POSITIVE_LENGTH_MEASURE(0.18),#102);
#80=DRAUGHTING_PRE_DEFINED_COLOUR('blue');
#81=DRAUGHTING_PRE_DEFINED_CURVE_FONT('continuous');
#82=DRAUGHTING_PRE_DEFINED_CURVE_FONT('continuous');
#83=DRAUGHTING_PRE_DEFINED_CURVE_FONT('continuous');
#84=B_SPLINE_CURVE_WITH_KNOTS('CUTTING EDGE LINE',5,(#140,#141,#142,#143,#144,#145,
     #146,#147,#148,#149,#150,#151,#152,#153,#154,#155,#156,#157,#158,#159,#160,
     #161,#162,#163,#164,#165,#166,#167,#168,#169,#170,#171,#172,#173,#174,#175,
     #176,#177,#178,#179,#180,#181,#182,#183,#184,#185,#186,#187,#188,#189,#190,
     #191,#192,#193,#194,#195,#196,#197,#198,#199,#200,#201,#202,#203,#204,#205,
     #206,#207,#208),.UNSPECIFIED.,.T.,.F.,(1,1,1,1,1,1,1,1,1,1,1,1,1,1,1,1,1,1,
     1,1,1,1,1,1,1,1,1,1,1,1,1,1,1,1,1,1,1,1,1,1,1,1,1,1,1,1,1,1,1,1,1,1,1,1,1,1,
     1,1,1,1,1,1,1,1,1,1,1,1,1,1,1,1,1,1,1),(-0.078125,-0.0625,-0.046875,-0.03125,
     -0.015625,0.0,0.015625,0.03125,0.046875,0.0625,0.078125,0.09375,0.109375,0.125,
     0.140625,0.15625,0.171875,0.1875,0.203125,0.21875,0.234375,0.25,0.265625,0.28125,
     0.296875,0.3125,0.328125,0.34375,0.359375,0.375,0.390625,0.40625,0.421875,0.4375,
     0.453125,0.46875,0.484375,0.5,0.515625,0.53125,0.546875,0.5625,0.578125,0.59375,
     0.609375,0.625,0.640625,0.65625,0.671875,0.6875,0.703125,0.71875,0.734375,0.75,
     0.765625,0.78125,0.796875,0.8125,0.828125,0.84375,0.859375,0.875,0.890625,0.90625,
     0.921875,0.9375,0.953125,0.96875,0.984375,1.0,1.015625,1.03125,1.046875,1.0625,
     1.078125),.UNSPECIFIED.);
#85=PRESENTATION_LAYER_ASSIGNMENT('1','Layer 1',(#84,#105,#106,#31));
#88=STYLED_ITEM('',(#94),#84);
#89=STYLED_ITEM('',(#95),#105);
#90=STYLED_ITEM('',(#96),#106);
#91=STYLED_ITEM('',(#97),#31);
#92=PRESENTATION_STYLE_ASSIGNMENT((#98));
#93=PRESENTATION_STYLE_ASSIGNMENT((#99));
#94=PRESENTATION_STYLE_ASSIGNMENT((#77));
#95=PRESENTATION_STYLE_ASSIGNMENT((#78));
#96=PRESENTATION_STYLE_ASSIGNMENT((#79));
#97=PRESENTATION_STYLE_ASSIGNMENT((#26));
#98=POINT_STYLE('',#100,POSITIVE_LENGTH_MEASURE(3.0),#102);
#99=POINT_STYLE('',#101,POSITIVE_LENGTH_MEASURE(3.0),#102);
#100=PRE_DEFINED_POINT_MARKER_SYMBOL('plus');
#101=PRE_DEFINED_POINT_MARKER_SYMBOL('plus');
#102=COLOUR_RGB('Medium Maroon',0.6,0.4,0.4);
#103=COLOUR_RGB('IsoInsertColor',0.8,0.8,0.8);
#104=AXIS2_PLACEMENT_3D('',#137,#115,#116);
#105=AXIS2_PLACEMENT_3D('PCS',#209,#117,#118);
#106=AXIS2_PLACEMENT_3D('MCS',#210,#119,#120);
#107=AXIS2_PLACEMENT_3D('',#211,#121,#122);
#108=AXIS2_PLACEMENT_3D('',#213,#123,#124);
#109=AXIS2_PLACEMENT_3D('',#215,#125,#126);
#110=AXIS2_PLACEMENT_3D('',#216,#127,#128);
#111=AXIS2_PLACEMENT_3D('',#218,#129,#130);
#112=AXIS2_PLACEMENT_3D('',#220,#131,#132);
#113=AXIS2_PLACEMENT_3D('',#221,#133,#134);
#114=AXIS2_PLACEMENT_3D('',#222,#135,#136);
#115=DIRECTION('',(0.0,0.0,1.0));
#116=DIRECTION('',(1.0,0.0,0.0));
#117=DIRECTION('',(0.0,0.0,1.0));
#118=DIRECTION('',(1.0,0.0,0.0));
#119=DIRECTION('',(0.0,0.0,1.0));
#120=DIRECTION('',(1.0,0.0,0.0));
#121=DIRECTION('',(0.0,0.0,-1.0));
#122=DIRECTION('',(-0.882015164970351,-0.471221019015838,0.0));
#123=DIRECTION('',(0.0,0.0,1.0));
#124=DIRECTION('',(-0.707106781186547,-0.707106781186548,0.0));
#125=DIRECTION('',(0.0,0.0,-1.0));
#126=DIRECTION('',(0.707106781186547,0.707106781186548,0.0));
#127=DIRECTION('',(0.0,0.0,1.0));
#128=DIRECTION('',(-0.707106781186547,-0.707106781186548,0.0));
#129=DIRECTION('',(0.0,0.0,1.0));
#130=DIRECTION('',(-0.707106781186547,-0.707106781186548,0.0));
#131=DIRECTION('',(0.0,0.0,1.0));
#132=DIRECTION('',(-0.707106781186547,-0.707106781186548,0.0));
#133=DIRECTION('',(0.0,0.0,1.0));
#134=DIRECTION('',(-0.707106781186547,-0.707106781186548,0.0));
#135=DIRECTION('',(0.0,0.0,1.0));
#136=DIRECTION('',(-0.707106781186547,-0.707106781186548,0.0));
#137=CARTESIAN_POINT('',(0.0,0.0,0.0));
#140=CARTESIAN_POINT('',(2.06048446720009,3.57394236923234,0.0));
#141=CARTESIAN_POINT('',(1.53886356646971,4.29751043834189,0.0));
#142=CARTESIAN_POINT('',(1.10777388011526,5.02805479200898,0.0));
#143=CARTESIAN_POINT('',(0.740153627648519,5.79250800853361,0.0));
#144=CARTESIAN_POINT('',(0.428658837007514,6.6283370043093,0.0));
#145=CARTESIAN_POINT('',(0.192460777456882,7.51077776071321,0.0));
#146=CARTESIAN_POINT('',(0.0386269476753256,8.43672371060606,0.0));
#147=CARTESIAN_POINT('',(-0.023505332977102,9.3924779535226,0.0));
#148=CARTESIAN_POINT('',(0.0119150216639117,10.3650764112437,0.0));
#149=CARTESIAN_POINT('',(0.148396457332467,11.3392257377345,0.0));
#150=CARTESIAN_POINT('',(0.38615201650547,12.2992276601922,0.0));
#151=CARTESIAN_POINT('',(0.72218465419299,13.2293961736622,0.0));
#152=CARTESIAN_POINT('',(1.15026578483216,14.1150262534198,0.0));
#153=CARTESIAN_POINT('',(1.6614916238258,14.9431871695706,0.0));
#154=CARTESIAN_POINT('',(2.24444418801461,15.7031167064542,0.0));
#155=CARTESIAN_POINT('',(2.88705302224569,16.3872911254133,0.0));
#156=CARTESIAN_POINT('',(3.57394236931317,16.9895155328495,0.0));
#157=CARTESIAN_POINT('',(4.2975104386038,17.5111364336877,0.0));
#158=CARTESIAN_POINT('',(5.02805479195032,17.9422261198454,0.0));
#159=CARTESIAN_POINT('',(5.79250800855865,18.3098463723675,0.0));
#160=CARTESIAN_POINT('',(6.62833700430083,18.6213411629871,0.0));
#161=CARTESIAN_POINT('',(7.51077776071596,18.8575392225448,0.0));
#162=CARTESIAN_POINT('',(8.43672371060512,19.0113730523241,0.0));
#163=CARTESIAN_POINT('',(9.39247795352295,19.0735053329772,0.0));
#164=CARTESIAN_POINT('',(10.3650764112435,19.0380849783361,0.0));
#165=CARTESIAN_POINT('',(11.3392257377347,18.9016035426673,0.0));
#166=CARTESIAN_POINT('',(12.2992276601919,18.663847983495,0.0));
#167=CARTESIAN_POINT('',(13.2293961736629,18.3278153458059,0.0));
#168=CARTESIAN_POINT('',(14.1150262534181,17.8997342151706,0.0));
#169=CARTESIAN_POINT('',(14.9431871695753,17.3885083761666,0.0));
#170=CARTESIAN_POINT('',(15.7031167064406,16.8055558120074,0.0));
#171=CARTESIAN_POINT('',(16.3872911254536,16.1629469776891,0.0));
#172=CARTESIAN_POINT('',(16.9895155327778,15.4760576308012,0.0));
#173=CARTESIAN_POINT('',(17.511136433338,14.7524895619828,0.0));
#174=CARTESIAN_POINT('',(17.9422261199935,14.0219452078041,0.0));
#175=CARTESIAN_POINT('',(18.3098463723156,13.2574919915261,0.0));
#176=CARTESIAN_POINT('',(18.6213411630043,12.4216629956709,0.0));
#177=CARTESIAN_POINT('',(18.8575392225392,11.5392222392931,0.0));
#178=CARTESIAN_POINT('',(19.0113730523259,10.6132762893919,0.0));
#179=CARTESIAN_POINT('',(19.0735053329766,9.65752204647806,0.0));
#180=CARTESIAN_POINT('',(19.0380849783363,8.68492358875605,0.0));
#181=CARTESIAN_POINT('',(18.9016035426673,7.7107742622655,0.0));
#182=CARTESIAN_POINT('',(18.6638479834948,6.75077233980789,0.0));
#183=CARTESIAN_POINT('',(18.3278153458063,5.8206038263374,0.0));
#184=CARTESIAN_POINT('',(17.8997342151696,4.93497374658123,0.0));
#185=CARTESIAN_POINT('',(17.3885083761695,4.10681283042648,0.0));
#186=CARTESIAN_POINT('',(16.8055558119991,3.34688329355418,0.0));
#187=CARTESIAN_POINT('',(16.1629469777098,2.66270887455957,0.0));
#188=CARTESIAN_POINT('',(15.4760576309174,2.06048446729099,0.0));
#189=CARTESIAN_POINT('',(14.7524895615479,1.53886356640281,0.0));
#190=CARTESIAN_POINT('',(14.0219452080211,1.10777388013451,0.0));
#191=CARTESIAN_POINT('',(13.257491991442,0.740153627635202,0.0));
#192=CARTESIAN_POINT('',(12.4216629956991,0.428658837012131,0.0));
#193=CARTESIAN_POINT('',(11.539222239284,0.192460777455361,0.0));
#194=CARTESIAN_POINT('',(10.6132762893949,0.0386269476758638,0.0));
#195=CARTESIAN_POINT('',(9.65752204647705,-0.0235053329773152,0.0));
#196=CARTESIAN_POINT('',(8.68492358875636,0.0119150216640325,0.0));
#197=CARTESIAN_POINT('',(7.7107742622655,0.148396457332328,0.0));
#198=CARTESIAN_POINT('',(6.75077233980762,0.386152016505735,0.0));
#199=CARTESIAN_POINT('',(5.82060382633814,0.722184654192409,0.0));
#200=CARTESIAN_POINT('',(4.93497374657932,1.15026578483362,0.0));
#201=CARTESIAN_POINT('',(4.10681283043173,1.66149162382183,0.0));
#202=CARTESIAN_POINT('',(3.34688329353886,2.24444418802607,0.0));
#203=CARTESIAN_POINT('',(2.66270887460516,2.88705302221504,0.0));
#204=CARTESIAN_POINT('',(2.06048446720009,3.57394236923234,0.0));
#205=CARTESIAN_POINT('',(1.53886356646971,4.29751043834189,0.0));
#206=CARTESIAN_POINT('',(1.10777388011526,5.02805479200898,0.0));
#207=CARTESIAN_POINT('',(0.740153627648519,5.79250800853361,0.0));
#208=CARTESIAN_POINT('',(0.428658837007514,6.6283370043093,0.0));
#209=CARTESIAN_POINT('',(0.0,0.0,0.0));
#210=CARTESIAN_POINT('',(9.525,9.525,0.0));
#211=CARTESIAN_POINT('',(9.52499999999998,9.52499999999999,4.26685108753951E-15));
#212=CARTESIAN_POINT('',(1.12380555365741,5.03661979387414,4.26685108753951E-15));
#213=CARTESIAN_POINT('',(9.525,9.525,-3.46944695195361E-15));
#214=CARTESIAN_POINT('',(6.7230893795483,6.7230893795483,-3.46944695195361E-15));
#215=CARTESIAN_POINT('',(9.52499999999998,9.52499999999999,4.26685108753951E-15));
#216=CARTESIAN_POINT('',(9.525,9.525,-6.35));
#217=CARTESIAN_POINT('',(6.7230893795483,6.7230893795483,-6.35));
#218=CARTESIAN_POINT('',(9.52499999999998,9.52499999999999,-6.35));
#219=CARTESIAN_POINT('',(2.78980790919813,2.78980790919813,-6.35));
#220=CARTESIAN_POINT('',(9.525,8.99466991411009,-6.35));
#221=CARTESIAN_POINT('',(9.52499999999998,9.52499999999999,4.33680868994202E-15));
#222=CARTESIAN_POINT('',(9.525,9.525,-29.1328042564319));
#223=MECHANICAL_DESIGN_GEOMETRIC_PRESENTATION_REPRESENTATION('',(#88,#89,#90,#91),
     #224);
#224=(GEOMETRIC_REPRESENTATION_CONTEXT(3)GLOBAL_UNCERTAINTY_ASSIGNED_CONTEXT((#225))
     GLOBAL_UNIT_ASSIGNED_CONTEXT((#231,#227,#226))REPRESENTATION_CONTEXT('RNMG190600',
     'TOP_LEVEL_ASSEMBLY_PART'));
#225=UNCERTAINTY_MEASURE_WITH_UNIT(LENGTH_MEASURE(2.0E-5),#231,'DISTANCE_ACCURACY_VALUE',
     'Maximum Tolerance applied to model');
#226=(NAMED_UNIT(*)SI_UNIT($,.STERADIAN.)SOLID_ANGLE_UNIT());
#227=(CONVERSION_BASED_UNIT('DEGREE',#229)NAMED_UNIT(#228)PLANE_ANGLE_UNIT());
#228=DIMENSIONAL_EXPONENTS(0.0,0.0,0.0,0.0,0.0,0.0,0.0);
#229=PLANE_ANGLE_MEASURE_WITH_UNIT(PLANE_ANGLE_MEASURE(0.0174532925),#230);
#230=(NAMED_UNIT(*)PLANE_ANGLE_UNIT()SI_UNIT($,.RADIAN.));
#231=(LENGTH_UNIT()NAMED_UNIT(*)SI_UNIT(.MILLI.,.METRE.));
#232=CONSTRUCTIVE_GEOMETRY_REPRESENTATION('supplemental geometry',(#105,#106),#224);
#233=CONSTRUCTIVE_GEOMETRY_REPRESENTATION_RELATIONSHIP('supplemental geometry','contains PCS and MCS coordinate systems',
     #24,#232);
ENDSEC;
END-ISO-10303-21;
