ISO-10303-21;
HEADER;
FILE_DESCRIPTION(
/* description */ (''),
/* implementation_level */ '2;1');
FILE_NAME(
/* name */ 'DCGW11T312.stp',
/* time_stamp */ '2017-03-21T10:54:02',
/* author */ ('Sandvik Coromant R&D'),
/* organization */ ('Sandvik Machining Solutions'),
/* preprocessor_version */ 'ST-DEVELOPER v15',
/* originating_system */ 'SIEMENS PLM Software NX v8.5.3.3(64 bits)',
/* authorization */ '');
FILE_SCHEMA(('AUTOMOTIVE_DESIGN'));
ENDSEC;
DATA;
#10=GEOMETRICALLY_BOUNDED_WIREFRAME_SHAPE_REPRESENTATION('IsoTurningInsert-None',
     (#25),#527);
#11=SHAPE_REPRESENTATION_RELATIONSHIP('None','relationship between IsoTurningInsert-None and IsoTurningInsert-None',
     #24,#13);
#12=SHAPE_REPRESENTATION_RELATIONSHIP('None','relationship between IsoTurningInsert-None and IsoTurningInsert-None',
     #24,#10);
#13=ADVANCED_BREP_SHAPE_REPRESENTATION('IsoTurningInsert-None',(#31),#527);
#14=SHAPE_DEFINITION_REPRESENTATION(#15,#24);
#15=PRODUCT_DEFINITION_SHAPE('','',#16);
#16=PRODUCT_DEFINITION(' ','',#18,#17);
#17=PRODUCT_DEFINITION_CONTEXT('part definition',#23,'design');
#18=PRODUCT_DEFINITION_FORMATION_WITH_SPECIFIED_SOURCE(' ',' ',#20,.NOT_KNOWN.);
#19=PRODUCT_RELATED_PRODUCT_CATEGORY('part','',(#20));
#20=PRODUCT('IsoTurningInsert','IsoTurningInsert',' ',(#21));
#21=PRODUCT_CONTEXT(' ',#23,'mechanical');
#22=APPLICATION_PROTOCOL_DEFINITION('international standard','automotive_design',
     2010,#23);
#23=APPLICATION_CONTEXT('core data for automotive mechanical design processes');
#24=SHAPE_REPRESENTATION('IsoTurningInsert-None',(#281),#527);
#25=GEOMETRIC_CURVE_SET('geometric curve set',(#261));
#26=SURFACE_STYLE_USAGE(.BOTH.,#27);
#27=SURFACE_SIDE_STYLE('',(#28));
#28=SURFACE_STYLE_FILL_AREA(#29);
#29=FILL_AREA_STYLE('',(#30));
#30=FILL_AREA_STYLE_COLOUR('',#280);
#31=MANIFOLD_SOLID_BREP('CUT',#32);
#32=CLOSED_SHELL('',(#49,#50,#51,#52,#53,#54,#55,#56,#57,#58,#59,#60,#61,#62));
#33=CYLINDRICAL_SURFACE('',#309,2.2);
#34=TOROIDAL_SURFACE('',#308,6.2,4.0);
#35=TOROIDAL_SURFACE('',#310,2.70678285826048,0.3);
#36=CONICAL_SURFACE('',#300,1.190625,7.0);
#37=CONICAL_SURFACE('',#301,1.190625,7.0);
#38=CONICAL_SURFACE('',#302,1.190625,7.0);
#39=CONICAL_SURFACE('',#303,1.190625,7.0);
#40=CONICAL_SURFACE('',#305,2.99999999999613,4.0000000001963);
#41=FACE_OUTER_BOUND('',#115,.T.);
#42=FACE_OUTER_BOUND('',#116,.T.);
#43=FACE_OUTER_BOUND('',#117,.T.);
#44=FACE_OUTER_BOUND('',#118,.T.);
#45=FACE_OUTER_BOUND('',#121,.T.);
#46=FACE_OUTER_BOUND('',#122,.T.);
#47=FACE_OUTER_BOUND('',#123,.T.);
#48=FACE_OUTER_BOUND('',#124,.T.);
#49=ADVANCED_FACE('',(#101,#102),#63,.F.);
#50=ADVANCED_FACE('',(#41),#64,.F.);
#51=ADVANCED_FACE('',(#42),#65,.F.);
#52=ADVANCED_FACE('',(#43),#66,.F.);
#53=ADVANCED_FACE('',(#44),#67,.F.);
#54=ADVANCED_FACE('',(#103,#104),#68,.T.);
#55=ADVANCED_FACE('',(#45),#36,.T.);
#56=ADVANCED_FACE('',(#46),#37,.T.);
#57=ADVANCED_FACE('',(#47),#38,.T.);
#58=ADVANCED_FACE('',(#48),#39,.T.);
#59=ADVANCED_FACE('',(#105,#106),#40,.F.);
#60=ADVANCED_FACE('',(#107,#108),#34,.T.);
#61=ADVANCED_FACE('',(#109,#110),#33,.F.);
#62=ADVANCED_FACE('',(#111,#112),#35,.F.);
#63=PLANE('',#289);
#64=PLANE('',#290);
#65=PLANE('',#291);
#66=PLANE('',#292);
#67=PLANE('',#293);
#68=PLANE('',#299);
#69=LINE('',#464,#85);
#70=LINE('',#469,#86);
#71=LINE('',#473,#87);
#72=LINE('',#477,#88);
#73=LINE('',#481,#89);
#74=LINE('',#484,#90);
#75=LINE('',#485,#91);
#76=LINE('',#487,#92);
#77=LINE('',#489,#93);
#78=LINE('',#491,#94);
#79=LINE('',#493,#95);
#80=LINE('',#495,#96);
#81=LINE('',#497,#97);
#82=LINE('',#499,#98);
#83=LINE('',#501,#99);
#84=LINE('',#503,#100);
#85=VECTOR('',#319,1.0);
#86=VECTOR('',#322,1.0);
#87=VECTOR('',#325,1.0);
#88=VECTOR('',#328,1.0);
#89=VECTOR('',#333,1.0);
#90=VECTOR('',#334,1.0);
#91=VECTOR('',#335,1.0);
#92=VECTOR('',#338,1.0);
#93=VECTOR('',#339,1.0);
#94=VECTOR('',#340,1.0);
#95=VECTOR('',#343,1.0);
#96=VECTOR('',#344,1.0);
#97=VECTOR('',#345,1.0);
#98=VECTOR('',#348,1.0);
#99=VECTOR('',#349,1.0);
#100=VECTOR('',#350,1.0);
#101=FACE_BOUND('',#113,.T.);
#102=FACE_BOUND('',#114,.T.);
#103=FACE_BOUND('',#119,.T.);
#104=FACE_BOUND('',#120,.T.);
#105=FACE_BOUND('',#125,.T.);
#106=FACE_BOUND('',#126,.T.);
#107=FACE_BOUND('',#127,.T.);
#108=FACE_BOUND('',#128,.T.);
#109=FACE_BOUND('',#129,.T.);
#110=FACE_BOUND('',#130,.T.);
#111=FACE_BOUND('',#131,.T.);
#112=FACE_BOUND('',#132,.T.);
#113=EDGE_LOOP('',(#133));
#114=EDGE_LOOP('',(#134,#135,#136,#137,#138,#139,#140,#141));
#115=EDGE_LOOP('',(#142,#143,#144,#145));
#116=EDGE_LOOP('',(#146,#147,#148,#149));
#117=EDGE_LOOP('',(#150,#151,#152,#153));
#118=EDGE_LOOP('',(#154,#155,#156,#157));
#119=EDGE_LOOP('',(#158));
#120=EDGE_LOOP('',(#159,#160,#161,#162,#163,#164,#165,#166));
#121=EDGE_LOOP('',(#167,#168,#169,#170));
#122=EDGE_LOOP('',(#171,#172,#173,#174));
#123=EDGE_LOOP('',(#175,#176,#177,#178));
#124=EDGE_LOOP('',(#179,#180,#181,#182));
#125=EDGE_LOOP('',(#183));
#126=EDGE_LOOP('',(#184));
#127=EDGE_LOOP('',(#185));
#128=EDGE_LOOP('',(#186));
#129=EDGE_LOOP('',(#187));
#130=EDGE_LOOP('',(#188));
#131=EDGE_LOOP('',(#189));
#132=EDGE_LOOP('',(#190));
#133=ORIENTED_EDGE('',*,*,#212,.T.);
#134=ORIENTED_EDGE('',*,*,#213,.T.);
#135=ORIENTED_EDGE('',*,*,#214,.T.);
#136=ORIENTED_EDGE('',*,*,#215,.T.);
#137=ORIENTED_EDGE('',*,*,#216,.T.);
#138=ORIENTED_EDGE('',*,*,#217,.T.);
#139=ORIENTED_EDGE('',*,*,#218,.T.);
#140=ORIENTED_EDGE('',*,*,#219,.T.);
#141=ORIENTED_EDGE('',*,*,#220,.T.);
#142=ORIENTED_EDGE('',*,*,#221,.F.);
#143=ORIENTED_EDGE('',*,*,#222,.T.);
#144=ORIENTED_EDGE('',*,*,#213,.F.);
#145=ORIENTED_EDGE('',*,*,#223,.T.);
#146=ORIENTED_EDGE('',*,*,#219,.F.);
#147=ORIENTED_EDGE('',*,*,#224,.T.);
#148=ORIENTED_EDGE('',*,*,#225,.F.);
#149=ORIENTED_EDGE('',*,*,#226,.T.);
#150=ORIENTED_EDGE('',*,*,#217,.F.);
#151=ORIENTED_EDGE('',*,*,#227,.T.);
#152=ORIENTED_EDGE('',*,*,#228,.F.);
#153=ORIENTED_EDGE('',*,*,#229,.T.);
#154=ORIENTED_EDGE('',*,*,#215,.F.);
#155=ORIENTED_EDGE('',*,*,#230,.T.);
#156=ORIENTED_EDGE('',*,*,#231,.F.);
#157=ORIENTED_EDGE('',*,*,#232,.T.);
#158=ORIENTED_EDGE('',*,*,#233,.F.);
#159=ORIENTED_EDGE('',*,*,#231,.T.);
#160=ORIENTED_EDGE('',*,*,#234,.T.);
#161=ORIENTED_EDGE('',*,*,#221,.T.);
#162=ORIENTED_EDGE('',*,*,#235,.T.);
#163=ORIENTED_EDGE('',*,*,#225,.T.);
#164=ORIENTED_EDGE('',*,*,#236,.T.);
#165=ORIENTED_EDGE('',*,*,#228,.T.);
#166=ORIENTED_EDGE('',*,*,#237,.T.);
#167=ORIENTED_EDGE('',*,*,#214,.F.);
#168=ORIENTED_EDGE('',*,*,#222,.F.);
#169=ORIENTED_EDGE('',*,*,#234,.F.);
#170=ORIENTED_EDGE('',*,*,#230,.F.);
#171=ORIENTED_EDGE('',*,*,#216,.F.);
#172=ORIENTED_EDGE('',*,*,#232,.F.);
#173=ORIENTED_EDGE('',*,*,#237,.F.);
#174=ORIENTED_EDGE('',*,*,#227,.F.);
#175=ORIENTED_EDGE('',*,*,#218,.F.);
#176=ORIENTED_EDGE('',*,*,#229,.F.);
#177=ORIENTED_EDGE('',*,*,#236,.F.);
#178=ORIENTED_EDGE('',*,*,#224,.F.);
#179=ORIENTED_EDGE('',*,*,#220,.F.);
#180=ORIENTED_EDGE('',*,*,#226,.F.);
#181=ORIENTED_EDGE('',*,*,#235,.F.);
#182=ORIENTED_EDGE('',*,*,#223,.F.);
#183=ORIENTED_EDGE('',*,*,#238,.T.);
#184=ORIENTED_EDGE('',*,*,#233,.T.);
#185=ORIENTED_EDGE('',*,*,#239,.T.);
#186=ORIENTED_EDGE('',*,*,#240,.T.);
#187=ORIENTED_EDGE('',*,*,#240,.F.);
#188=ORIENTED_EDGE('',*,*,#212,.F.);
#189=ORIENTED_EDGE('',*,*,#239,.F.);
#190=ORIENTED_EDGE('',*,*,#238,.F.);
#191=VERTEX_POINT('',#463);
#192=VERTEX_POINT('',#465);
#193=VERTEX_POINT('',#466);
#194=VERTEX_POINT('',#468);
#195=VERTEX_POINT('',#470);
#196=VERTEX_POINT('',#472);
#197=VERTEX_POINT('',#474);
#198=VERTEX_POINT('',#476);
#199=VERTEX_POINT('',#478);
#200=VERTEX_POINT('',#482);
#201=VERTEX_POINT('',#483);
#202=VERTEX_POINT('',#488);
#203=VERTEX_POINT('',#490);
#204=VERTEX_POINT('',#494);
#205=VERTEX_POINT('',#496);
#206=VERTEX_POINT('',#500);
#207=VERTEX_POINT('',#502);
#208=VERTEX_POINT('',#506);
#209=VERTEX_POINT('',#517);
#210=VERTEX_POINT('',#520);
#211=VERTEX_POINT('',#522);
#212=EDGE_CURVE('',#191,#191,#241,.T.);
#213=EDGE_CURVE('',#192,#193,#69,.T.);
#214=EDGE_CURVE('',#193,#194,#242,.T.);
#215=EDGE_CURVE('',#194,#195,#70,.T.);
#216=EDGE_CURVE('',#195,#196,#243,.T.);
#217=EDGE_CURVE('',#196,#197,#71,.T.);
#218=EDGE_CURVE('',#197,#198,#244,.T.);
#219=EDGE_CURVE('',#198,#199,#72,.T.);
#220=EDGE_CURVE('',#199,#192,#245,.T.);
#221=EDGE_CURVE('',#200,#201,#73,.T.);
#222=EDGE_CURVE('',#200,#193,#74,.T.);
#223=EDGE_CURVE('',#192,#201,#75,.T.);
#224=EDGE_CURVE('',#198,#202,#76,.T.);
#225=EDGE_CURVE('',#203,#202,#77,.T.);
#226=EDGE_CURVE('',#203,#199,#78,.T.);
#227=EDGE_CURVE('',#196,#204,#79,.T.);
#228=EDGE_CURVE('',#205,#204,#80,.T.);
#229=EDGE_CURVE('',#205,#197,#81,.T.);
#230=EDGE_CURVE('',#194,#206,#82,.T.);
#231=EDGE_CURVE('',#207,#206,#83,.T.);
#232=EDGE_CURVE('',#207,#195,#84,.T.);
#233=EDGE_CURVE('',#208,#208,#246,.T.);
#234=EDGE_CURVE('',#206,#200,#247,.T.);
#235=EDGE_CURVE('',#201,#203,#248,.T.);
#236=EDGE_CURVE('',#202,#205,#249,.T.);
#237=EDGE_CURVE('',#204,#207,#250,.T.);
#238=EDGE_CURVE('',#209,#209,#251,.T.);
#239=EDGE_CURVE('',#210,#210,#252,.T.);
#240=EDGE_CURVE('',#211,#211,#253,.T.);
#241=CIRCLE('',#284,2.2);
#242=CIRCLE('',#285,0.703323773916599);
#243=CIRCLE('',#286,0.703323773916599);
#244=CIRCLE('',#287,0.703323773916599);
#245=CIRCLE('',#288,0.703323773916599);
#246=CIRCLE('',#294,3.07132534818238);
#247=CIRCLE('',#295,1.190625);
#248=CIRCLE('',#296,1.190625);
#249=CIRCLE('',#297,1.190625);
#250=CIRCLE('',#298,1.190625);
#251=CIRCLE('',#304,3.00605207333835);
#252=CIRCLE('',#306,2.95049568210277);
#253=CIRCLE('',#307,2.2);
#254=CURVE_STYLE('',#258,POSITIVE_LENGTH_MEASURE(0.18),#257);
#255=CURVE_STYLE('',#259,POSITIVE_LENGTH_MEASURE(0.18),#279);
#256=CURVE_STYLE('',#260,POSITIVE_LENGTH_MEASURE(0.18),#279);
#257=DRAUGHTING_PRE_DEFINED_COLOUR('blue');
#258=DRAUGHTING_PRE_DEFINED_CURVE_FONT('continuous');
#259=DRAUGHTING_PRE_DEFINED_CURVE_FONT('continuous');
#260=DRAUGHTING_PRE_DEFINED_CURVE_FONT('continuous');
#261=B_SPLINE_CURVE_WITH_KNOTS('CUTTING EDGE LINE',5,(#390,#391,#392,#393,#394,#395,
     #396,#397,#398,#399,#400,#401,#402,#403,#404,#405,#406,#407,#408,#409,#410,
     #411,#412,#413,#414,#415,#416,#417,#418,#419,#420,#421,#422,#423,#424,#425,
     #426,#427,#428,#429,#430,#431,#432,#433,#434,#435,#436,#437,#438,#439,#440,
     #441,#442,#443,#444,#445,#446,#447,#448,#449,#450,#451,#452,#453,#454,#455,
     #456,#457,#458,#459),.UNSPECIFIED.,.T.,.F.,(2,4,1,1,1,4,4,1,1,1,1,1,1,1,1,1,
     1,1,1,1,1,1,4,4,1,1,1,4,4,1,1,1,1,1,1,1,1,1,1,1,1,1,1,1,4,4,1,1),(-0.2058539082,
     0.0,0.00674454179999995,0.0134890836000096,0.0202336254,0.0269781672,0.2328320753,
     0.23666420133125,0.2404963273625,0.24432845339375,0.248160579425,0.25199270545625,
     0.2558248314875,0.25965695751875,0.26348908355,0.26732120958125,0.2711533356125,
     0.27498546164375,0.278817587675009,0.28264971370625,0.2864818397375,0.29031396576875,
     0.2941460918,0.5,0.5067445418,0.51348908360001,0.5202336254,0.5269781672,0.7328320753,
     0.73666420133125,0.7404963273625,0.74432845339375,0.748160579425,0.75199270545625,
     0.7558248314875,0.75965695751875,0.76348908355,0.76732120958125,0.7711533356125,
     0.77498546164375,0.778817587675009,0.78264971370625,0.7864818397375,0.79031396576875,
     0.7941460918,1.0,1.0067445418,1.01348908360001),.UNSPECIFIED.);
#262=PRESENTATION_LAYER_ASSIGNMENT('1','Layer 1',(#261,#282,#283,#31));
#265=STYLED_ITEM('',(#271),#261);
#266=STYLED_ITEM('',(#272),#282);
#267=STYLED_ITEM('',(#273),#283);
#268=STYLED_ITEM('',(#274),#31);
#269=PRESENTATION_STYLE_ASSIGNMENT((#275));
#270=PRESENTATION_STYLE_ASSIGNMENT((#276));
#271=PRESENTATION_STYLE_ASSIGNMENT((#254));
#272=PRESENTATION_STYLE_ASSIGNMENT((#255));
#273=PRESENTATION_STYLE_ASSIGNMENT((#256));
#274=PRESENTATION_STYLE_ASSIGNMENT((#26));
#275=POINT_STYLE('',#277,POSITIVE_LENGTH_MEASURE(3.0),#279);
#276=POINT_STYLE('',#278,POSITIVE_LENGTH_MEASURE(3.0),#279);
#277=PRE_DEFINED_POINT_MARKER_SYMBOL('plus');
#278=PRE_DEFINED_POINT_MARKER_SYMBOL('plus');
#279=COLOUR_RGB('Medium Maroon',0.6,0.4,0.4);
#280=COLOUR_RGB('IsoInsertColor',0.8,0.8,0.8);
#281=AXIS2_PLACEMENT_3D('',#387,#311,#312);
#282=AXIS2_PLACEMENT_3D('PCS',#460,#313,#314);
#283=AXIS2_PLACEMENT_3D('MCS',#461,#315,#316);
#284=AXIS2_PLACEMENT_3D('',#462,#317,#318);
#285=AXIS2_PLACEMENT_3D('',#467,#320,#321);
#286=AXIS2_PLACEMENT_3D('',#471,#323,#324);
#287=AXIS2_PLACEMENT_3D('',#475,#326,#327);
#288=AXIS2_PLACEMENT_3D('',#479,#329,#330);
#289=AXIS2_PLACEMENT_3D('',#480,#331,#332);
#290=AXIS2_PLACEMENT_3D('',#486,#336,#337);
#291=AXIS2_PLACEMENT_3D('',#492,#341,#342);
#292=AXIS2_PLACEMENT_3D('',#498,#346,#347);
#293=AXIS2_PLACEMENT_3D('',#504,#351,#352);
#294=AXIS2_PLACEMENT_3D('',#505,#353,#354);
#295=AXIS2_PLACEMENT_3D('',#507,#355,#356);
#296=AXIS2_PLACEMENT_3D('',#508,#357,#358);
#297=AXIS2_PLACEMENT_3D('',#509,#359,#360);
#298=AXIS2_PLACEMENT_3D('',#510,#361,#362);
#299=AXIS2_PLACEMENT_3D('',#511,#363,#364);
#300=AXIS2_PLACEMENT_3D('',#512,#365,#366);
#301=AXIS2_PLACEMENT_3D('',#513,#367,#368);
#302=AXIS2_PLACEMENT_3D('',#514,#369,#370);
#303=AXIS2_PLACEMENT_3D('',#515,#371,#372);
#304=AXIS2_PLACEMENT_3D('',#516,#373,#374);
#305=AXIS2_PLACEMENT_3D('',#518,#375,#376);
#306=AXIS2_PLACEMENT_3D('',#519,#377,#378);
#307=AXIS2_PLACEMENT_3D('',#521,#379,#380);
#308=AXIS2_PLACEMENT_3D('',#523,#381,#382);
#309=AXIS2_PLACEMENT_3D('',#524,#383,#384);
#310=AXIS2_PLACEMENT_3D('',#525,#385,#386);
#311=DIRECTION('',(0.0,0.0,1.0));
#312=DIRECTION('',(1.0,0.0,0.0));
#313=DIRECTION('',(0.0,0.0,1.0));
#314=DIRECTION('',(1.0,0.0,0.0));
#315=DIRECTION('',(0.0,0.0,1.0));
#316=DIRECTION('',(1.0,0.0,0.0));
#317=DIRECTION('',(0.0,0.0,1.0));
#318=DIRECTION('',(-0.887010833178222,-0.461748613235034,0.0));
#319=DIRECTION('',(1.0,6.10622663543836E-16,0.0));
#320=DIRECTION('',(0.0,0.0,-1.0));
#321=DIRECTION('',(-0.887010833178222,-0.461748613235034,0.0));
#322=DIRECTION('',(-0.573576436351046,-0.819152044288992,0.0));
#323=DIRECTION('',(0.0,0.0,-1.0));
#324=DIRECTION('',(-0.887010833178222,-0.461748613235034,0.0));
#325=DIRECTION('',(-1.0,1.66533453693773E-16,0.0));
#326=DIRECTION('',(0.0,0.0,-1.0));
#327=DIRECTION('',(-0.887010833178222,-0.461748613235034,0.0));
#328=DIRECTION('',(0.573576436351046,0.819152044288991,0.0));
#329=DIRECTION('',(0.0,0.0,-1.0));
#330=DIRECTION('',(-0.887010833178222,-0.461748613235034,0.0));
#331=DIRECTION('',(0.0,0.0,1.0));
#332=DIRECTION('',(-0.887010833178222,-0.461748613235034,0.0));
#333=DIRECTION('',(-1.0,-6.10622663543836E-16,-1.19689526338967E-16));
#334=DIRECTION('',(1.87350135405495E-16,-0.121869343405148,-0.992546151641322));
#335=DIRECTION('',(-1.87350135405495E-16,0.121869343405148,0.992546151641322));
#336=DIRECTION('',(6.10622663543836E-16,-0.992546151641322,0.121869343405148));
#337=DIRECTION('',(1.0,6.10622663543836E-16,0.0));
#338=DIRECTION('',(-0.0998295217864837,0.0699013836907669,0.992546151641322));
#339=DIRECTION('',(-0.573576436351046,-0.819152044288991,4.03049328176126E-16));
#340=DIRECTION('',(0.0998295217864837,-0.0699013836907669,-0.992546151641322));
#341=DIRECTION('',(0.81304620916816,-0.569301084572375,0.121869343405148));
#342=DIRECTION('',(0.573576436351046,0.819152044288991,0.0));
#343=DIRECTION('',(-1.2490009027033E-16,-0.121869343405147,0.992546151641322));
#344=DIRECTION('',(1.0,-1.66533453693773E-16,1.19689526338968E-16));
#345=DIRECTION('',(1.2490009027033E-16,0.121869343405147,-0.992546151641322));
#346=DIRECTION('',(1.11022302462516E-16,0.992546151641322,0.121869343405147));
#347=DIRECTION('',(-1.0,1.66533453693773E-16,0.0));
#348=DIRECTION('',(0.0998295217864836,-0.0699013836907657,0.992546151641322));
#349=DIRECTION('',(0.573576436351046,0.819152044288992,-4.03049328176126E-16));
#350=DIRECTION('',(-0.0998295217864836,0.0699013836907657,-0.992546151641322));
#351=DIRECTION('',(-0.813046209168161,0.569301084572374,0.121869343405147));
#352=DIRECTION('',(-0.573576436351046,-0.819152044288992,0.0));
#353=DIRECTION('',(0.0,0.0,1.0));
#354=DIRECTION('',(-0.887010833178222,-0.461748613235034,0.0));
#355=DIRECTION('',(-1.1457530207728E-16,5.71230636268423E-16,1.0));
#356=DIRECTION('',(-0.461748613235033,0.887010833178221,-5.59592749458549E-16));
#357=DIRECTION('',(-1.1457530207728E-16,5.71230636268423E-16,1.0));
#358=DIRECTION('',(-0.461748613235034,0.887010833178221,-5.59592749458549E-16));
#359=DIRECTION('',(-1.1457530207728E-16,5.71230636268423E-16,1.0));
#360=DIRECTION('',(-0.461748613235034,0.887010833178222,-5.59592749458549E-16));
#361=DIRECTION('',(-1.1457530207728E-16,5.71230636268423E-16,1.0));
#362=DIRECTION('',(-0.461748613235033,0.887010833178222,-5.59592749458549E-16));
#363=DIRECTION('',(-1.1457530207728E-16,5.71230636268423E-16,1.0));
#364=DIRECTION('',(-0.461748613235034,0.887010833178222,-5.59592749458549E-16));
#365=DIRECTION('',(-1.1457530207728E-16,5.71230636268423E-16,1.0));
#366=DIRECTION('',(-0.461748613235034,0.887010833178222,-8.67535343683984E-16));
#367=DIRECTION('',(-1.1457530207728E-16,5.71230636268423E-16,1.0));
#368=DIRECTION('',(-0.461748613235034,0.887010833178222,-8.95520354770564E-16));
#369=DIRECTION('',(-1.1457530207728E-16,5.71230636268423E-16,1.0));
#370=DIRECTION('',(-0.461748613235034,0.887010833178222,-8.81527849227274E-16));
#371=DIRECTION('',(-1.1457530207728E-16,5.71230636268423E-16,1.0));
#372=DIRECTION('',(-0.461748613235034,0.887010833178222,-8.53542838140694E-16));
#373=DIRECTION('',(0.0,0.0,-1.0));
#374=DIRECTION('',(0.887010833178222,0.461748613235034,0.0));
#375=DIRECTION('',(0.0,0.0,1.0));
#376=DIRECTION('',(-0.887010833178222,-0.461748613235034,4.75743674970663E-16));
#377=DIRECTION('',(0.0,0.0,1.0));
#378=DIRECTION('',(0.887010833178221,0.461748613235034,0.0));
#379=DIRECTION('',(0.0,0.0,-1.0));
#380=DIRECTION('',(-0.887010833178222,-0.461748613235034,0.0));
#381=DIRECTION('',(0.0,0.0,1.0));
#382=DIRECTION('',(-0.887010833178222,-0.461748613235034,0.0));
#383=DIRECTION('',(0.0,0.0,1.0));
#384=DIRECTION('',(-0.887010833178222,-0.461748613235034,0.0));
#385=DIRECTION('',(0.0,0.0,-1.0));
#386=DIRECTION('',(0.887010833178222,0.461748613235034,0.0));
#387=CARTESIAN_POINT('',(0.0,0.0,0.0));
#390=CARTESIAN_POINT('',(9.26389611969676,-3.5527136788005E-15,0.0));
#391=CARTESIAN_POINT('',(11.063054757653,-5.32907051820075E-15,6.86420476303345E-16));
#392=CARTESIAN_POINT('',(11.1730086461797,0.00634638194337089,6.95393228500344E-16));
#393=CARTESIAN_POINT('',(11.346051545582,0.0357630268550801,6.98654208723447E-16));
#394=CARTESIAN_POINT('',(11.5657999019346,0.119250836088447,6.70087160933938E-16));
#395=CARTESIAN_POINT('',(11.760231590672,0.251371511325007,5.77302585758364E-16));
#396=CARTESIAN_POINT('',(11.8835816250625,0.376247261762272,4.39860691257985E-16));
#397=CARTESIAN_POINT('',(11.9518472363493,0.462676079187493,3.20385315701139E-16));
#398=CARTESIAN_POINT('',(12.9838022363384,1.93646055546953,5.01847277363353E-17));
#399=CARTESIAN_POINT('',(13.9842237565555,3.36521055546953,0.0));
#400=CARTESIAN_POINT('',(14.9846452767726,4.79396055546953,0.0));
#401=CARTESIAN_POINT('',(15.9850667969898,6.22271055546953,5.01847277363352E-17));
#402=CARTESIAN_POINT('',(17.0032022047786,7.6767586086967,2.63594553528023E-16));
#403=CARTESIAN_POINT('',(17.0369894857347,7.72850340154733,2.82866338445175E-16));
#404=CARTESIAN_POINT('',(17.0844782620738,7.81241984102764,2.96451483597184E-16));
#405=CARTESIAN_POINT('',(17.1361758270768,7.93064804902911,2.86250291567998E-16));
#406=CARTESIAN_POINT('',(17.181541860864,8.09048040218967,2.39717533817172E-16));
#407=CARTESIAN_POINT('',(17.2040971511614,8.25602972544877,1.68636867321056E-16));
#408=CARTESIAN_POINT('',(17.2032764529618,8.4235498931515,8.24086915274561E-17));
#409=CARTESIAN_POINT('',(17.1794794315476,8.58713030372451,-1.07032790361529E-17));
#410=CARTESIAN_POINT('',(17.1338457745357,8.74394394950844,-1.05160986369299E-16));
#411=CARTESIAN_POINT('',(17.0706304427128,8.8864077406274,-1.93827819393392E-16));
#412=CARTESIAN_POINT('',(16.9901897617416,9.01990458251908,-2.79392803670674E-16));
#413=CARTESIAN_POINT('',(16.887909933582,9.14723009808565,-3.63360229174837E-16));
#414=CARTESIAN_POINT('',(16.7675621165983,9.26054934577123,-4.37743091112694E-16));
#415=CARTESIAN_POINT('',(16.6308083619118,9.35730724319006,-4.95726574686547E-16));
#416=CARTESIAN_POINT('',(16.4822611123046,9.43378622190734,-5.28107499450011E-16));
#417=CARTESIAN_POINT('',(16.3253132254781,9.48830061412926,-5.23602270012457E-16));
#418=CARTESIAN_POINT('',(16.1988138420989,9.51376536229368,-4.82968199186979E-16));
#419=CARTESIAN_POINT('',(16.1028350760499,9.52299732638322,-4.23237253683603E-16));
#420=CARTESIAN_POINT('',(16.0410686350002,9.525,-3.70528357648144E-16));
#421=CARTESIAN_POINT('',(14.2660037207824,9.52499999999999,-6.80121476307092E-17));
#422=CARTESIAN_POINT('',(12.5218220270894,9.52499999999999,1.18329135783152E-31));
#423=CARTESIAN_POINT('',(10.7776403333965,9.52499999999999,-1.57772181044202E-31));
#424=CARTESIAN_POINT('',(9.03345863970358,9.52499999999999,-6.80121476307092E-17));
#425=CARTESIAN_POINT('',(7.23430000174736,9.52499999999999,-4.10529567833231E-16));
#426=CARTESIAN_POINT('',(7.12434611322069,9.51865361805662,-5.25110627420229E-16));
#427=CARTESIAN_POINT('',(6.95130321381838,9.4892369731449,-6.37118326223499E-16));
#428=CARTESIAN_POINT('',(6.73155485746576,9.40574916391154,-6.62205432267632E-16));
#429=CARTESIAN_POINT('',(6.53712316872838,9.27362848867497,-5.77625438933904E-16));
#430=CARTESIAN_POINT('',(6.41377313433781,9.14875273823772,-4.39860691257985E-16));
#431=CARTESIAN_POINT('',(6.34550752305108,9.0623239208125,-3.20385315701139E-16));
#432=CARTESIAN_POINT('',(5.31355252306195,7.58853944453046,-5.01847277363354E-17));
#433=CARTESIAN_POINT('',(4.31313100284483,6.15978944453046,1.97215226305253E-32));
#434=CARTESIAN_POINT('',(3.3127094826277,4.73103944453046,-3.94430452610506E-32));
#435=CARTESIAN_POINT('',(2.31228796241058,3.30228944453046,-5.01847277363353E-17));
#436=CARTESIAN_POINT('',(1.29415255462176,1.84824139130329,-2.63594553528023E-16));
#437=CARTESIAN_POINT('',(1.26036527366559,1.79649659845266,-2.82866338445176E-16));
#438=CARTESIAN_POINT('',(1.21287649732657,1.71258015897235,-2.96451483597184E-16));
#439=CARTESIAN_POINT('',(1.16117893232358,1.59435195097089,-2.86250291567999E-16));
#440=CARTESIAN_POINT('',(1.11581289853631,1.43451959781033,-2.39717533817173E-16));
#441=CARTESIAN_POINT('',(1.09325760823892,1.26897027455123,-1.68636867321058E-16));
#442=CARTESIAN_POINT('',(1.09407830643848,1.10145010684849,-8.24086915274579E-17));
#443=CARTESIAN_POINT('',(1.11787532785277,0.937869696275486,1.07032790361506E-17));
#444=CARTESIAN_POINT('',(1.16350898486467,0.781056050491555,1.05160986369297E-16));
#445=CARTESIAN_POINT('',(1.22672431668752,0.638592259372599,1.9382781939339E-16));
#446=CARTESIAN_POINT('',(1.30716499765873,0.505095417480912,2.79392803670672E-16));
#447=CARTESIAN_POINT('',(1.40944482581831,0.37776990191435,3.63360229174835E-16));
#448=CARTESIAN_POINT('',(1.52979264280206,0.264450654228765,4.37743091112694E-16));
#449=CARTESIAN_POINT('',(1.66654639748856,0.167692756809939,4.95726574686546E-16));
#450=CARTESIAN_POINT('',(1.81509364709575,0.0912137780926487,5.28107499450011E-16));
#451=CARTESIAN_POINT('',(1.97204153392224,0.0366993858707403,5.23602270012456E-16));
#452=CARTESIAN_POINT('',(2.09854091730144,0.0112346377063117,4.82968199186979E-16));
#453=CARTESIAN_POINT('',(2.19451968335044,0.0020026736167722,4.23237253683602E-16));
#454=CARTESIAN_POINT('',(2.25628612440017,8.88178419700125E-16,3.70528357648145E-16));
#455=CARTESIAN_POINT('',(4.03135103861797,-1.77635683940025E-15,6.80121476307092E-17));
#456=CARTESIAN_POINT('',(5.7755327323109,-2.66453525910038E-15,-1.18329135783152E-31));
#457=CARTESIAN_POINT('',(7.51971442600383,-4.44089209850063E-15,0.0));
#458=CARTESIAN_POINT('',(9.26389611969676,-3.5527136788005E-15,0.0));
#459=CARTESIAN_POINT('',(11.063054757653,-5.32907051820075E-15,6.86420476303345E-16));
#460=CARTESIAN_POINT('',(0.0,0.0,0.0));
#461=CARTESIAN_POINT('',(9.14867737970017,4.7625,0.0));
#462=CARTESIAN_POINT('',(9.14867737970017,4.7625,-3.96875));
#463=CARTESIAN_POINT('',(7.19725354670809,3.74665305088292,-3.96875));
#464=CARTESIAN_POINT('',(9.14867737970017,9.03769877391659,-3.96875));
#465=CARTESIAN_POINT('',(7.28927694601065,9.03769877391658,-3.96875));
#466=CARTESIAN_POINT('',(16.0101854144753,9.03769877391659,-3.96875));
#467=CARTESIAN_POINT('',(16.0101854144753,8.33437499999999,-3.96875));
#468=CARTESIAN_POINT('',(16.5863145216761,7.93096505615594,-3.96875));
#469=CARTESIAN_POINT('',(12.6507151950957,2.31034672256455,-3.96875));
#470=CARTESIAN_POINT('',(11.5842069205905,0.787215056155943,-3.96875));
#471=CARTESIAN_POINT('',(11.0080778133897,1.190625,-3.96875));
#472=CARTESIAN_POINT('',(11.0080778133897,0.487301226083397,-3.96875));
#473=CARTESIAN_POINT('',(9.14867737970017,0.487301226083397,-3.96875));
#474=CARTESIAN_POINT('',(2.28716934492504,0.487301226083398,-3.96875));
#475=CARTESIAN_POINT('',(2.28716934492505,1.190625,-3.96875));
#476=CARTESIAN_POINT('',(1.71104023772421,1.59403494384405,-3.96875));
#477=CARTESIAN_POINT('',(5.6466395643046,7.21465327743544,-3.96875));
#478=CARTESIAN_POINT('',(6.71314783880982,8.73778494384404,-3.96875));
#479=CARTESIAN_POINT('',(7.28927694601066,8.33437499999999,-3.96875));
#480=CARTESIAN_POINT('',(8.98920404722148,4.25671520759503,-3.96875));
#481=CARTESIAN_POINT('',(9.14867737970017,9.52499999999999,-5.65390330310514E-15));
#482=CARTESIAN_POINT('',(16.0101854144753,9.525,-4.8677439473151E-15));
#483=CARTESIAN_POINT('',(7.28927694601065,9.52499999999999,-5.86694466947774E-15));
#484=CARTESIAN_POINT('',(16.0101854144753,9.525,-4.42944753095492E-15));
#485=CARTESIAN_POINT('',(7.28927694601065,9.52499999999999,-5.34803344144206E-15));
#486=CARTESIAN_POINT('',(9.14867737970017,9.52499999999999,-5.65390330310514E-15));
#487=CARTESIAN_POINT('',(1.31186644219346,1.87353944453046,-1.87957945555867E-15));
#488=CARTESIAN_POINT('',(1.31186644219346,1.87353944453046,-2.1810596021089E-15));
#489=CARTESIAN_POINT('',(5.24746576877385,7.49415777812186,-4.94080650733019E-15));
#490=CARTESIAN_POINT('',(6.31397404327907,9.01728944453045,-5.68867047053401E-15));
#491=CARTESIAN_POINT('',(6.31397404327907,9.01728944453045,-5.31355720950283E-15));
#492=CARTESIAN_POINT('',(5.24746576877385,7.49415777812185,-4.94080650733019E-15));
#493=CARTESIAN_POINT('',(11.0080778133897,-3.46944695195361E-15,4.66587275214385E-17));
#494=CARTESIAN_POINT('',(11.0080778133897,-3.46944695195361E-15,1.09873724187398E-19));
#495=CARTESIAN_POINT('',(9.14867737970017,-3.46944695195361E-15,-2.12931492648413E-16));
#496=CARTESIAN_POINT('',(2.28716934492504,-1.73472347597681E-15,-9.99090848438457E-16));
#497=CARTESIAN_POINT('',(2.28716934492504,-1.73472347597681E-15,-8.4806672097761E-16));
#498=CARTESIAN_POINT('',(9.14867737970017,-2.60208521396521E-15,-2.12931492648414E-16));
#499=CARTESIAN_POINT('',(16.9854883172069,7.65146055546953,-3.39619619331132E-15));
#500=CARTESIAN_POINT('',(16.9854883172069,7.65146055546953,-3.68577519364466E-15));
#501=CARTESIAN_POINT('',(13.0498889906265,2.03084222187815,-9.26028288423373E-16));
#502=CARTESIAN_POINT('',(11.9833807161213,0.507710555469532,-1.78164325219552E-16));
#503=CARTESIAN_POINT('',(11.9833807161213,0.507710555469532,1.69254092011107E-16));
#504=CARTESIAN_POINT('',(13.0498889906265,2.03084222187814,-9.2602828842337E-16));
#505=CARTESIAN_POINT('',(9.14867737970017,4.7625,0.0));
#506=CARTESIAN_POINT('',(6.42437852364753,3.34431977968318,0.0));
#507=CARTESIAN_POINT('',(16.0101854144753,8.33437499999999,-4.18762247100801E-15));
#508=CARTESIAN_POINT('',(7.28927694601065,8.33437499999999,-5.18682319317065E-15));
#509=CARTESIAN_POINT('',(2.28716934492504,1.190625,-1.67921232474555E-15));
#510=CARTESIAN_POINT('',(11.0080778133897,1.190625,-6.80011602582904E-16));
#511=CARTESIAN_POINT('',(9.14867737970017,4.7625,-2.93341739787678E-15));
#512=CARTESIAN_POINT('',(16.0101854144753,8.33437499999999,-3.46944695195361E-15));
#513=CARTESIAN_POINT('',(11.0080778133897,1.190625,0.0));
#514=CARTESIAN_POINT('',(2.28716934492504,1.190625,-1.73472347597681E-15));
#515=CARTESIAN_POINT('',(7.28927694601065,8.33437499999999,-5.20417042793042E-15));
#516=CARTESIAN_POINT('',(9.14867737970017,4.7625,-0.9334513189811));
#517=CARTESIAN_POINT('',(11.8150781338492,6.15054037617628,-0.9334513189811));
#518=CARTESIAN_POINT('',(9.14867737970017,4.7625,-1.02000000000516));
#519=CARTESIAN_POINT('',(9.14867737970017,4.7625,-1.08746453661102));
#520=CARTESIAN_POINT('',(11.7657990129709,6.12488728956691,-1.08746453661102));
#521=CARTESIAN_POINT('',(9.14867737970017,4.7625,-3.42000000000001));
#522=CARTESIAN_POINT('',(7.19725354670809,3.74665305088292,-3.42000000000001));
#523=CARTESIAN_POINT('',(9.14867737970017,4.7625,-3.42));
#524=CARTESIAN_POINT('',(9.14867737970017,4.7625,-33.3676978394524));
#525=CARTESIAN_POINT('',(9.14867737970017,4.7625,-0.912524376856845));
#526=MECHANICAL_DESIGN_GEOMETRIC_PRESENTATION_REPRESENTATION('',(#265,#266,#267,
     #268),#527);
#527=(GEOMETRIC_REPRESENTATION_CONTEXT(3)GLOBAL_UNCERTAINTY_ASSIGNED_CONTEXT((#528))
     GLOBAL_UNIT_ASSIGNED_CONTEXT((#534,#530,#529))REPRESENTATION_CONTEXT('DCGW11T312',
     'TOP_LEVEL_ASSEMBLY_PART'));
#528=UNCERTAINTY_MEASURE_WITH_UNIT(LENGTH_MEASURE(2.0E-5),#534,'DISTANCE_ACCURACY_VALUE',
     'Maximum Tolerance applied to model');
#529=(NAMED_UNIT(*)SI_UNIT($,.STERADIAN.)SOLID_ANGLE_UNIT());
#530=(CONVERSION_BASED_UNIT('DEGREE',#532)NAMED_UNIT(#531)PLANE_ANGLE_UNIT());
#531=DIMENSIONAL_EXPONENTS(0.0,0.0,0.0,0.0,0.0,0.0,0.0);
#532=PLANE_ANGLE_MEASURE_WITH_UNIT(PLANE_ANGLE_MEASURE(0.0174532925),#533);
#533=(NAMED_UNIT(*)PLANE_ANGLE_UNIT()SI_UNIT($,.RADIAN.));
#534=(LENGTH_UNIT()NAMED_UNIT(*)SI_UNIT(.MILLI.,.METRE.));
#535=CONSTRUCTIVE_GEOMETRY_REPRESENTATION('supplemental geometry',(#282,#283),#527);
#536=CONSTRUCTIVE_GEOMETRY_REPRESENTATION_RELATIONSHIP('supplemental geometry','contains PCS and MCS coordinate systems',
     #24,#535);
ENDSEC;
END-ISO-10303-21;
