ISO-10303-21;
HEADER;
FILE_DESCRIPTION(
/* description */ (''),
/* implementation_level */ '2;1');
FILE_NAME(
/* name */ 'DCET070200.stp',
/* time_stamp */ '2017-03-21T10:54:00',
/* author */ ('Sandvik Coromant R&D'),
/* organization */ ('Sandvik Machining Solutions'),
/* preprocessor_version */ 'ST-DEVELOPER v15',
/* originating_system */ 'SIEMENS PLM Software NX v8.5.3.3(64 bits)',
/* authorization */ '');
FILE_SCHEMA(('AUTOMOTIVE_DESIGN'));
ENDSEC;
DATA;
#10=GEOMETRICALLY_BOUNDED_WIREFRAME_SHAPE_REPRESENTATION('IsoTurningInsert-None',
     (#25),#338);
#11=SHAPE_REPRESENTATION_RELATIONSHIP('None','relationship between IsoTurningInsert-None and IsoTurningInsert-None',
     #24,#13);
#12=SHAPE_REPRESENTATION_RELATIONSHIP('None','relationship between IsoTurningInsert-None and IsoTurningInsert-None',
     #24,#10);
#13=ADVANCED_BREP_SHAPE_REPRESENTATION('IsoTurningInsert-None',(#31),#338);
#14=SHAPE_DEFINITION_REPRESENTATION(#15,#24);
#15=PRODUCT_DEFINITION_SHAPE('','',#16);
#16=PRODUCT_DEFINITION(' ','',#18,#17);
#17=PRODUCT_DEFINITION_CONTEXT('part definition',#23,'design');
#18=PRODUCT_DEFINITION_FORMATION_WITH_SPECIFIED_SOURCE(' ',' ',#20,.NOT_KNOWN.);
#19=PRODUCT_RELATED_PRODUCT_CATEGORY('part','',(#20));
#20=PRODUCT('IsoTurningInsert','IsoTurningInsert',' ',(#21));
#21=PRODUCT_CONTEXT(' ',#23,'mechanical');
#22=APPLICATION_PROTOCOL_DEFINITION('international standard','automotive_design',
     2010,#23);
#23=APPLICATION_CONTEXT('core data for automotive mechanical design processes');
#24=SHAPE_REPRESENTATION('IsoTurningInsert-None',(#205),#338);
#25=GEOMETRIC_CURVE_SET('geometric curve set',(#185));
#26=SURFACE_STYLE_USAGE(.BOTH.,#27);
#27=SURFACE_SIDE_STYLE('',(#28));
#28=SURFACE_STYLE_FILL_AREA(#29);
#29=FILL_AREA_STYLE('',(#30));
#30=FILL_AREA_STYLE_COLOUR('',#204);
#31=MANIFOLD_SOLID_BREP('CUT',#32);
#32=CLOSED_SHELL('',(#41,#42,#43,#44,#45,#46,#47,#48,#49,#50));
#33=CYLINDRICAL_SURFACE('',#221,1.4);
#34=TOROIDAL_SURFACE('',#220,3.9,2.5);
#35=TOROIDAL_SURFACE('',#222,1.38569981785225,0.5);
#36=CONICAL_SURFACE('',#217,1.87499999997636,4.00000000179039);
#37=FACE_OUTER_BOUND('',#95,.T.);
#38=FACE_OUTER_BOUND('',#96,.T.);
#39=FACE_OUTER_BOUND('',#97,.T.);
#40=FACE_OUTER_BOUND('',#98,.T.);
#41=ADVANCED_FACE('',(#81,#82),#51,.F.);
#42=ADVANCED_FACE('',(#37),#52,.F.);
#43=ADVANCED_FACE('',(#38),#53,.F.);
#44=ADVANCED_FACE('',(#39),#54,.F.);
#45=ADVANCED_FACE('',(#40),#55,.F.);
#46=ADVANCED_FACE('',(#83,#84),#56,.T.);
#47=ADVANCED_FACE('',(#85,#86),#36,.F.);
#48=ADVANCED_FACE('',(#87,#88),#34,.T.);
#49=ADVANCED_FACE('',(#89,#90),#33,.F.);
#50=ADVANCED_FACE('',(#91,#92),#35,.F.);
#51=PLANE('',#209);
#52=PLANE('',#210);
#53=PLANE('',#211);
#54=PLANE('',#212);
#55=PLANE('',#213);
#56=PLANE('',#215);
#57=LINE('',#299,#69);
#58=LINE('',#302,#70);
#59=LINE('',#304,#71);
#60=LINE('',#306,#72);
#61=LINE('',#308,#73);
#62=LINE('',#310,#74);
#63=LINE('',#312,#75);
#64=LINE('',#314,#76);
#65=LINE('',#316,#77);
#66=LINE('',#318,#78);
#67=LINE('',#320,#79);
#68=LINE('',#322,#80);
#69=VECTOR('',#231,1.0);
#70=VECTOR('',#232,1.0);
#71=VECTOR('',#233,1.0);
#72=VECTOR('',#234,1.0);
#73=VECTOR('',#237,1.0);
#74=VECTOR('',#238,1.0);
#75=VECTOR('',#239,1.0);
#76=VECTOR('',#242,1.0);
#77=VECTOR('',#243,1.0);
#78=VECTOR('',#246,1.0);
#79=VECTOR('',#247,1.0);
#80=VECTOR('',#250,1.0);
#81=FACE_BOUND('',#93,.T.);
#82=FACE_BOUND('',#94,.T.);
#83=FACE_BOUND('',#99,.T.);
#84=FACE_BOUND('',#100,.T.);
#85=FACE_BOUND('',#101,.T.);
#86=FACE_BOUND('',#102,.T.);
#87=FACE_BOUND('',#103,.T.);
#88=FACE_BOUND('',#104,.T.);
#89=FACE_BOUND('',#105,.T.);
#90=FACE_BOUND('',#106,.T.);
#91=FACE_BOUND('',#107,.T.);
#92=FACE_BOUND('',#108,.T.);
#93=EDGE_LOOP('',(#109));
#94=EDGE_LOOP('',(#110,#111,#112,#113));
#95=EDGE_LOOP('',(#114,#115,#116,#117));
#96=EDGE_LOOP('',(#118,#119,#120,#121));
#97=EDGE_LOOP('',(#122,#123,#124,#125));
#98=EDGE_LOOP('',(#126,#127,#128,#129));
#99=EDGE_LOOP('',(#130));
#100=EDGE_LOOP('',(#131,#132,#133,#134));
#101=EDGE_LOOP('',(#135));
#102=EDGE_LOOP('',(#136));
#103=EDGE_LOOP('',(#137));
#104=EDGE_LOOP('',(#138));
#105=EDGE_LOOP('',(#139));
#106=EDGE_LOOP('',(#140));
#107=EDGE_LOOP('',(#141));
#108=EDGE_LOOP('',(#142));
#109=ORIENTED_EDGE('',*,*,#156,.T.);
#110=ORIENTED_EDGE('',*,*,#157,.T.);
#111=ORIENTED_EDGE('',*,*,#158,.T.);
#112=ORIENTED_EDGE('',*,*,#159,.T.);
#113=ORIENTED_EDGE('',*,*,#160,.T.);
#114=ORIENTED_EDGE('',*,*,#157,.F.);
#115=ORIENTED_EDGE('',*,*,#161,.T.);
#116=ORIENTED_EDGE('',*,*,#162,.F.);
#117=ORIENTED_EDGE('',*,*,#163,.F.);
#118=ORIENTED_EDGE('',*,*,#160,.F.);
#119=ORIENTED_EDGE('',*,*,#164,.T.);
#120=ORIENTED_EDGE('',*,*,#165,.F.);
#121=ORIENTED_EDGE('',*,*,#161,.F.);
#122=ORIENTED_EDGE('',*,*,#159,.F.);
#123=ORIENTED_EDGE('',*,*,#166,.T.);
#124=ORIENTED_EDGE('',*,*,#167,.F.);
#125=ORIENTED_EDGE('',*,*,#164,.F.);
#126=ORIENTED_EDGE('',*,*,#158,.F.);
#127=ORIENTED_EDGE('',*,*,#163,.T.);
#128=ORIENTED_EDGE('',*,*,#168,.F.);
#129=ORIENTED_EDGE('',*,*,#166,.F.);
#130=ORIENTED_EDGE('',*,*,#169,.F.);
#131=ORIENTED_EDGE('',*,*,#162,.T.);
#132=ORIENTED_EDGE('',*,*,#165,.T.);
#133=ORIENTED_EDGE('',*,*,#167,.T.);
#134=ORIENTED_EDGE('',*,*,#168,.T.);
#135=ORIENTED_EDGE('',*,*,#170,.T.);
#136=ORIENTED_EDGE('',*,*,#169,.T.);
#137=ORIENTED_EDGE('',*,*,#171,.T.);
#138=ORIENTED_EDGE('',*,*,#172,.T.);
#139=ORIENTED_EDGE('',*,*,#172,.F.);
#140=ORIENTED_EDGE('',*,*,#156,.F.);
#141=ORIENTED_EDGE('',*,*,#171,.F.);
#142=ORIENTED_EDGE('',*,*,#170,.F.);
#143=VERTEX_POINT('',#298);
#144=VERTEX_POINT('',#300);
#145=VERTEX_POINT('',#301);
#146=VERTEX_POINT('',#303);
#147=VERTEX_POINT('',#305);
#148=VERTEX_POINT('',#309);
#149=VERTEX_POINT('',#311);
#150=VERTEX_POINT('',#315);
#151=VERTEX_POINT('',#319);
#152=VERTEX_POINT('',#325);
#153=VERTEX_POINT('',#328);
#154=VERTEX_POINT('',#331);
#155=VERTEX_POINT('',#333);
#156=EDGE_CURVE('',#143,#143,#173,.T.);
#157=EDGE_CURVE('',#144,#145,#57,.T.);
#158=EDGE_CURVE('',#145,#146,#58,.T.);
#159=EDGE_CURVE('',#146,#147,#59,.T.);
#160=EDGE_CURVE('',#147,#144,#60,.T.);
#161=EDGE_CURVE('INSERT_CORNER_EDGE4',#144,#148,#61,.T.);
#162=EDGE_CURVE('',#149,#148,#62,.T.);
#163=EDGE_CURVE('INSERT_CORNER_EDGE3',#145,#149,#63,.T.);
#164=EDGE_CURVE('INSERT_CORNER_EDGE1',#147,#150,#64,.T.);
#165=EDGE_CURVE('',#148,#150,#65,.T.);
#166=EDGE_CURVE('INSERT_CORNER_EDGE2',#146,#151,#66,.T.);
#167=EDGE_CURVE('',#150,#151,#67,.T.);
#168=EDGE_CURVE('',#151,#149,#68,.T.);
#169=EDGE_CURVE('',#152,#152,#174,.T.);
#170=EDGE_CURVE('',#153,#153,#175,.T.);
#171=EDGE_CURVE('',#154,#154,#176,.T.);
#172=EDGE_CURVE('',#155,#155,#177,.T.);
#173=CIRCLE('',#208,1.4);
#174=CIRCLE('',#214,1.92255023212159);
#175=CIRCLE('',#216,1.88448184298103);
#176=CIRCLE('',#218,1.80474984821024);
#177=CIRCLE('',#219,1.4);
#178=CURVE_STYLE('',#182,POSITIVE_LENGTH_MEASURE(0.18),#181);
#179=CURVE_STYLE('',#183,POSITIVE_LENGTH_MEASURE(0.18),#203);
#180=CURVE_STYLE('',#184,POSITIVE_LENGTH_MEASURE(0.18),#203);
#181=DRAUGHTING_PRE_DEFINED_COLOUR('blue');
#182=DRAUGHTING_PRE_DEFINED_CURVE_FONT('continuous');
#183=DRAUGHTING_PRE_DEFINED_CURVE_FONT('continuous');
#184=DRAUGHTING_PRE_DEFINED_CURVE_FONT('continuous');
#185=B_SPLINE_CURVE_WITH_KNOTS('CUTTING EDGE LINE',5,(#274,#275,#276,#277,#278,#279,
     #280,#281,#282,#283,#284,#285,#286,#287,#288,#289,#290,#291,#292,#293,#294),
     .UNSPECIFIED.,.T.,.F.,(6,5,5,5,6),(0.0,0.25,0.5,0.75,1.0),.UNSPECIFIED.);
#186=PRESENTATION_LAYER_ASSIGNMENT('1','Layer 1',(#185,#206,#207,#31));
#189=STYLED_ITEM('',(#195),#185);
#190=STYLED_ITEM('',(#196),#206);
#191=STYLED_ITEM('',(#197),#207);
#192=STYLED_ITEM('',(#198),#31);
#193=PRESENTATION_STYLE_ASSIGNMENT((#199));
#194=PRESENTATION_STYLE_ASSIGNMENT((#200));
#195=PRESENTATION_STYLE_ASSIGNMENT((#178));
#196=PRESENTATION_STYLE_ASSIGNMENT((#179));
#197=PRESENTATION_STYLE_ASSIGNMENT((#180));
#198=PRESENTATION_STYLE_ASSIGNMENT((#26));
#199=POINT_STYLE('',#201,POSITIVE_LENGTH_MEASURE(3.0),#203);
#200=POINT_STYLE('',#202,POSITIVE_LENGTH_MEASURE(3.0),#203);
#201=PRE_DEFINED_POINT_MARKER_SYMBOL('plus');
#202=PRE_DEFINED_POINT_MARKER_SYMBOL('plus');
#203=COLOUR_RGB('Medium Maroon',0.6,0.4,0.4);
#204=COLOUR_RGB('IsoInsertColor',0.8,0.8,0.8);
#205=AXIS2_PLACEMENT_3D('',#271,#223,#224);
#206=AXIS2_PLACEMENT_3D('PCS',#295,#225,#226);
#207=AXIS2_PLACEMENT_3D('MCS',#296,#227,#228);
#208=AXIS2_PLACEMENT_3D('',#297,#229,#230);
#209=AXIS2_PLACEMENT_3D('',#307,#235,#236);
#210=AXIS2_PLACEMENT_3D('',#313,#240,#241);
#211=AXIS2_PLACEMENT_3D('',#317,#244,#245);
#212=AXIS2_PLACEMENT_3D('',#321,#248,#249);
#213=AXIS2_PLACEMENT_3D('',#323,#251,#252);
#214=AXIS2_PLACEMENT_3D('',#324,#253,#254);
#215=AXIS2_PLACEMENT_3D('',#326,#255,#256);
#216=AXIS2_PLACEMENT_3D('',#327,#257,#258);
#217=AXIS2_PLACEMENT_3D('',#329,#259,#260);
#218=AXIS2_PLACEMENT_3D('',#330,#261,#262);
#219=AXIS2_PLACEMENT_3D('',#332,#263,#264);
#220=AXIS2_PLACEMENT_3D('',#334,#265,#266);
#221=AXIS2_PLACEMENT_3D('',#335,#267,#268);
#222=AXIS2_PLACEMENT_3D('',#336,#269,#270);
#223=DIRECTION('',(0.0,0.0,1.0));
#224=DIRECTION('',(1.0,0.0,0.0));
#225=DIRECTION('',(0.0,0.0,1.0));
#226=DIRECTION('',(1.0,0.0,0.0));
#227=DIRECTION('',(0.0,0.0,1.0));
#228=DIRECTION('',(1.0,0.0,0.0));
#229=DIRECTION('',(0.0,0.0,1.0));
#230=DIRECTION('',(-0.887010833178221,-0.461748613235034,0.0));
#231=DIRECTION('',(1.0,9.43689570931383E-16,0.0));
#232=DIRECTION('',(-0.573576436351045,-0.819152044288992,0.0));
#233=DIRECTION('',(-1.0,2.22044604925031E-16,0.0));
#234=DIRECTION('',(0.573576436351046,0.819152044288991,0.0));
#235=DIRECTION('',(0.0,0.0,1.0));
#236=DIRECTION('',(-0.887010833178222,-0.461748613235034,0.0));
#237=DIRECTION('',(-0.0633138803303045,0.121624832503707,0.990554770154566));
#238=DIRECTION('',(-1.0,-8.88178419700125E-16,-1.76126333343879E-16));
#239=DIRECTION('',(0.227945648159466,0.118660993748481,0.966416240575345));
#240=DIRECTION('',(9.43689570931383E-16,-0.992546151641322,0.121869343405148));
#241=DIRECTION('',(1.0,9.43689570931383E-16,0.0));
#242=DIRECTION('',(-0.227945648159467,-0.118660993748479,0.966416240575346));
#243=DIRECTION('',(-0.573576436351047,-0.819152044288991,6.01166036099617E-16));
#244=DIRECTION('',(0.81304620916816,-0.569301084572375,0.121869343405148));
#245=DIRECTION('',(0.573576436351046,0.819152044288991,0.0));
#246=DIRECTION('',(0.0633138803303043,-0.121624832503705,0.990554770154566));
#247=DIRECTION('',(1.0,-2.22044604925031E-16,1.69310421014735E-16));
#248=DIRECTION('',(1.66533453693773E-16,0.992546151641322,0.121869343405147));
#249=DIRECTION('',(-1.0,2.22044604925031E-16,0.0));
#250=DIRECTION('',(0.573576436351046,0.819152044288992,-6.07981948428762E-16));
#251=DIRECTION('',(-0.813046209168161,0.569301084572374,0.121869343405147));
#252=DIRECTION('',(-0.573576436351045,-0.819152044288992,0.0));
#253=DIRECTION('',(0.0,0.0,1.0));
#254=DIRECTION('',(-0.887010833178221,-0.461748613235034,0.0));
#255=DIRECTION('',(-1.7186295311592E-16,8.56845954402636E-16,1.0));
#256=DIRECTION('',(-0.461748613235034,0.887010833178222,-8.39389124187825E-16));
#257=DIRECTION('',(0.0,0.0,-1.0));
#258=DIRECTION('',(0.887010833178222,0.461748613235034,0.0));
#259=DIRECTION('',(0.0,0.0,1.0));
#260=DIRECTION('',(-0.887010833178222,-0.461748613235034,0.0));
#261=DIRECTION('',(0.0,0.0,1.0));
#262=DIRECTION('',(0.887010833178222,0.461748613235034,0.0));
#263=DIRECTION('',(0.0,0.0,-1.0));
#264=DIRECTION('',(-0.887010833178222,-0.461748613235034,0.0));
#265=DIRECTION('',(0.0,0.0,1.0));
#266=DIRECTION('',(-0.887010833178222,-0.461748613235034,0.0));
#267=DIRECTION('',(0.0,0.0,1.0));
#268=DIRECTION('',(-0.887010833178222,-0.461748613235034,0.0));
#269=DIRECTION('',(0.0,0.0,-1.0));
#270=DIRECTION('',(0.887010833178222,0.461748613235034,0.0));
#271=CARTESIAN_POINT('',(0.0,0.0,0.0));
#274=CARTESIAN_POINT('',(-1.77635683940025E-15,3.10862446895044E-15,0.0));
#275=CARTESIAN_POINT('',(1.55038372772705,3.10862446895044E-15,0.0));
#276=CARTESIAN_POINT('',(3.10076745545409,2.22044604925031E-15,0.0));
#277=CARTESIAN_POINT('',(4.65115118318114,2.22044604925031E-15,0.0));
#278=CARTESIAN_POINT('',(6.20153491090819,2.22044604925031E-15,0.0));
#279=CARTESIAN_POINT('',(7.75191863863524,1.33226762955019E-15,0.0));
#280=CARTESIAN_POINT('',(8.64118221216157,1.27,0.0));
#281=CARTESIAN_POINT('',(9.5304457856879,2.54,0.0));
#282=CARTESIAN_POINT('',(10.4197093592142,3.81,0.0));
#283=CARTESIAN_POINT('',(11.3089729327406,5.08,0.0));
#284=CARTESIAN_POINT('',(12.1982365062669,6.35,0.0));
#285=CARTESIAN_POINT('',(10.6478527785398,6.35,0.0));
#286=CARTESIAN_POINT('',(9.09746905081279,6.34999999999999,0.0));
#287=CARTESIAN_POINT('',(7.54708532308574,6.34999999999999,0.0));
#288=CARTESIAN_POINT('',(5.9967015953587,6.34999999999999,0.0));
#289=CARTESIAN_POINT('',(4.44631786763165,6.34999999999999,0.0));
#290=CARTESIAN_POINT('',(3.55705429410532,5.07999999999999,0.0));
#291=CARTESIAN_POINT('',(2.66779072057899,3.80999999999999,0.0));
#292=CARTESIAN_POINT('',(1.77852714705266,2.54,0.0));
#293=CARTESIAN_POINT('',(0.889263573526329,1.27,0.0));
#294=CARTESIAN_POINT('',(-3.5527136788005E-15,1.33226762955019E-15,0.0));
#295=CARTESIAN_POINT('',(0.0,0.0,0.0));
#296=CARTESIAN_POINT('',(6.09911825313345,3.175,0.0));
#297=CARTESIAN_POINT('',(6.09911825313345,3.175,-2.38125000000001));
#298=CARTESIAN_POINT('',(4.85730308668394,2.52855194147095,-2.38125000000001));
#299=CARTESIAN_POINT('',(6.09911825313344,6.05761926434995,-2.38125));
#300=CARTESIAN_POINT('',(4.59852164482715,6.05761926434995,-2.38125));
#301=CARTESIAN_POINT('',(11.6365783388125,6.05761926434995,-2.38125));
#302=CARTESIAN_POINT('',(8.46042171643254,1.52159751499728,-2.38125));
#303=CARTESIAN_POINT('',(7.59971486143974,0.292380735650041,-2.38125));
#304=CARTESIAN_POINT('',(6.09911825313344,0.292380735650041,-2.38125));
#305=CARTESIAN_POINT('',(0.561658167454408,0.292380735650042,-2.38125));
#306=CARTESIAN_POINT('',(3.73781478983435,4.82840248500272,-2.38125));
#307=CARTESIAN_POINT('',(5.93964492065476,2.66921520759503,-2.38125));
#308=CARTESIAN_POINT('',(4.45294336166992,6.33727254437012,-0.103656807796377));
#309=CARTESIAN_POINT('',(4.44631786763165,6.34999999999999,-5.93795845826861E-15));
#310=CARTESIAN_POINT('',(6.09911825313345,6.34999999999999,-5.65390330310514E-15));
#311=CARTESIAN_POINT('',(12.1982365062669,6.35,-4.60569082871842E-15));
#312=CARTESIAN_POINT('',(11.8813310882045,6.18502948121538,-1.3435770553846));
#313=CARTESIAN_POINT('',(6.09911825313344,6.34999999999999,-5.65390330310514E-15));
#314=CARTESIAN_POINT('',(0.316905418062404,0.164970518784616,-1.34357705538459));
#315=CARTESIAN_POINT('',(-2.60208521396521E-15,2.60208521396521E-15,-1.26114396703514E-15));
#316=CARTESIAN_POINT('',(3.4983105125159,4.99610518541457,-4.94080650733019E-15));
#317=CARTESIAN_POINT('',(3.4983105125159,4.99610518541457,-4.94080650733019E-15));
#318=CARTESIAN_POINT('',(7.74529314459696,0.0127274556298755,-0.103656807796372));
#319=CARTESIAN_POINT('',(7.75191863863524,1.30104260698261E-15,7.11236625150586E-17));
#320=CARTESIAN_POINT('',(6.09911825313345,1.30104260698261E-15,-2.12931492648409E-16));
#321=CARTESIAN_POINT('',(6.09911825313344,1.30104260698261E-15,-2.12931492648411E-16));
#322=CARTESIAN_POINT('',(8.69992599375099,1.35389481458544,-9.26028288423371E-16));
#323=CARTESIAN_POINT('',(8.69992599375099,1.35389481458543,-9.26028288423368E-16));
#324=CARTESIAN_POINT('',(6.09911825313345,3.175,-6.93889390390723E-15));
#325=CARTESIAN_POINT('',(4.3937953699123,2.28726509644316,-6.93889390390723E-15));
#326=CARTESIAN_POINT('',(6.09911825313345,3.175,-2.93341739787678E-15));
#327=CARTESIAN_POINT('',(6.09911825313345,3.175,-0.544403327785287));
#328=CARTESIAN_POINT('',(7.77067406278529,4.04515687766309,-0.544403327785287));
#329=CARTESIAN_POINT('',(6.09911825313345,3.175,-0.680000000032654));
#330=CARTESIAN_POINT('',(6.09911825313345,3.175,-0.782283357604651));
#331=CARTESIAN_POINT('',(7.69995091967268,4.00834073964721,-0.782283357604651));
#332=CARTESIAN_POINT('',(6.09911825313345,3.175,-2.14607469113958));
#333=CARTESIAN_POINT('',(4.85730308668394,2.52855194147095,-2.14607469113958));
#334=CARTESIAN_POINT('',(6.09911825313345,3.175,-2.14607469113958));
#335=CARTESIAN_POINT('',(6.09911825313345,3.175,-33.3676978394524));
#336=CARTESIAN_POINT('',(6.09911825313345,3.175,-0.50952509089764));
#337=MECHANICAL_DESIGN_GEOMETRIC_PRESENTATION_REPRESENTATION('',(#189,#190,#191,
     #192),#338);
#338=(GEOMETRIC_REPRESENTATION_CONTEXT(3)GLOBAL_UNCERTAINTY_ASSIGNED_CONTEXT((#339))
     GLOBAL_UNIT_ASSIGNED_CONTEXT((#345,#341,#340))REPRESENTATION_CONTEXT('DCET070200',
     'TOP_LEVEL_ASSEMBLY_PART'));
#339=UNCERTAINTY_MEASURE_WITH_UNIT(LENGTH_MEASURE(2.0E-5),#345,'DISTANCE_ACCURACY_VALUE',
     'Maximum Tolerance applied to model');
#340=(NAMED_UNIT(*)SI_UNIT($,.STERADIAN.)SOLID_ANGLE_UNIT());
#341=(CONVERSION_BASED_UNIT('DEGREE',#343)NAMED_UNIT(#342)PLANE_ANGLE_UNIT());
#342=DIMENSIONAL_EXPONENTS(0.0,0.0,0.0,0.0,0.0,0.0,0.0);
#343=PLANE_ANGLE_MEASURE_WITH_UNIT(PLANE_ANGLE_MEASURE(0.0174532925),#344);
#344=(NAMED_UNIT(*)PLANE_ANGLE_UNIT()SI_UNIT($,.RADIAN.));
#345=(LENGTH_UNIT()NAMED_UNIT(*)SI_UNIT(.MILLI.,.METRE.));
#346=CONSTRUCTIVE_GEOMETRY_REPRESENTATION('supplemental geometry',(#206,#207),#338);
#347=CONSTRUCTIVE_GEOMETRY_REPRESENTATION_RELATIONSHIP('supplemental geometry','contains PCS and MCS coordinate systems',
     #24,#346);
ENDSEC;
END-ISO-10303-21;
