ISO-10303-21;
HEADER;
FILE_DESCRIPTION(
/* description */ (''),
/* implementation_level */ '2;1');
FILE_NAME(
/* name */ 'CCET060202.stp',
/* time_stamp */ '2017-03-21T10:53:48',
/* author */ ('Sandvik Coromant R&D'),
/* organization */ ('Sandvik Machining Solutions'),
/* preprocessor_version */ 'ST-DEVELOPER v15',
/* originating_system */ 'SIEMENS PLM Software NX v8.5.3.3(64 bits)',
/* authorization */ '');
FILE_SCHEMA(('AUTOMOTIVE_DESIGN'));
ENDSEC;
DATA;
#10=GEOMETRICALLY_BOUNDED_WIREFRAME_SHAPE_REPRESENTATION('IsoTurningInsert-None',
     (#25),#499);
#11=SHAPE_REPRESENTATION_RELATIONSHIP('None','relationship between IsoTurningInsert-None and IsoTurningInsert-None',
     #24,#13);
#12=SHAPE_REPRESENTATION_RELATIONSHIP('None','relationship between IsoTurningInsert-None and IsoTurningInsert-None',
     #24,#10);
#13=ADVANCED_BREP_SHAPE_REPRESENTATION('IsoTurningInsert-None',(#31),#499);
#14=SHAPE_DEFINITION_REPRESENTATION(#15,#24);
#15=PRODUCT_DEFINITION_SHAPE('','',#16);
#16=PRODUCT_DEFINITION(' ','',#18,#17);
#17=PRODUCT_DEFINITION_CONTEXT('part definition',#23,'design');
#18=PRODUCT_DEFINITION_FORMATION_WITH_SPECIFIED_SOURCE(' ',' ',#20,.NOT_KNOWN.);
#19=PRODUCT_RELATED_PRODUCT_CATEGORY('part','',(#20));
#20=PRODUCT('IsoTurningInsert','IsoTurningInsert',' ',(#21));
#21=PRODUCT_CONTEXT(' ',#23,'mechanical');
#22=APPLICATION_PROTOCOL_DEFINITION('international standard','automotive_design',
     2010,#23);
#23=APPLICATION_CONTEXT('core data for automotive mechanical design processes');
#24=SHAPE_REPRESENTATION('IsoTurningInsert-None',(#285),#499);
#25=GEOMETRIC_CURVE_SET('geometric curve set',(#265));
#26=SURFACE_STYLE_USAGE(.BOTH.,#27);
#27=SURFACE_SIDE_STYLE('',(#28));
#28=SURFACE_STYLE_FILL_AREA(#29);
#29=FILL_AREA_STYLE('',(#30));
#30=FILL_AREA_STYLE_COLOUR('',#284);
#31=MANIFOLD_SOLID_BREP('CUT',#32);
#32=CLOSED_SHELL('',(#49,#50,#51,#52,#53,#54,#55,#56,#57,#58,#59,#60,#61,#62));
#33=CYLINDRICAL_SURFACE('',#309,1.4);
#34=TOROIDAL_SURFACE('',#308,3.89999999999999,2.5);
#35=TOROIDAL_SURFACE('',#310,1.38569981785225,0.5);
#36=CONICAL_SURFACE('',#300,0.198437500000002,7.0);
#37=CONICAL_SURFACE('',#301,0.198437500000002,7.0);
#38=CONICAL_SURFACE('',#302,0.198437500000002,7.0);
#39=CONICAL_SURFACE('',#303,0.198437500000002,7.0);
#40=CONICAL_SURFACE('',#305,1.87499999997636,4.00000000179028);
#41=FACE_OUTER_BOUND('',#123,.T.);
#42=FACE_OUTER_BOUND('',#124,.T.);
#43=FACE_OUTER_BOUND('',#125,.T.);
#44=FACE_OUTER_BOUND('',#126,.T.);
#45=FACE_OUTER_BOUND('',#129,.T.);
#46=FACE_OUTER_BOUND('',#130,.T.);
#47=FACE_OUTER_BOUND('',#131,.T.);
#48=FACE_OUTER_BOUND('',#132,.T.);
#49=ADVANCED_FACE('',(#109,#110),#63,.F.);
#50=ADVANCED_FACE('',(#41),#64,.F.);
#51=ADVANCED_FACE('',(#42),#65,.F.);
#52=ADVANCED_FACE('',(#43),#66,.F.);
#53=ADVANCED_FACE('',(#44),#67,.F.);
#54=ADVANCED_FACE('',(#111,#112),#68,.T.);
#55=ADVANCED_FACE('',(#45),#36,.T.);
#56=ADVANCED_FACE('',(#46),#37,.T.);
#57=ADVANCED_FACE('',(#47),#38,.T.);
#58=ADVANCED_FACE('',(#48),#39,.T.);
#59=ADVANCED_FACE('',(#113,#114),#40,.F.);
#60=ADVANCED_FACE('',(#115,#116),#34,.T.);
#61=ADVANCED_FACE('',(#117,#118),#33,.F.);
#62=ADVANCED_FACE('',(#119,#120),#35,.F.);
#63=PLANE('',#289);
#64=PLANE('',#290);
#65=PLANE('',#291);
#66=PLANE('',#292);
#67=PLANE('',#293);
#68=PLANE('',#299);
#69=LINE('',#436,#89);
#70=LINE('',#439,#90);
#71=LINE('',#441,#91);
#72=LINE('',#443,#92);
#73=LINE('',#445,#93);
#74=LINE('',#448,#94);
#75=LINE('',#450,#95);
#76=LINE('',#451,#96);
#77=LINE('',#453,#97);
#78=LINE('',#455,#98);
#79=LINE('',#457,#99);
#80=LINE('',#459,#100);
#81=LINE('',#461,#101);
#82=LINE('',#463,#102);
#83=LINE('',#465,#103);
#84=LINE('',#467,#104);
#85=LINE('',#469,#105);
#86=LINE('',#471,#106);
#87=LINE('',#473,#107);
#88=LINE('',#475,#108);
#89=VECTOR('',#319,1.0);
#90=VECTOR('',#320,1.0);
#91=VECTOR('',#321,1.0);
#92=VECTOR('',#322,1.0);
#93=VECTOR('',#325,1.0);
#94=VECTOR('',#326,1.0);
#95=VECTOR('',#327,1.0);
#96=VECTOR('',#328,1.0);
#97=VECTOR('',#329,1.0);
#98=VECTOR('',#332,1.0);
#99=VECTOR('',#333,1.0);
#100=VECTOR('',#334,1.0);
#101=VECTOR('',#335,1.0);
#102=VECTOR('',#338,1.0);
#103=VECTOR('',#339,1.0);
#104=VECTOR('',#340,1.0);
#105=VECTOR('',#341,1.0);
#106=VECTOR('',#344,1.0);
#107=VECTOR('',#345,1.0);
#108=VECTOR('',#346,1.0);
#109=FACE_BOUND('',#121,.T.);
#110=FACE_BOUND('',#122,.T.);
#111=FACE_BOUND('',#127,.T.);
#112=FACE_BOUND('',#128,.T.);
#113=FACE_BOUND('',#133,.T.);
#114=FACE_BOUND('',#134,.T.);
#115=FACE_BOUND('',#135,.T.);
#116=FACE_BOUND('',#136,.T.);
#117=FACE_BOUND('',#137,.T.);
#118=FACE_BOUND('',#138,.T.);
#119=FACE_BOUND('',#139,.T.);
#120=FACE_BOUND('',#140,.T.);
#121=EDGE_LOOP('',(#141));
#122=EDGE_LOOP('',(#142,#143,#144,#145));
#123=EDGE_LOOP('',(#146,#147,#148,#149,#150,#151));
#124=EDGE_LOOP('',(#152,#153,#154,#155,#156,#157));
#125=EDGE_LOOP('',(#158,#159,#160,#161,#162,#163));
#126=EDGE_LOOP('',(#164,#165,#166,#167,#168,#169));
#127=EDGE_LOOP('',(#170));
#128=EDGE_LOOP('',(#171,#172,#173,#174,#175,#176,#177,#178));
#129=EDGE_LOOP('',(#179,#180,#181));
#130=EDGE_LOOP('',(#182,#183,#184));
#131=EDGE_LOOP('',(#185,#186,#187));
#132=EDGE_LOOP('',(#188,#189,#190));
#133=EDGE_LOOP('',(#191));
#134=EDGE_LOOP('',(#192));
#135=EDGE_LOOP('',(#193));
#136=EDGE_LOOP('',(#194));
#137=EDGE_LOOP('',(#195));
#138=EDGE_LOOP('',(#196));
#139=EDGE_LOOP('',(#197));
#140=EDGE_LOOP('',(#198));
#141=ORIENTED_EDGE('',*,*,#220,.T.);
#142=ORIENTED_EDGE('',*,*,#221,.T.);
#143=ORIENTED_EDGE('',*,*,#222,.T.);
#144=ORIENTED_EDGE('',*,*,#223,.T.);
#145=ORIENTED_EDGE('',*,*,#224,.T.);
#146=ORIENTED_EDGE('',*,*,#225,.F.);
#147=ORIENTED_EDGE('',*,*,#226,.T.);
#148=ORIENTED_EDGE('',*,*,#227,.F.);
#149=ORIENTED_EDGE('',*,*,#221,.F.);
#150=ORIENTED_EDGE('',*,*,#228,.T.);
#151=ORIENTED_EDGE('',*,*,#229,.T.);
#152=ORIENTED_EDGE('',*,*,#224,.F.);
#153=ORIENTED_EDGE('',*,*,#230,.T.);
#154=ORIENTED_EDGE('',*,*,#231,.T.);
#155=ORIENTED_EDGE('',*,*,#232,.F.);
#156=ORIENTED_EDGE('',*,*,#233,.T.);
#157=ORIENTED_EDGE('',*,*,#228,.F.);
#158=ORIENTED_EDGE('',*,*,#223,.F.);
#159=ORIENTED_EDGE('',*,*,#234,.T.);
#160=ORIENTED_EDGE('',*,*,#235,.T.);
#161=ORIENTED_EDGE('',*,*,#236,.F.);
#162=ORIENTED_EDGE('',*,*,#237,.T.);
#163=ORIENTED_EDGE('',*,*,#230,.F.);
#164=ORIENTED_EDGE('',*,*,#222,.F.);
#165=ORIENTED_EDGE('',*,*,#227,.T.);
#166=ORIENTED_EDGE('',*,*,#238,.T.);
#167=ORIENTED_EDGE('',*,*,#239,.F.);
#168=ORIENTED_EDGE('',*,*,#240,.T.);
#169=ORIENTED_EDGE('',*,*,#234,.F.);
#170=ORIENTED_EDGE('',*,*,#241,.F.);
#171=ORIENTED_EDGE('',*,*,#239,.T.);
#172=ORIENTED_EDGE('',*,*,#242,.T.);
#173=ORIENTED_EDGE('',*,*,#225,.T.);
#174=ORIENTED_EDGE('',*,*,#243,.T.);
#175=ORIENTED_EDGE('',*,*,#232,.T.);
#176=ORIENTED_EDGE('',*,*,#244,.T.);
#177=ORIENTED_EDGE('',*,*,#236,.T.);
#178=ORIENTED_EDGE('',*,*,#245,.T.);
#179=ORIENTED_EDGE('',*,*,#238,.F.);
#180=ORIENTED_EDGE('',*,*,#226,.F.);
#181=ORIENTED_EDGE('',*,*,#242,.F.);
#182=ORIENTED_EDGE('',*,*,#235,.F.);
#183=ORIENTED_EDGE('',*,*,#240,.F.);
#184=ORIENTED_EDGE('',*,*,#245,.F.);
#185=ORIENTED_EDGE('',*,*,#231,.F.);
#186=ORIENTED_EDGE('',*,*,#237,.F.);
#187=ORIENTED_EDGE('',*,*,#244,.F.);
#188=ORIENTED_EDGE('',*,*,#229,.F.);
#189=ORIENTED_EDGE('',*,*,#233,.F.);
#190=ORIENTED_EDGE('',*,*,#243,.F.);
#191=ORIENTED_EDGE('',*,*,#246,.T.);
#192=ORIENTED_EDGE('',*,*,#241,.T.);
#193=ORIENTED_EDGE('',*,*,#247,.T.);
#194=ORIENTED_EDGE('',*,*,#248,.T.);
#195=ORIENTED_EDGE('',*,*,#248,.F.);
#196=ORIENTED_EDGE('',*,*,#220,.F.);
#197=ORIENTED_EDGE('',*,*,#247,.F.);
#198=ORIENTED_EDGE('',*,*,#246,.F.);
#199=VERTEX_POINT('',#435);
#200=VERTEX_POINT('',#437);
#201=VERTEX_POINT('',#438);
#202=VERTEX_POINT('',#440);
#203=VERTEX_POINT('',#442);
#204=VERTEX_POINT('',#446);
#205=VERTEX_POINT('',#447);
#206=VERTEX_POINT('',#449);
#207=VERTEX_POINT('',#452);
#208=VERTEX_POINT('',#456);
#209=VERTEX_POINT('',#458);
#210=VERTEX_POINT('',#460);
#211=VERTEX_POINT('',#464);
#212=VERTEX_POINT('',#466);
#213=VERTEX_POINT('',#468);
#214=VERTEX_POINT('',#472);
#215=VERTEX_POINT('',#474);
#216=VERTEX_POINT('',#478);
#217=VERTEX_POINT('',#489);
#218=VERTEX_POINT('',#492);
#219=VERTEX_POINT('',#494);
#220=EDGE_CURVE('',#199,#199,#249,.T.);
#221=EDGE_CURVE('',#200,#201,#69,.T.);
#222=EDGE_CURVE('',#201,#202,#70,.T.);
#223=EDGE_CURVE('',#202,#203,#71,.T.);
#224=EDGE_CURVE('',#203,#200,#72,.T.);
#225=EDGE_CURVE('',#204,#205,#73,.T.);
#226=EDGE_CURVE('',#204,#206,#74,.T.);
#227=EDGE_CURVE('INSERT_CORNER_EDGE3',#201,#206,#75,.T.);
#228=EDGE_CURVE('INSERT_CORNER_EDGE4',#200,#207,#76,.T.);
#229=EDGE_CURVE('',#207,#205,#77,.T.);
#230=EDGE_CURVE('INSERT_CORNER_EDGE1',#203,#208,#78,.T.);
#231=EDGE_CURVE('',#208,#209,#79,.T.);
#232=EDGE_CURVE('',#210,#209,#80,.T.);
#233=EDGE_CURVE('',#210,#207,#81,.T.);
#234=EDGE_CURVE('INSERT_CORNER_EDGE2',#202,#211,#82,.T.);
#235=EDGE_CURVE('',#211,#212,#83,.T.);
#236=EDGE_CURVE('',#213,#212,#84,.T.);
#237=EDGE_CURVE('',#213,#208,#85,.T.);
#238=EDGE_CURVE('',#206,#214,#86,.T.);
#239=EDGE_CURVE('',#215,#214,#87,.T.);
#240=EDGE_CURVE('',#215,#211,#88,.T.);
#241=EDGE_CURVE('',#216,#216,#250,.T.);
#242=EDGE_CURVE('',#214,#204,#251,.T.);
#243=EDGE_CURVE('',#205,#210,#252,.T.);
#244=EDGE_CURVE('',#209,#213,#253,.T.);
#245=EDGE_CURVE('',#212,#215,#254,.T.);
#246=EDGE_CURVE('',#217,#217,#255,.T.);
#247=EDGE_CURVE('',#218,#218,#256,.T.);
#248=EDGE_CURVE('',#219,#219,#257,.T.);
#249=CIRCLE('',#288,1.4);
#250=CIRCLE('',#294,1.92255023212159);
#251=CIRCLE('',#295,0.198437500000002);
#252=CIRCLE('',#296,0.198437500000002);
#253=CIRCLE('',#297,0.198437500000002);
#254=CIRCLE('',#298,0.198437500000002);
#255=CIRCLE('',#304,1.88448184298103);
#256=CIRCLE('',#306,1.80474984821024);
#257=CIRCLE('',#307,1.4);
#258=CURVE_STYLE('',#262,POSITIVE_LENGTH_MEASURE(0.18),#261);
#259=CURVE_STYLE('',#263,POSITIVE_LENGTH_MEASURE(0.18),#283);
#260=CURVE_STYLE('',#264,POSITIVE_LENGTH_MEASURE(0.18),#283);
#261=DRAUGHTING_PRE_DEFINED_COLOUR('blue');
#262=DRAUGHTING_PRE_DEFINED_CURVE_FONT('continuous');
#263=DRAUGHTING_PRE_DEFINED_CURVE_FONT('continuous');
#264=DRAUGHTING_PRE_DEFINED_CURVE_FONT('continuous');
#265=B_SPLINE_CURVE_WITH_KNOTS('CUTTING EDGE LINE',5,(#386,#387,#388,#389,#390,#391,
     #392,#393,#394,#395,#396,#397,#398,#399,#400,#401,#402,#403,#404,#405,#406,
     #407,#408,#409,#410,#411,#412,#413,#414,#415,#416,#417,#418,#419,#420,#421,
     #422,#423,#424,#425,#426,#427,#428,#429,#430,#431),.UNSPECIFIED.,.T.,.F.,(2,
     4,1,1,1,4,4,1,1,1,4,4,1,1,1,4,4,1,1,1,4,4,1,1),(-0.2377410236,0.0,0.00272421697500003,
     0.00544843395000005,0.00817265092499997,0.0108968679,0.2486378915,0.252043162725,
     0.25544843395,0.258853705175,0.2622589764,0.5,0.502724216975,0.50544843395,
     0.508172650925,0.5108968679,0.7486378915,0.752043162725,0.75544843395,0.758853705175,
     0.7622589764,1.0,1.002724216975,1.00544843395),.UNSPECIFIED.);
#266=PRESENTATION_LAYER_ASSIGNMENT('1','Layer 1',(#265,#286,#287,#31));
#269=STYLED_ITEM('',(#275),#265);
#270=STYLED_ITEM('',(#276),#286);
#271=STYLED_ITEM('',(#277),#287);
#272=STYLED_ITEM('',(#278),#31);
#273=PRESENTATION_STYLE_ASSIGNMENT((#279));
#274=PRESENTATION_STYLE_ASSIGNMENT((#280));
#275=PRESENTATION_STYLE_ASSIGNMENT((#258));
#276=PRESENTATION_STYLE_ASSIGNMENT((#259));
#277=PRESENTATION_STYLE_ASSIGNMENT((#260));
#278=PRESENTATION_STYLE_ASSIGNMENT((#26));
#279=POINT_STYLE('',#281,POSITIVE_LENGTH_MEASURE(3.0),#283);
#280=POINT_STYLE('',#282,POSITIVE_LENGTH_MEASURE(3.0),#283);
#281=PRE_DEFINED_POINT_MARKER_SYMBOL('plus');
#282=PRE_DEFINED_POINT_MARKER_SYMBOL('plus');
#283=COLOUR_RGB('Medium Maroon',0.6,0.4,0.4);
#284=COLOUR_RGB('IsoInsertColor',0.8,0.8,0.8);
#285=AXIS2_PLACEMENT_3D('',#383,#311,#312);
#286=AXIS2_PLACEMENT_3D('PCS',#432,#313,#314);
#287=AXIS2_PLACEMENT_3D('MCS',#433,#315,#316);
#288=AXIS2_PLACEMENT_3D('',#434,#317,#318);
#289=AXIS2_PLACEMENT_3D('',#444,#323,#324);
#290=AXIS2_PLACEMENT_3D('',#454,#330,#331);
#291=AXIS2_PLACEMENT_3D('',#462,#336,#337);
#292=AXIS2_PLACEMENT_3D('',#470,#342,#343);
#293=AXIS2_PLACEMENT_3D('',#476,#347,#348);
#294=AXIS2_PLACEMENT_3D('',#477,#349,#350);
#295=AXIS2_PLACEMENT_3D('',#479,#351,#352);
#296=AXIS2_PLACEMENT_3D('',#480,#353,#354);
#297=AXIS2_PLACEMENT_3D('',#481,#355,#356);
#298=AXIS2_PLACEMENT_3D('',#482,#357,#358);
#299=AXIS2_PLACEMENT_3D('',#483,#359,#360);
#300=AXIS2_PLACEMENT_3D('',#484,#361,#362);
#301=AXIS2_PLACEMENT_3D('',#485,#363,#364);
#302=AXIS2_PLACEMENT_3D('',#486,#365,#366);
#303=AXIS2_PLACEMENT_3D('',#487,#367,#368);
#304=AXIS2_PLACEMENT_3D('',#488,#369,#370);
#305=AXIS2_PLACEMENT_3D('',#490,#371,#372);
#306=AXIS2_PLACEMENT_3D('',#491,#373,#374);
#307=AXIS2_PLACEMENT_3D('',#493,#375,#376);
#308=AXIS2_PLACEMENT_3D('',#495,#377,#378);
#309=AXIS2_PLACEMENT_3D('',#496,#379,#380);
#310=AXIS2_PLACEMENT_3D('',#497,#381,#382);
#311=DIRECTION('',(0.0,0.0,1.0));
#312=DIRECTION('',(1.0,0.0,0.0));
#313=DIRECTION('',(0.0,0.0,1.0));
#314=DIRECTION('',(1.0,0.0,0.0));
#315=DIRECTION('',(0.0,0.0,1.0));
#316=DIRECTION('',(1.0,0.0,0.0));
#317=DIRECTION('',(0.0,0.0,1.0));
#318=DIRECTION('',(-0.766044443118978,-0.642787609686539,0.0));
#319=DIRECTION('',(1.0,-5.55111512312578E-16,0.0));
#320=DIRECTION('',(-0.173648177666929,-0.984807753012208,0.0));
#321=DIRECTION('',(-1.0,1.11022302462516E-15,0.0));
#322=DIRECTION('',(0.17364817766693,0.984807753012208,0.0));
#323=DIRECTION('',(0.0,0.0,1.0));
#324=DIRECTION('',(-0.766044443118978,-0.64278760968654,0.0));
#325=DIRECTION('',(-1.0,4.44089209850063E-16,-2.10365688519713E-16));
#326=DIRECTION('',(1.52655665885959E-16,-0.121869343405148,-0.992546151641322));
#327=DIRECTION('',(0.143730206185748,0.120603962999497,0.982240455254526));
#328=DIRECTION('',(-0.101729998253829,0.121237090893603,0.987396868157344));
#329=DIRECTION('',(-1.52655665885959E-16,0.121869343405148,0.992546151641322));
#330=DIRECTION('',(-5.55111512312578E-16,-0.992546151641322,0.121869343405148));
#331=DIRECTION('',(1.0,-5.55111512312578E-16,0.0));
#332=DIRECTION('',(-0.143730206185749,-0.120603962999495,0.982240455254526));
#333=DIRECTION('',(-0.120017874239897,0.0211623893957698,0.992546151641322));
#334=DIRECTION('',(-0.17364817766693,-0.984807753012208,7.21360439164787E-16));
#335=DIRECTION('',(0.120017874239897,-0.0211623893957698,-0.992546151641322));
#336=DIRECTION('',(0.977467145358805,-0.172353830482839,0.121869343405148));
#337=DIRECTION('',(0.17364817766693,0.984807753012208,0.0));
#338=DIRECTION('',(0.101729998253828,-0.121237090893602,0.987396868157345));
#339=DIRECTION('',(-3.40005801291454E-16,-0.121869343405147,0.992546151641322));
#340=DIRECTION('',(1.0,-1.22124532708767E-15,2.10365688519714E-16));
#341=DIRECTION('',(3.40005801291454E-16,0.121869343405147,-0.992546151641322));
#342=DIRECTION('',(1.0547118733939E-15,0.992546151641323,0.121869343405147));
#343=DIRECTION('',(-1.0,1.11022302462516E-15,0.0));
#344=DIRECTION('',(0.120017874239896,-0.0211623893957682,0.992546151641322));
#345=DIRECTION('',(0.173648177666929,0.984807753012208,-7.21360439164788E-16));
#346=DIRECTION('',(-0.120017874239896,0.0211623893957682,-0.992546151641322));
#347=DIRECTION('',(-0.977467145358805,0.172353830482839,0.121869343405147));
#348=DIRECTION('',(-0.173648177666929,-0.984807753012208,0.0));
#349=DIRECTION('',(0.0,0.0,1.0));
#350=DIRECTION('',(-0.766044443118978,-0.64278760968654,0.0));
#351=DIRECTION('',(-2.06618502467437E-16,7.72938635790475E-16,1.0));
#352=DIRECTION('',(-0.642787609686538,0.766044443118976,-7.24917160137313E-16));
#353=DIRECTION('',(-2.06618502467437E-16,7.72938635790475E-16,1.0));
#354=DIRECTION('',(-0.64278760968654,0.766044443118976,-7.24917160137313E-16));
#355=DIRECTION('',(-2.06618502467437E-16,7.72938635790475E-16,1.0));
#356=DIRECTION('',(-0.64278760968654,0.766044443118978,-7.24917160137313E-16));
#357=DIRECTION('',(-2.06618502467437E-16,7.72938635790475E-16,1.0));
#358=DIRECTION('',(-0.642787609686538,0.766044443118978,-7.24917160137313E-16));
#359=DIRECTION('',(-2.06618502467437E-16,7.72938635790475E-16,1.0));
#360=DIRECTION('',(-0.64278760968654,0.766044443118978,-7.24917160137313E-16));
#361=DIRECTION('',(-2.06618502467437E-16,7.72938635790475E-16,1.0));
#362=DIRECTION('',(-0.64278760968654,0.766044443118978,-8.63955296938589E-16));
#363=DIRECTION('',(-2.06618502467437E-16,7.72938635790475E-16,1.0));
#364=DIRECTION('',(-0.64278760968654,0.766044443118978,-8.99218778446287E-16));
#365=DIRECTION('',(-2.06618502467437E-16,7.72938635790475E-16,1.0));
#366=DIRECTION('',(-0.642787609686539,0.766044443118978,-8.92166082144748E-16));
#367=DIRECTION('',(-2.06618502467437E-16,7.72938635790475E-16,1.0));
#368=DIRECTION('',(-0.64278760968654,0.766044443118978,-8.5690260063705E-16));
#369=DIRECTION('',(0.0,0.0,-1.0));
#370=DIRECTION('',(0.766044443118978,0.64278760968654,0.0));
#371=DIRECTION('',(0.0,0.0,1.0));
#372=DIRECTION('',(-0.766044443118978,-0.64278760968654,-9.66395375416744E-17));
#373=DIRECTION('',(0.0,0.0,1.0));
#374=DIRECTION('',(0.766044443118978,0.64278760968654,0.0));
#375=DIRECTION('',(0.0,0.0,-1.0));
#376=DIRECTION('',(-0.766044443118978,-0.64278760968654,0.0));
#377=DIRECTION('',(0.0,0.0,1.0));
#378=DIRECTION('',(-0.766044443118978,-0.64278760968654,0.0));
#379=DIRECTION('',(0.0,0.0,1.0));
#380=DIRECTION('',(-0.766044443118978,-0.642787609686539,0.0));
#381=DIRECTION('',(0.0,0.0,-1.0));
#382=DIRECTION('',(0.766044443118978,0.64278760968654,0.0));
#383=CARTESIAN_POINT('',(0.0,0.0,0.0));
#386=CARTESIAN_POINT('',(5.07245784263627,9.76996261670138E-15,0.0));
#387=CARTESIAN_POINT('',(6.29420546904244,8.88178419700125E-15,1.56015494960204E-16));
#388=CARTESIAN_POINT('',(6.31971610230188,0.0020497398718109,1.59283314890864E-16));
#389=CARTESIAN_POINT('',(6.36204459141161,0.0118628704198929,1.58439087622786E-16));
#390=CARTESIAN_POINT('',(6.41303734441999,0.0416179911857166,1.39896352446119E-16));
#391=CARTESIAN_POINT('',(6.45119521667645,0.0866691271988964,1.0375335940018E-16));
#392=CARTESIAN_POINT('',(6.46820952871873,0.126650519210445,6.81962234011002E-17));
#393=CARTESIAN_POINT('',(6.47465800341277,0.151417655035158,4.53244232786345E-17));
#394=CARTESIAN_POINT('',(6.6868122523071,1.35460418974423,2.01036369678673E-17));
#395=CARTESIAN_POINT('',(6.89675156371312,2.54522918974422,1.34024246452449E-17));
#396=CARTESIAN_POINT('',(7.10669087511913,3.73585418974422,1.34024246452451E-17));
#397=CARTESIAN_POINT('',(7.31663018652514,4.92647918974422,2.01036369678677E-17));
#398=CARTESIAN_POINT('',(7.52920915764023,6.13207444386224,2.46341044792261E-17));
#399=CARTESIAN_POINT('',(7.53162150706357,6.16252047626127,6.938435405249E-18));
#400=CARTESIAN_POINT('',(7.5267036208654,6.21750168413813,-2.39261484386659E-17));
#401=CARTESIAN_POINT('',(7.49115639903003,6.28582657151734,-5.88177778098928E-17));
#402=CARTESIAN_POINT('',(7.4300422305079,6.33269824336172,-7.84320999667053E-17));
#403=CARTESIAN_POINT('',(7.37675029269722,6.3470888023718,-8.03911888855958E-17));
#404=CARTESIAN_POINT('',(7.34634790386093,6.35,-7.84786957608689E-17));
#405=CARTESIAN_POINT('',(6.12215439966633,6.35,-4.60140031619023E-17));
#406=CARTESIAN_POINT('',(4.91316208988987,6.35,-3.06760021079348E-17));
#407=CARTESIAN_POINT('',(3.70416978011341,6.35,-3.06760021079347E-17));
#408=CARTESIAN_POINT('',(2.49517747033695,6.35,-4.60140031619021E-17));
#409=CARTESIAN_POINT('',(1.27342984393078,6.35,-8.52002849283395E-17));
#410=CARTESIAN_POINT('',(1.24791921067134,6.3479502601282,-1.0005123183919E-16));
#411=CARTESIAN_POINT('',(1.20559072156163,6.33813712958014,-1.17905555093615E-16));
#412=CARTESIAN_POINT('',(1.15459796855314,6.30838200881422,-1.20432395047929E-16));
#413=CARTESIAN_POINT('',(1.11644009629679,6.26333087280113,-9.82053164050343E-17));
#414=CARTESIAN_POINT('',(1.09942578425448,6.22334948078956,-6.72375983352279E-17));
#415=CARTESIAN_POINT('',(1.09297730956044,6.19858234496485,-4.53244232786351E-17));
#416=CARTESIAN_POINT('',(0.880823060666114,4.99539581025578,-2.01036369678677E-17));
#417=CARTESIAN_POINT('',(0.6708837492601,3.80477081025579,-1.3402424645245E-17));
#418=CARTESIAN_POINT('',(0.460944437854085,2.61414581025579,-1.34024246452449E-17));
#419=CARTESIAN_POINT('',(0.251005126448071,1.42352081025579,-2.01036369678672E-17));
#420=CARTESIAN_POINT('',(0.0384261553329859,0.217925556137765,-2.46341044792253E-17));
#421=CARTESIAN_POINT('',(0.0360138059096413,0.187479523738733,-6.9384354052482E-18));
#422=CARTESIAN_POINT('',(0.0409316921078187,0.132498315861881,2.39261484386664E-17));
#423=CARTESIAN_POINT('',(0.0764789139431814,0.0641734284826727,5.88177778098928E-17));
#424=CARTESIAN_POINT('',(0.137593082465314,0.0173017566382927,7.84320999667053E-17));
#425=CARTESIAN_POINT('',(0.190885020275995,0.0029111976282139,8.03911888855956E-17));
#426=CARTESIAN_POINT('',(0.221287409112278,1.55431223447522E-14,7.84786957608688E-17));
#427=CARTESIAN_POINT('',(1.44548091330688,1.37667655053519E-14,4.60140031619022E-17));
#428=CARTESIAN_POINT('',(2.65447322308334,1.19904086659517E-14,2.30070015809511E-17));
#429=CARTESIAN_POINT('',(3.8634655328598,1.11022302462516E-14,7.6690005269837E-18));
#430=CARTESIAN_POINT('',(5.07245784263627,9.76996261670138E-15,0.0));
#431=CARTESIAN_POINT('',(6.29420546904244,8.88178419700125E-15,1.56015494960204E-16));
#432=CARTESIAN_POINT('',(0.0,0.0,0.0));
#433=CARTESIAN_POINT('',(3.78381765648661,3.175,0.0));
#434=CARTESIAN_POINT('',(3.78381765648661,3.175,-2.38125));
#435=CARTESIAN_POINT('',(2.71135543612005,2.27509734643884,-2.38125));
#436=CARTESIAN_POINT('',(3.78381765648661,6.05761926434996,-2.38125));
#437=CARTESIAN_POINT('',(1.36501289494604,6.05761926434996,-2.38125));
#438=CARTESIAN_POINT('',(7.21918952085694,6.05761926434995,-2.38125));
#439=CARTESIAN_POINT('',(6.62264345700079,2.67443841783805,-2.38125));
#440=CARTESIAN_POINT('',(6.20262241802718,0.292380735650048,-2.38125));
#441=CARTESIAN_POINT('',(3.7838176564866,0.292380735650051,-2.38125));
#442=CARTESIAN_POINT('',(0.348445792116278,0.292380735650054,-2.38125));
#443=CARTESIAN_POINT('',(0.944991855972427,3.67556158216196,-2.38125));
#444=CARTESIAN_POINT('',(3.73759634394945,2.64668798019793,-2.38125));
#445=CARTESIAN_POINT('',(3.78381765648661,6.35,-5.38749756651153E-15));
#446=CARTESIAN_POINT('',(7.33114670944279,6.35,-4.65455374983049E-15));
#447=CARTESIAN_POINT('',(1.28618516056049,6.35,-5.90355465253379E-15));
#448=CARTESIAN_POINT('',(7.33114670944279,6.35,-4.73574449720987E-15));
#449=CARTESIAN_POINT('',(7.33114670944279,6.15156249999999,-1.61614374430124));
#450=CARTESIAN_POINT('',(7.48946779960134,6.28440966835962,-0.534190383204983));
#451=CARTESIAN_POINT('',(1.14724750625053,6.3171419486705,-0.267607352975613));
#452=CARTESIAN_POINT('',(1.28618516056049,6.15156249999999,-1.61614374430125));
#453=CARTESIAN_POINT('',(1.28618516056049,6.35,-5.99842757021272E-15));
#454=CARTESIAN_POINT('',(3.78381765648661,6.35,-5.38749756651153E-15));
#455=CARTESIAN_POINT('',(0.0781675133718685,0.0655903316403939,-0.534190383204979));
#456=CARTESIAN_POINT('',(0.236488603530418,0.198437500000015,-1.61614374430122));
#457=CARTESIAN_POINT('',(0.0410658150420567,0.232895810255798,-1.90581248882021E-15));
#458=CARTESIAN_POINT('',(0.0410658150420563,0.232895810255798,-1.43267317968897E-15));
#459=CARTESIAN_POINT('',(0.657053040672852,3.7263329640925,-4.00561136949636E-15));
#460=CARTESIAN_POINT('',(1.09076237207213,6.18602081025578,-5.81718676522034E-15));
#461=CARTESIAN_POINT('',(1.09076237207213,6.18602081025578,-6.06355793539511E-15));
#462=CARTESIAN_POINT('',(0.657053040672853,3.7263329640925,-4.00561136949636E-15));
#463=CARTESIAN_POINT('',(6.42038780672268,0.0328580513295068,-0.267607352975608));
#464=CARTESIAN_POINT('',(6.28145015241273,0.19843750000001,-1.61614374430123));
#465=CARTESIAN_POINT('',(6.28145015241273,8.67361737988404E-15,1.16035949885214E-16));
#466=CARTESIAN_POINT('',(6.28145015241273,8.67361737988404E-15,3.67198567802338E-17));
#467=CARTESIAN_POINT('',(3.78381765648661,1.0842021724855E-14,-4.79337229242028E-16));
#468=CARTESIAN_POINT('',(0.23648860353042,1.51788304147971E-14,-1.21228104592307E-15));
#469=CARTESIAN_POINT('',(0.23648860353042,1.51788304147971E-14,-1.24991268485146E-15));
#470=CARTESIAN_POINT('',(3.7838176564866,1.17093834628434E-14,-4.79337229242029E-16));
#471=CARTESIAN_POINT('',(7.52656949793116,6.11710418974421,-4.31675604018137E-15));
#472=CARTESIAN_POINT('',(7.52656949793116,6.11710418974421,-4.43416161606459E-15));
#473=CARTESIAN_POINT('',(6.91058227230036,2.6236670359075,-1.8612234262572E-15));
#474=CARTESIAN_POINT('',(6.47687294090109,0.16397918974423,-4.96480305332155E-17));
#475=CARTESIAN_POINT('',(6.47687294090109,0.16397918974423,4.92591329237067E-17));
#476=CARTESIAN_POINT('',(6.91058227230036,2.62366703590751,-1.8612234262572E-15));
#477=CARTESIAN_POINT('',(3.78381765648661,3.175,0.0));
#478=CARTESIAN_POINT('',(2.31105873455277,1.93920853179226,0.0));
#479=CARTESIAN_POINT('',(7.33114670944279,6.15156249999999,-4.50117373929082E-15));
#480=CARTESIAN_POINT('',(1.28618516056049,6.1515625,-5.75017464199412E-15));
#481=CARTESIAN_POINT('',(0.23648860353042,0.198437500000017,-1.36566105646274E-15));
#482=CARTESIAN_POINT('',(6.28145015241273,0.198437500000011,-1.1666015375944E-16));
#483=CARTESIAN_POINT('',(3.78381765648661,3.175,-2.93341739787678E-15));
#484=CARTESIAN_POINT('',(7.33114670944279,6.15156249999999,-4.77048955893622E-15));
#485=CARTESIAN_POINT('',(6.28145015241273,0.198437500000011,-4.33680868994202E-16));
#486=CARTESIAN_POINT('',(0.23648860353042,0.198437500000017,-1.30104260698261E-15));
#487=CARTESIAN_POINT('',(1.28618516056049,6.1515625,-5.63785129692462E-15));
#488=CARTESIAN_POINT('',(3.78381765648661,3.175,-0.54440332778528));
#489=CARTESIAN_POINT('',(5.22741450046084,4.38632157934746,-0.54440332778528));
#490=CARTESIAN_POINT('',(3.78381765648661,3.175,-0.680000000032648));
#491=CARTESIAN_POINT('',(3.78381765648661,3.175,-0.782283357604645));
#492=CARTESIAN_POINT('',(5.16633624892789,4.3350708410132,-0.782283357604645));
#493=CARTESIAN_POINT('',(3.78381765648661,3.175,-2.14607469113958));
#494=CARTESIAN_POINT('',(2.71135543612004,2.27509734643884,-2.14607469113958));
#495=CARTESIAN_POINT('',(3.78381765648661,3.175,-2.14607469113958));
#496=CARTESIAN_POINT('',(3.78381765648661,3.175,-35.271601813285));
#497=CARTESIAN_POINT('',(3.78381765648661,3.175,-0.509525090897633));
#498=MECHANICAL_DESIGN_GEOMETRIC_PRESENTATION_REPRESENTATION('',(#269,#270,#271,
     #272),#499);
#499=(GEOMETRIC_REPRESENTATION_CONTEXT(3)GLOBAL_UNCERTAINTY_ASSIGNED_CONTEXT((#500))
     GLOBAL_UNIT_ASSIGNED_CONTEXT((#506,#502,#501))REPRESENTATION_CONTEXT('CCET060202',
     'TOP_LEVEL_ASSEMBLY_PART'));
#500=UNCERTAINTY_MEASURE_WITH_UNIT(LENGTH_MEASURE(2.0E-5),#506,'DISTANCE_ACCURACY_VALUE',
     'Maximum Tolerance applied to model');
#501=(NAMED_UNIT(*)SI_UNIT($,.STERADIAN.)SOLID_ANGLE_UNIT());
#502=(CONVERSION_BASED_UNIT('DEGREE',#504)NAMED_UNIT(#503)PLANE_ANGLE_UNIT());
#503=DIMENSIONAL_EXPONENTS(0.0,0.0,0.0,0.0,0.0,0.0,0.0);
#504=PLANE_ANGLE_MEASURE_WITH_UNIT(PLANE_ANGLE_MEASURE(0.0174532925),#505);
#505=(NAMED_UNIT(*)PLANE_ANGLE_UNIT()SI_UNIT($,.RADIAN.));
#506=(LENGTH_UNIT()NAMED_UNIT(*)SI_UNIT(.MILLI.,.METRE.));
#507=CONSTRUCTIVE_GEOMETRY_REPRESENTATION('supplemental geometry',(#286,#287),#499);
#508=CONSTRUCTIVE_GEOMETRY_REPRESENTATION_RELATIONSHIP('supplemental geometry','contains PCS and MCS coordinate systems',
     #24,#507);
ENDSEC;
END-ISO-10303-21;
