ISO-10303-21;
HEADER;
FILE_DESCRIPTION(
/* description */ (''),
/* implementation_level */ '2;1');
FILE_NAME(
/* name */ 'VCET110302.stp',
/* time_stamp */ '2017-03-21T10:54:46',
/* author */ ('Sandvik Coromant R&D'),
/* organization */ ('Sandvik Machining Solutions'),
/* preprocessor_version */ 'ST-DEVELOPER v15',
/* originating_system */ 'SIEMENS PLM Software NX v8.5.3.3(64 bits)',
/* authorization */ '');
FILE_SCHEMA(('AUTOMOTIVE_DESIGN'));
ENDSEC;
DATA;
#10=GEOMETRICALLY_BOUNDED_WIREFRAME_SHAPE_REPRESENTATION('IsoTurningInsert-None',
     (#25),#503);
#11=SHAPE_REPRESENTATION_RELATIONSHIP('None','relationship between IsoTurningInsert-None and IsoTurningInsert-None',
     #24,#13);
#12=SHAPE_REPRESENTATION_RELATIONSHIP('None','relationship between IsoTurningInsert-None and IsoTurningInsert-None',
     #24,#10);
#13=ADVANCED_BREP_SHAPE_REPRESENTATION('IsoTurningInsert-None',(#31),#503);
#14=SHAPE_DEFINITION_REPRESENTATION(#15,#24);
#15=PRODUCT_DEFINITION_SHAPE('','',#16);
#16=PRODUCT_DEFINITION(' ','',#18,#17);
#17=PRODUCT_DEFINITION_CONTEXT('part definition',#23,'design');
#18=PRODUCT_DEFINITION_FORMATION_WITH_SPECIFIED_SOURCE(' ',' ',#20,.NOT_KNOWN.);
#19=PRODUCT_RELATED_PRODUCT_CATEGORY('part','',(#20));
#20=PRODUCT('IsoTurningInsert','IsoTurningInsert',' ',(#21));
#21=PRODUCT_CONTEXT(' ',#23,'mechanical');
#22=APPLICATION_PROTOCOL_DEFINITION('international standard','automotive_design',
     2010,#23);
#23=APPLICATION_CONTEXT('core data for automotive mechanical design processes');
#24=SHAPE_REPRESENTATION('IsoTurningInsert-None',(#285),#503);
#25=GEOMETRIC_CURVE_SET('geometric curve set',(#265));
#26=SURFACE_STYLE_USAGE(.BOTH.,#27);
#27=SURFACE_SIDE_STYLE('',(#28));
#28=SURFACE_STYLE_FILL_AREA(#29);
#29=FILL_AREA_STYLE('',(#30));
#30=FILL_AREA_STYLE_COLOUR('',#284);
#31=MANIFOLD_SOLID_BREP('CUT',#32);
#32=CLOSED_SHELL('',(#49,#50,#51,#52,#53,#54,#55,#56,#57,#58,#59,#60,#61,#62));
#33=CYLINDRICAL_SURFACE('',#309,1.4);
#34=TOROIDAL_SURFACE('',#308,3.89999999999999,2.5);
#35=TOROIDAL_SURFACE('',#310,1.38569981785225,0.5);
#36=CONICAL_SURFACE('',#300,0.198437500000001,7.0);
#37=CONICAL_SURFACE('',#301,0.198437500000001,7.0);
#38=CONICAL_SURFACE('',#302,0.198437500000001,7.0);
#39=CONICAL_SURFACE('',#303,0.198437500000001,7.0);
#40=CONICAL_SURFACE('',#305,1.87499999997637,4.00000000179041);
#41=FACE_OUTER_BOUND('',#123,.T.);
#42=FACE_OUTER_BOUND('',#124,.T.);
#43=FACE_OUTER_BOUND('',#125,.T.);
#44=FACE_OUTER_BOUND('',#126,.T.);
#45=FACE_OUTER_BOUND('',#129,.T.);
#46=FACE_OUTER_BOUND('',#130,.T.);
#47=FACE_OUTER_BOUND('',#131,.T.);
#48=FACE_OUTER_BOUND('',#132,.T.);
#49=ADVANCED_FACE('',(#109,#110),#63,.F.);
#50=ADVANCED_FACE('',(#41),#64,.F.);
#51=ADVANCED_FACE('',(#42),#65,.F.);
#52=ADVANCED_FACE('',(#43),#66,.F.);
#53=ADVANCED_FACE('',(#44),#67,.F.);
#54=ADVANCED_FACE('',(#111,#112),#68,.T.);
#55=ADVANCED_FACE('',(#45),#36,.T.);
#56=ADVANCED_FACE('',(#46),#37,.T.);
#57=ADVANCED_FACE('',(#47),#38,.T.);
#58=ADVANCED_FACE('',(#48),#39,.T.);
#59=ADVANCED_FACE('',(#113,#114),#40,.F.);
#60=ADVANCED_FACE('',(#115,#116),#34,.T.);
#61=ADVANCED_FACE('',(#117,#118),#33,.F.);
#62=ADVANCED_FACE('',(#119,#120),#35,.F.);
#63=PLANE('',#289);
#64=PLANE('',#290);
#65=PLANE('',#291);
#66=PLANE('',#292);
#67=PLANE('',#293);
#68=PLANE('',#299);
#69=LINE('',#440,#89);
#70=LINE('',#443,#90);
#71=LINE('',#445,#91);
#72=LINE('',#447,#92);
#73=LINE('',#449,#93);
#74=LINE('',#452,#94);
#75=LINE('',#454,#95);
#76=LINE('',#455,#96);
#77=LINE('',#457,#97);
#78=LINE('',#459,#98);
#79=LINE('',#461,#99);
#80=LINE('',#463,#100);
#81=LINE('',#465,#101);
#82=LINE('',#467,#102);
#83=LINE('',#469,#103);
#84=LINE('',#471,#104);
#85=LINE('',#473,#105);
#86=LINE('',#475,#106);
#87=LINE('',#477,#107);
#88=LINE('',#479,#108);
#89=VECTOR('',#319,1.0);
#90=VECTOR('',#320,1.0);
#91=VECTOR('',#321,1.0);
#92=VECTOR('',#322,1.0);
#93=VECTOR('',#325,1.0);
#94=VECTOR('',#326,1.0);
#95=VECTOR('',#327,1.0);
#96=VECTOR('',#328,1.0);
#97=VECTOR('',#329,1.0);
#98=VECTOR('',#332,1.0);
#99=VECTOR('',#333,1.0);
#100=VECTOR('',#334,1.0);
#101=VECTOR('',#335,1.0);
#102=VECTOR('',#338,1.0);
#103=VECTOR('',#339,1.0);
#104=VECTOR('',#340,1.0);
#105=VECTOR('',#341,1.0);
#106=VECTOR('',#344,1.0);
#107=VECTOR('',#345,1.0);
#108=VECTOR('',#346,1.0);
#109=FACE_BOUND('',#121,.T.);
#110=FACE_BOUND('',#122,.T.);
#111=FACE_BOUND('',#127,.T.);
#112=FACE_BOUND('',#128,.T.);
#113=FACE_BOUND('',#133,.T.);
#114=FACE_BOUND('',#134,.T.);
#115=FACE_BOUND('',#135,.T.);
#116=FACE_BOUND('',#136,.T.);
#117=FACE_BOUND('',#137,.T.);
#118=FACE_BOUND('',#138,.T.);
#119=FACE_BOUND('',#139,.T.);
#120=FACE_BOUND('',#140,.T.);
#121=EDGE_LOOP('',(#141));
#122=EDGE_LOOP('',(#142,#143,#144,#145));
#123=EDGE_LOOP('',(#146,#147,#148,#149,#150,#151));
#124=EDGE_LOOP('',(#152,#153,#154,#155,#156,#157));
#125=EDGE_LOOP('',(#158,#159,#160,#161,#162,#163));
#126=EDGE_LOOP('',(#164,#165,#166,#167,#168,#169));
#127=EDGE_LOOP('',(#170));
#128=EDGE_LOOP('',(#171,#172,#173,#174,#175,#176,#177,#178));
#129=EDGE_LOOP('',(#179,#180,#181));
#130=EDGE_LOOP('',(#182,#183,#184));
#131=EDGE_LOOP('',(#185,#186,#187));
#132=EDGE_LOOP('',(#188,#189,#190));
#133=EDGE_LOOP('',(#191));
#134=EDGE_LOOP('',(#192));
#135=EDGE_LOOP('',(#193));
#136=EDGE_LOOP('',(#194));
#137=EDGE_LOOP('',(#195));
#138=EDGE_LOOP('',(#196));
#139=EDGE_LOOP('',(#197));
#140=EDGE_LOOP('',(#198));
#141=ORIENTED_EDGE('',*,*,#220,.T.);
#142=ORIENTED_EDGE('',*,*,#221,.T.);
#143=ORIENTED_EDGE('',*,*,#222,.T.);
#144=ORIENTED_EDGE('',*,*,#223,.T.);
#145=ORIENTED_EDGE('',*,*,#224,.T.);
#146=ORIENTED_EDGE('',*,*,#225,.F.);
#147=ORIENTED_EDGE('',*,*,#226,.T.);
#148=ORIENTED_EDGE('',*,*,#227,.F.);
#149=ORIENTED_EDGE('',*,*,#221,.F.);
#150=ORIENTED_EDGE('',*,*,#228,.T.);
#151=ORIENTED_EDGE('',*,*,#229,.T.);
#152=ORIENTED_EDGE('',*,*,#224,.F.);
#153=ORIENTED_EDGE('',*,*,#230,.T.);
#154=ORIENTED_EDGE('',*,*,#231,.T.);
#155=ORIENTED_EDGE('',*,*,#232,.F.);
#156=ORIENTED_EDGE('',*,*,#233,.T.);
#157=ORIENTED_EDGE('',*,*,#228,.F.);
#158=ORIENTED_EDGE('',*,*,#223,.F.);
#159=ORIENTED_EDGE('',*,*,#234,.T.);
#160=ORIENTED_EDGE('',*,*,#235,.T.);
#161=ORIENTED_EDGE('',*,*,#236,.F.);
#162=ORIENTED_EDGE('',*,*,#237,.T.);
#163=ORIENTED_EDGE('',*,*,#230,.F.);
#164=ORIENTED_EDGE('',*,*,#222,.F.);
#165=ORIENTED_EDGE('',*,*,#227,.T.);
#166=ORIENTED_EDGE('',*,*,#238,.T.);
#167=ORIENTED_EDGE('',*,*,#239,.F.);
#168=ORIENTED_EDGE('',*,*,#240,.T.);
#169=ORIENTED_EDGE('',*,*,#234,.F.);
#170=ORIENTED_EDGE('',*,*,#241,.F.);
#171=ORIENTED_EDGE('',*,*,#239,.T.);
#172=ORIENTED_EDGE('',*,*,#242,.T.);
#173=ORIENTED_EDGE('',*,*,#225,.T.);
#174=ORIENTED_EDGE('',*,*,#243,.T.);
#175=ORIENTED_EDGE('',*,*,#232,.T.);
#176=ORIENTED_EDGE('',*,*,#244,.T.);
#177=ORIENTED_EDGE('',*,*,#236,.T.);
#178=ORIENTED_EDGE('',*,*,#245,.T.);
#179=ORIENTED_EDGE('',*,*,#238,.F.);
#180=ORIENTED_EDGE('',*,*,#226,.F.);
#181=ORIENTED_EDGE('',*,*,#242,.F.);
#182=ORIENTED_EDGE('',*,*,#235,.F.);
#183=ORIENTED_EDGE('',*,*,#240,.F.);
#184=ORIENTED_EDGE('',*,*,#245,.F.);
#185=ORIENTED_EDGE('',*,*,#231,.F.);
#186=ORIENTED_EDGE('',*,*,#237,.F.);
#187=ORIENTED_EDGE('',*,*,#244,.F.);
#188=ORIENTED_EDGE('',*,*,#229,.F.);
#189=ORIENTED_EDGE('',*,*,#233,.F.);
#190=ORIENTED_EDGE('',*,*,#243,.F.);
#191=ORIENTED_EDGE('',*,*,#246,.T.);
#192=ORIENTED_EDGE('',*,*,#241,.T.);
#193=ORIENTED_EDGE('',*,*,#247,.T.);
#194=ORIENTED_EDGE('',*,*,#248,.T.);
#195=ORIENTED_EDGE('',*,*,#248,.F.);
#196=ORIENTED_EDGE('',*,*,#220,.F.);
#197=ORIENTED_EDGE('',*,*,#247,.F.);
#198=ORIENTED_EDGE('',*,*,#246,.F.);
#199=VERTEX_POINT('',#439);
#200=VERTEX_POINT('',#441);
#201=VERTEX_POINT('',#442);
#202=VERTEX_POINT('',#444);
#203=VERTEX_POINT('',#446);
#204=VERTEX_POINT('',#450);
#205=VERTEX_POINT('',#451);
#206=VERTEX_POINT('',#453);
#207=VERTEX_POINT('',#456);
#208=VERTEX_POINT('',#460);
#209=VERTEX_POINT('',#462);
#210=VERTEX_POINT('',#464);
#211=VERTEX_POINT('',#468);
#212=VERTEX_POINT('',#470);
#213=VERTEX_POINT('',#472);
#214=VERTEX_POINT('',#476);
#215=VERTEX_POINT('',#478);
#216=VERTEX_POINT('',#482);
#217=VERTEX_POINT('',#493);
#218=VERTEX_POINT('',#496);
#219=VERTEX_POINT('',#498);
#220=EDGE_CURVE('',#199,#199,#249,.T.);
#221=EDGE_CURVE('',#200,#201,#69,.T.);
#222=EDGE_CURVE('',#201,#202,#70,.T.);
#223=EDGE_CURVE('',#202,#203,#71,.T.);
#224=EDGE_CURVE('',#203,#200,#72,.T.);
#225=EDGE_CURVE('',#204,#205,#73,.T.);
#226=EDGE_CURVE('',#204,#206,#74,.T.);
#227=EDGE_CURVE('INSERT_CORNER_EDGE3',#201,#206,#75,.T.);
#228=EDGE_CURVE('INSERT_CORNER_EDGE4',#200,#207,#76,.T.);
#229=EDGE_CURVE('',#207,#205,#77,.T.);
#230=EDGE_CURVE('INSERT_CORNER_EDGE1',#203,#208,#78,.T.);
#231=EDGE_CURVE('',#208,#209,#79,.T.);
#232=EDGE_CURVE('',#210,#209,#80,.T.);
#233=EDGE_CURVE('',#210,#207,#81,.T.);
#234=EDGE_CURVE('INSERT_CORNER_EDGE2',#202,#211,#82,.T.);
#235=EDGE_CURVE('',#211,#212,#83,.T.);
#236=EDGE_CURVE('',#213,#212,#84,.T.);
#237=EDGE_CURVE('',#213,#208,#85,.T.);
#238=EDGE_CURVE('',#206,#214,#86,.T.);
#239=EDGE_CURVE('',#215,#214,#87,.T.);
#240=EDGE_CURVE('',#215,#211,#88,.T.);
#241=EDGE_CURVE('',#216,#216,#250,.T.);
#242=EDGE_CURVE('',#214,#204,#251,.T.);
#243=EDGE_CURVE('',#205,#210,#252,.T.);
#244=EDGE_CURVE('',#209,#213,#253,.T.);
#245=EDGE_CURVE('',#212,#215,#254,.T.);
#246=EDGE_CURVE('',#217,#217,#255,.T.);
#247=EDGE_CURVE('',#218,#218,#256,.T.);
#248=EDGE_CURVE('',#219,#219,#257,.T.);
#249=CIRCLE('',#288,1.4);
#250=CIRCLE('',#294,1.92255023212159);
#251=CIRCLE('',#295,0.198437500000001);
#252=CIRCLE('',#296,0.198437500000001);
#253=CIRCLE('',#297,0.198437500000001);
#254=CIRCLE('',#298,0.198437500000001);
#255=CIRCLE('',#304,1.88448184298103);
#256=CIRCLE('',#306,1.80474984821024);
#257=CIRCLE('',#307,1.4);
#258=CURVE_STYLE('',#262,POSITIVE_LENGTH_MEASURE(0.18),#261);
#259=CURVE_STYLE('',#263,POSITIVE_LENGTH_MEASURE(0.18),#283);
#260=CURVE_STYLE('',#264,POSITIVE_LENGTH_MEASURE(0.18),#283);
#261=DRAUGHTING_PRE_DEFINED_COLOUR('blue');
#262=DRAUGHTING_PRE_DEFINED_CURVE_FONT('continuous');
#263=DRAUGHTING_PRE_DEFINED_CURVE_FONT('continuous');
#264=DRAUGHTING_PRE_DEFINED_CURVE_FONT('continuous');
#265=B_SPLINE_CURVE_WITH_KNOTS('CUTTING EDGE LINE',5,(#386,#387,#388,#389,#390,#391,
     #392,#393,#394,#395,#396,#397,#398,#399,#400,#401,#402,#403,#404,#405,#406,
     #407,#408,#409,#410,#411,#412,#413,#414,#415,#416,#417,#418,#419,#420,#421,
     #422,#423,#424,#425,#426,#427,#428,#429,#430,#431,#432,#433,#434,#435),.UNSPECIFIED.,
     .T.,.F.,(2,4,1,4,4,1,1,1,1,1,1,1,4,4,1,4,4,1,1,1,1,1,1,1,4,4,1,1),(-0.2427108138,
     0.0,0.00141734174999997,0.00283468350000005,0.2455454972,0.247013458325,0.24848141945004,
     0.249949380575,0.25141734170004,0.252885302825,0.254353263950043,0.255821225075,
     0.2572891862,0.5,0.50141734175,0.5028346835,0.7455454972,0.747013458325,0.748481419450037,
     0.749949380575,0.751417341700036,0.752885302825,0.754353263950044,0.755821225075,
     0.7572891862,1.0,1.00141734175,1.0028346835),.UNSPECIFIED.);
#266=PRESENTATION_LAYER_ASSIGNMENT('1','Layer 1',(#265,#286,#287,#31));
#269=STYLED_ITEM('',(#275),#265);
#270=STYLED_ITEM('',(#276),#286);
#271=STYLED_ITEM('',(#277),#287);
#272=STYLED_ITEM('',(#278),#31);
#273=PRESENTATION_STYLE_ASSIGNMENT((#279));
#274=PRESENTATION_STYLE_ASSIGNMENT((#280));
#275=PRESENTATION_STYLE_ASSIGNMENT((#258));
#276=PRESENTATION_STYLE_ASSIGNMENT((#259));
#277=PRESENTATION_STYLE_ASSIGNMENT((#260));
#278=PRESENTATION_STYLE_ASSIGNMENT((#26));
#279=POINT_STYLE('',#281,POSITIVE_LENGTH_MEASURE(3.0),#283);
#280=POINT_STYLE('',#282,POSITIVE_LENGTH_MEASURE(3.0),#283);
#281=PRE_DEFINED_POINT_MARKER_SYMBOL('plus');
#282=PRE_DEFINED_POINT_MARKER_SYMBOL('plus');
#283=COLOUR_RGB('Medium Maroon',0.6,0.4,0.4);
#284=COLOUR_RGB('IsoInsertColor',0.8,0.8,0.8);
#285=AXIS2_PLACEMENT_3D('',#383,#311,#312);
#286=AXIS2_PLACEMENT_3D('PCS',#436,#313,#314);
#287=AXIS2_PLACEMENT_3D('MCS',#437,#315,#316);
#288=AXIS2_PLACEMENT_3D('',#438,#317,#318);
#289=AXIS2_PLACEMENT_3D('',#448,#323,#324);
#290=AXIS2_PLACEMENT_3D('',#458,#330,#331);
#291=AXIS2_PLACEMENT_3D('',#466,#336,#337);
#292=AXIS2_PLACEMENT_3D('',#474,#342,#343);
#293=AXIS2_PLACEMENT_3D('',#480,#347,#348);
#294=AXIS2_PLACEMENT_3D('',#481,#349,#350);
#295=AXIS2_PLACEMENT_3D('',#483,#351,#352);
#296=AXIS2_PLACEMENT_3D('',#484,#353,#354);
#297=AXIS2_PLACEMENT_3D('',#485,#355,#356);
#298=AXIS2_PLACEMENT_3D('',#486,#357,#358);
#299=AXIS2_PLACEMENT_3D('',#487,#359,#360);
#300=AXIS2_PLACEMENT_3D('',#488,#361,#362);
#301=AXIS2_PLACEMENT_3D('',#489,#363,#364);
#302=AXIS2_PLACEMENT_3D('',#490,#365,#366);
#303=AXIS2_PLACEMENT_3D('',#491,#367,#368);
#304=AXIS2_PLACEMENT_3D('',#492,#369,#370);
#305=AXIS2_PLACEMENT_3D('',#494,#371,#372);
#306=AXIS2_PLACEMENT_3D('',#495,#373,#374);
#307=AXIS2_PLACEMENT_3D('',#497,#375,#376);
#308=AXIS2_PLACEMENT_3D('',#499,#377,#378);
#309=AXIS2_PLACEMENT_3D('',#500,#379,#380);
#310=AXIS2_PLACEMENT_3D('',#501,#381,#382);
#311=DIRECTION('',(0.0,0.0,1.0));
#312=DIRECTION('',(1.0,0.0,0.0));
#313=DIRECTION('',(0.0,0.0,1.0));
#314=DIRECTION('',(1.0,0.0,0.0));
#315=DIRECTION('',(0.0,0.0,1.0));
#316=DIRECTION('',(1.0,0.0,0.0));
#317=DIRECTION('',(0.0,0.0,1.0));
#318=DIRECTION('',(-0.953716950748227,-0.300705799504273,0.0));
#319=DIRECTION('',(1.0,7.21644966006352E-16,0.0));
#320=DIRECTION('',(-0.819152044288991,-0.573576436351047,0.0));
#321=DIRECTION('',(-1.0,0.0,0.0));
#322=DIRECTION('',(0.819152044288992,0.573576436351047,0.0));
#323=DIRECTION('',(0.0,0.0,1.0));
#324=DIRECTION('',(-0.953716950748227,-0.300705799504274,0.0));
#325=DIRECTION('',(-1.0,-7.21644966006352E-16,-1.18552433091976E-16));
#326=DIRECTION('',(2.15105711021124E-16,-0.121869343405148,-0.992546151641322));
#327=DIRECTION('',(0.360526322965514,0.113673512990021,0.925796469475593));
#328=DIRECTION('',(-0.0383969203001169,0.121779472850606,0.991814214711452));
#329=DIRECTION('',(-2.15105711021124E-16,0.121869343405148,0.992546151641322));
#330=DIRECTION('',(7.21644966006352E-16,-0.992546151641322,0.121869343405148));
#331=DIRECTION('',(1.0,7.21644966006352E-16,0.0));
#332=DIRECTION('',(-0.360526322965515,-0.113673512990019,0.925796469475594));
#333=DIRECTION('',(-0.0699013836907665,0.0998295217864846,0.992546151641322));
#334=DIRECTION('',(-0.819152044288992,-0.573576436351047,4.16168436999958E-16));
#335=DIRECTION('',(0.0699013836907665,-0.0998295217864846,-0.992546151641322));
#336=DIRECTION('',(0.569301084572375,-0.81304620916816,0.121869343405148));
#337=DIRECTION('',(0.819152044288992,0.573576436351047,0.0));
#338=DIRECTION('',(0.0383969203001168,-0.121779472850604,0.991814214711452));
#339=DIRECTION('',(-1.11022302462516E-16,-0.121869343405147,0.992546151641322));
#340=DIRECTION('',(1.0,5.55111512312578E-17,1.25368345421122E-16));
#341=DIRECTION('',(1.11022302462516E-16,0.121869343405147,-0.992546151641322));
#342=DIRECTION('',(-5.55111512312578E-17,0.992546151641323,0.121869343405147));
#343=DIRECTION('',(-1.0,0.0,0.0));
#344=DIRECTION('',(0.0699013836907664,-0.0998295217864827,0.992546151641322));
#345=DIRECTION('',(0.819152044288991,0.573576436351047,-4.16168436999959E-16));
#346=DIRECTION('',(-0.0699013836907664,0.0998295217864827,-0.992546151641322));
#347=DIRECTION('',(-0.569301084572376,0.81304620916816,0.121869343405147));
#348=DIRECTION('',(-0.819152044288991,-0.573576436351047,0.0));
#349=DIRECTION('',(0.0,0.0,1.0));
#350=DIRECTION('',(-0.953716950748227,-0.300705799504274,0.0));
#351=DIRECTION('',(-1.20339735310749E-16,9.08369172207806E-16,1.0));
#352=DIRECTION('',(-0.300705799504271,0.953716950748225,-9.02513933390471E-16));
#353=DIRECTION('',(-1.20339735310749E-16,9.08369172207806E-16,1.0));
#354=DIRECTION('',(-0.300705799504272,0.953716950748225,-9.02513933390471E-16));
#355=DIRECTION('',(-1.20339735310749E-16,9.08369172207806E-16,1.0));
#356=DIRECTION('',(-0.300705799504274,0.953716950748227,-9.02513933390471E-16));
#357=DIRECTION('',(-1.20339735310749E-16,9.08369172207806E-16,1.0));
#358=DIRECTION('',(-0.300705799504271,0.953716950748227,-9.02513933390471E-16));
#359=DIRECTION('',(-1.20339735310749E-16,9.08369172207806E-16,1.0));
#360=DIRECTION('',(-0.300705799504274,0.953716950748227,-9.02513933390471E-16));
#361=DIRECTION('',(-1.20339735310749E-16,9.08369172207806E-16,1.0));
#362=DIRECTION('',(-0.300705799504274,0.953716950748227,-8.63955296938589E-16));
#363=DIRECTION('',(-1.20339735310749E-16,9.08369172207806E-16,1.0));
#364=DIRECTION('',(-0.300705799504274,0.953716950748227,-8.99218778446286E-16));
#365=DIRECTION('',(-1.20339735310749E-16,9.08369172207806E-16,1.0));
#366=DIRECTION('',(-0.300705799504274,0.953716950748227,-8.92166082144747E-16));
#367=DIRECTION('',(-1.20339735310749E-16,9.08369172207806E-16,1.0));
#368=DIRECTION('',(-0.300705799504274,0.953716950748227,-8.5690260063705E-16));
#369=DIRECTION('',(0.0,0.0,-1.0));
#370=DIRECTION('',(0.953716950748227,0.300705799504274,0.0));
#371=DIRECTION('',(0.0,0.0,1.0));
#372=DIRECTION('',(-0.953716950748227,-0.300705799504274,-9.66395375416714E-17));
#373=DIRECTION('',(0.0,0.0,1.0));
#374=DIRECTION('',(0.953716950748227,0.300705799504273,0.0));
#375=DIRECTION('',(0.0,0.0,-1.0));
#376=DIRECTION('',(-0.953716950748227,-0.300705799504274,0.0));
#377=DIRECTION('',(0.0,0.0,1.0));
#378=DIRECTION('',(-0.953716950748227,-0.300705799504274,0.0));
#379=DIRECTION('',(0.0,0.0,1.0));
#380=DIRECTION('',(-0.953716950748226,-0.300705799504274,0.0));
#381=DIRECTION('',(0.0,0.0,-1.0));
#382=DIRECTION('',(0.953716950748227,0.300705799504273,0.0));
#383=CARTESIAN_POINT('',(0.0,0.0,0.0));
#386=CARTESIAN_POINT('',(8.93252870773942,-2.22044604925031E-15,2.2186712959341E-32));
#387=CARTESIAN_POINT('',(11.0202543101936,-2.66453525910038E-15,1.81690673470138E-16));
#388=CARTESIAN_POINT('',(11.0441228330293,0.00179435081056711,1.82933072229991E-16));
#389=CARTESIAN_POINT('',(11.0686041494781,0.007240759547535,1.81496039944626E-16));
#390=CARTESIAN_POINT('',(11.0917820016082,0.0168212289424972,1.65813303993387E-16));
#391=CARTESIAN_POINT('',(11.1123631482267,0.0290418050768828,1.17241714541587E-16));
#392=CARTESIAN_POINT('',(12.8225278433915,1.2265120162114,1.61352805650141E-17));
#393=CARTESIAN_POINT('',(14.5229165639189,2.4171370162114,4.93038065763132E-33));
#394=CARTESIAN_POINT('',(16.2233052844462,3.60776201621141,4.93038065763132E-32));
#395=CARTESIAN_POINT('',(17.9236940049735,4.79838701621141,1.61352805650141E-17));
#396=CARTESIAN_POINT('',(19.6336944924419,5.99574224787903,9.18548259109469E-17));
#397=CARTESIAN_POINT('',(19.651923113594,6.01062359384701,1.05818638909748E-16));
#398=CARTESIAN_POINT('',(19.6785041284916,6.03945815225717,1.08631257111226E-16));
#399=CARTESIAN_POINT('',(19.7031517265703,6.08545835496522,8.12986199403274E-17));
#400=CARTESIAN_POINT('',(19.7140238704098,6.1527144064017,2.39252601566948E-17));
#401=CARTESIAN_POINT('',(19.7033362010415,6.21243804106433,-3.20367640961192E-17));
#402=CARTESIAN_POINT('',(19.6778349577168,6.26749097380052,-8.56677895998152E-17));
#403=CARTESIAN_POINT('',(19.6303525325587,6.31634790030551,-1.33033816729191E-16));
#404=CARTESIAN_POINT('',(19.5837777698655,6.33989177892056,-1.47206262045047E-16));
#405=CARTESIAN_POINT('',(19.5454650539162,6.34826542258864,-1.30591242150869E-16));
#406=CARTESIAN_POINT('',(19.5219974522471,6.35,-1.06740662079354E-16));
#407=CARTESIAN_POINT('',(17.4344723103761,6.35,-1.80254507609987E-17));
#408=CARTESIAN_POINT('',(15.3586809693397,6.35,3.45126646034193E-32));
#409=CARTESIAN_POINT('',(13.2828896283033,6.35,7.88860905221012E-32));
#410=CARTESIAN_POINT('',(11.207098287267,6.35,-1.80254507609987E-17));
#411=CARTESIAN_POINT('',(9.11937268481276,6.35,-1.26780048361785E-16));
#412=CARTESIAN_POINT('',(9.09550416197711,6.34820564918942,-1.72649631266323E-16));
#413=CARTESIAN_POINT('',(9.07102284552832,6.34275924045246,-1.82126380582294E-16));
#414=CARTESIAN_POINT('',(9.04784499339814,6.3331787710575,-1.65813303993386E-16));
#415=CARTESIAN_POINT('',(9.02726384677967,6.32095819492311,-1.17241714541587E-16));
#416=CARTESIAN_POINT('',(7.31709915161485,5.12348798378859,-1.61352805650141E-17));
#417=CARTESIAN_POINT('',(5.61671043108752,3.93286298378859,-4.19082355898663E-32));
#418=CARTESIAN_POINT('',(3.91632171056019,2.74223798378859,9.86076131526265E-32));
#419=CARTESIAN_POINT('',(2.21593299003286,1.55161298378859,-1.6135280565014E-17));
#420=CARTESIAN_POINT('',(0.505932502564503,0.354257752120967,-9.18548259109468E-17));
#421=CARTESIAN_POINT('',(0.487703881412401,0.339376406153011,-1.0581863890973E-16));
#422=CARTESIAN_POINT('',(0.46112286651481,0.310541847742862,-1.08631257111234E-16));
#423=CARTESIAN_POINT('',(0.436475268436073,0.264541645034842,-8.12986199403597E-17));
#424=CARTESIAN_POINT('',(0.425603124596588,0.19728559359837,-2.39252601567625E-17));
#425=CARTESIAN_POINT('',(0.436290793964877,0.13756195893573,3.20367640960684E-17));
#426=CARTESIAN_POINT('',(0.461792037289525,0.0825090261995056,8.56677895997857E-17));
#427=CARTESIAN_POINT('',(0.509274462447667,0.0336520996945122,1.33033816729183E-16));
#428=CARTESIAN_POINT('',(0.555849225140907,0.0101082210794412,1.47206262045047E-16));
#429=CARTESIAN_POINT('',(0.594161941090155,0.00173457741135774,1.30591242150869E-16));
#430=CARTESIAN_POINT('',(0.617629542759232,-3.5527136788005E-15,1.06740662079354E-16));
#431=CARTESIAN_POINT('',(2.70515468463032,-3.5527136788005E-15,1.80254507609987E-17));
#432=CARTESIAN_POINT('',(4.78094602566668,-3.5527136788005E-15,2.46519032881566E-32));
#433=CARTESIAN_POINT('',(6.85673736670306,-2.22044604925031E-15,3.20474742746036E-32));
#434=CARTESIAN_POINT('',(8.93252870773942,-2.22044604925031E-15,2.2186712959341E-32));
#435=CARTESIAN_POINT('',(11.0202543101936,-2.66453525910038E-15,1.81690673470138E-16));
#436=CARTESIAN_POINT('',(0.0,0.0,0.0));
#437=CARTESIAN_POINT('',(10.0698134975032,3.175,0.0));
#438=CARTESIAN_POINT('',(10.0698134975032,3.175,-3.175));
#439=CARTESIAN_POINT('',(8.73460976645568,2.75401188069402,-3.175));
#440=CARTESIAN_POINT('',(10.0698134975032,5.96015901913327,-3.175));
#441=CARTESIAN_POINT('',(9.19165623193508,5.96015901913327,-3.175));
#442=CARTESIAN_POINT('',(18.9032093663413,5.96015901913328,-3.175));
#443=CARTESIAN_POINT('',(11.6673150823686,0.893531295807048,-3.175));
#444=CARTESIAN_POINT('',(10.9479707630713,0.389840980866716,-3.175));
#445=CARTESIAN_POINT('',(10.0698134975032,0.389840980866716,-3.175));
#446=CARTESIAN_POINT('',(1.23641762866507,0.389840980866716,-3.175));
#447=CARTESIAN_POINT('',(8.47231191263774,5.45646870419294,-3.175));
#448=CARTESIAN_POINT('',(9.82493431578671,2.70459146865531,-3.175));
#449=CARTESIAN_POINT('',(10.0698134975032,6.35,-5.81748951963656E-15));
#450=CARTESIAN_POINT('',(19.5102636514124,6.35,-4.68142824690081E-15));
#451=CARTESIAN_POINT('',(9.13130694623059,6.35,-5.93042914960411E-15));
#452=CARTESIAN_POINT('',(19.5102636514124,6.35,-4.695485512529E-15));
#453=CARTESIAN_POINT('',(19.5102636514124,6.1515625,-1.61614374430123));
#454=CARTESIAN_POINT('',(18.8307603948783,5.93731594617547,-3.36104189964792));
#455=CARTESIAN_POINT('',(9.07021574921528,6.3453190229239,-0.0381234989291223));
#456=CARTESIAN_POINT('',(9.13130694623059,6.15156249999999,-1.61614374430124));
#457=CARTESIAN_POINT('',(9.13130694623059,6.35,-6.08313268795605E-15));
#458=CARTESIAN_POINT('',(10.0698134975032,6.35,-5.81748951963656E-15));
#459=CARTESIAN_POINT('',(1.30886660012807,0.412684053824528,-3.36104189964792));
#460=CARTESIAN_POINT('',(0.629363343593951,0.198437499999996,-1.61614374430122));
#461=CARTESIAN_POINT('',(0.515544269505539,0.360987983788596,-1.74030833879783E-15));
#462=CARTESIAN_POINT('',(0.515544269505539,0.360987983788596,-1.52701386211288E-15));
#463=CARTESIAN_POINT('',(8.24870831208862,5.77580774061755,-5.51506228827902E-15));
#464=CARTESIAN_POINT('',(9.01748787214218,6.31411298378859,-5.91152744764426E-15));
#465=CARTESIAN_POINT('',(9.01748787214218,6.31411298378859,-6.10719281343418E-15));
#466=CARTESIAN_POINT('',(8.24870831208861,5.77580774061754,-5.51506228827901E-15));
#467=CARTESIAN_POINT('',(11.0694112457911,0.004680977076091,-0.0381234989291167));
#468=CARTESIAN_POINT('',(11.0083200487758,0.198437499999999,-1.61614374430124));
#469=CARTESIAN_POINT('',(11.0083200487758,-3.46944695195361E-15,-4.11574305860593E-17));
#470=CARTESIAN_POINT('',(11.0083200487758,-3.46944695195361E-15,6.35943538505531E-17));
#471=CARTESIAN_POINT('',(10.0698134975032,-3.03576608295941E-15,-4.93452761169949E-17));
#472=CARTESIAN_POINT('',(0.629363343593949,-2.60208521396521E-15,-1.18540654885276E-15));
#473=CARTESIAN_POINT('',(0.629363343593949,-2.60208521396521E-15,-1.3162053853486E-15));
#474=CARTESIAN_POINT('',(10.0698134975032,-3.03576608295941E-15,-4.9345276116996E-17));
#475=CARTESIAN_POINT('',(19.6240827255008,5.9890120162114,-4.42932345703993E-15));
#476=CARTESIAN_POINT('',(19.6240827255008,5.9890120162114,-4.33982093364068E-15));
#477=CARTESIAN_POINT('',(11.8909186829178,0.574192259382455,-3.51772507474546E-16));
#478=CARTESIAN_POINT('',(11.1221391228642,0.0358870162114008,4.46926518907063E-17));
#479=CARTESIAN_POINT('',(11.1221391228642,0.0358870162114008,-1.60106781938426E-17));
#480=CARTESIAN_POINT('',(11.8909186829178,0.574192259382449,-3.51772507474541E-16));
#481=CARTESIAN_POINT('',(10.0698134975032,3.175,0.0));
#482=CARTESIAN_POINT('',(8.23624475246389,2.59687799536275,0.0));
#483=CARTESIAN_POINT('',(19.5102636514124,6.1515625,-4.50117373929082E-15));
#484=CARTESIAN_POINT('',(9.13130694623059,6.15156249999999,-5.75017464199412E-15));
#485=CARTESIAN_POINT('',(0.629363343593949,0.198437499999998,-1.36566105646274E-15));
#486=CARTESIAN_POINT('',(11.0083200487758,0.198437499999998,-1.16660153759434E-16));
#487=CARTESIAN_POINT('',(10.0698134975032,3.175,-2.93341739787678E-15));
#488=CARTESIAN_POINT('',(19.5102636514124,6.1515625,-4.77048955893622E-15));
#489=CARTESIAN_POINT('',(11.0083200487758,0.198437499999998,-4.33680868994202E-16));
#490=CARTESIAN_POINT('',(0.629363343593949,0.198437499999998,-1.30104260698261E-15));
#491=CARTESIAN_POINT('',(9.13130694623059,6.15156249999999,-5.63785129692462E-15));
#492=CARTESIAN_POINT('',(10.0698134975032,3.175,-0.544403327785287));
#493=CARTESIAN_POINT('',(11.8670757745315,3.7416746192449,-0.544403327785287));
#494=CARTESIAN_POINT('',(10.0698134975032,3.175,-0.680000000032648));
#495=CARTESIAN_POINT('',(10.0698134975032,3.175,-0.782283357604648));
#496=CARTESIAN_POINT('',(11.7910340196016,3.71769874601128,-0.782283357604648));
#497=CARTESIAN_POINT('',(10.0698134975032,3.175,-2.14607469113959));
#498=CARTESIAN_POINT('',(8.73460976645568,2.75401188069402,-2.14607469113959));
#499=CARTESIAN_POINT('',(10.0698134975032,3.175,-2.14607469113958));
#500=CARTESIAN_POINT('',(10.0698134975032,3.175,-33.3676978394524));
#501=CARTESIAN_POINT('',(10.0698134975032,3.175,-0.509525090897635));
#502=MECHANICAL_DESIGN_GEOMETRIC_PRESENTATION_REPRESENTATION('',(#269,#270,#271,
     #272),#503);
#503=(GEOMETRIC_REPRESENTATION_CONTEXT(3)GLOBAL_UNCERTAINTY_ASSIGNED_CONTEXT((#504))
     GLOBAL_UNIT_ASSIGNED_CONTEXT((#510,#506,#505))REPRESENTATION_CONTEXT('VCET110302',
     'TOP_LEVEL_ASSEMBLY_PART'));
#504=UNCERTAINTY_MEASURE_WITH_UNIT(LENGTH_MEASURE(2.0E-5),#510,'DISTANCE_ACCURACY_VALUE',
     'Maximum Tolerance applied to model');
#505=(NAMED_UNIT(*)SI_UNIT($,.STERADIAN.)SOLID_ANGLE_UNIT());
#506=(CONVERSION_BASED_UNIT('DEGREE',#508)NAMED_UNIT(#507)PLANE_ANGLE_UNIT());
#507=DIMENSIONAL_EXPONENTS(0.0,0.0,0.0,0.0,0.0,0.0,0.0);
#508=PLANE_ANGLE_MEASURE_WITH_UNIT(PLANE_ANGLE_MEASURE(0.0174532925),#509);
#509=(NAMED_UNIT(*)PLANE_ANGLE_UNIT()SI_UNIT($,.RADIAN.));
#510=(LENGTH_UNIT()NAMED_UNIT(*)SI_UNIT(.MILLI.,.METRE.));
#511=CONSTRUCTIVE_GEOMETRY_REPRESENTATION('supplemental geometry',(#286,#287),#503);
#512=CONSTRUCTIVE_GEOMETRY_REPRESENTATION_RELATIONSHIP('supplemental geometry','contains PCS and MCS coordinate systems',
     #24,#511);
ENDSEC;
END-ISO-10303-21;
