ISO-10303-21;
HEADER;
FILE_DESCRIPTION(
/* description */ (''),
/* implementation_level */ '2;1');
FILE_NAME(
/* name */ 'VCET110301.stp',
/* time_stamp */ '2017-03-21T10:54:46',
/* author */ ('Sandvik Coromant R&D'),
/* organization */ ('Sandvik Machining Solutions'),
/* preprocessor_version */ 'ST-DEVELOPER v15',
/* originating_system */ 'SIEMENS PLM Software NX v8.5.3.3(64 bits)',
/* authorization */ '');
FILE_SCHEMA(('AUTOMOTIVE_DESIGN'));
ENDSEC;
DATA;
#10=GEOMETRICALLY_BOUNDED_WIREFRAME_SHAPE_REPRESENTATION('IsoTurningInsert-None',
     (#25),#501);
#11=SHAPE_REPRESENTATION_RELATIONSHIP('None','relationship between IsoTurningInsert-None and IsoTurningInsert-None',
     #24,#13);
#12=SHAPE_REPRESENTATION_RELATIONSHIP('None','relationship between IsoTurningInsert-None and IsoTurningInsert-None',
     #24,#10);
#13=ADVANCED_BREP_SHAPE_REPRESENTATION('IsoTurningInsert-None',(#31),#501);
#14=SHAPE_DEFINITION_REPRESENTATION(#15,#24);
#15=PRODUCT_DEFINITION_SHAPE('','',#16);
#16=PRODUCT_DEFINITION(' ','',#18,#17);
#17=PRODUCT_DEFINITION_CONTEXT('part definition',#23,'design');
#18=PRODUCT_DEFINITION_FORMATION_WITH_SPECIFIED_SOURCE(' ',' ',#20,.NOT_KNOWN.);
#19=PRODUCT_RELATED_PRODUCT_CATEGORY('part','',(#20));
#20=PRODUCT('IsoTurningInsert','IsoTurningInsert',' ',(#21));
#21=PRODUCT_CONTEXT(' ',#23,'mechanical');
#22=APPLICATION_PROTOCOL_DEFINITION('international standard','automotive_design',
     2010,#23);
#23=APPLICATION_CONTEXT('core data for automotive mechanical design processes');
#24=SHAPE_REPRESENTATION('IsoTurningInsert-None',(#285),#501);
#25=GEOMETRIC_CURVE_SET('geometric curve set',(#265));
#26=SURFACE_STYLE_USAGE(.BOTH.,#27);
#27=SURFACE_SIDE_STYLE('',(#28));
#28=SURFACE_STYLE_FILL_AREA(#29);
#29=FILL_AREA_STYLE('',(#30));
#30=FILL_AREA_STYLE_COLOUR('',#284);
#31=MANIFOLD_SOLID_BREP('CUT',#32);
#32=CLOSED_SHELL('',(#49,#50,#51,#52,#53,#54,#55,#56,#57,#58,#59,#60,#61,#62));
#33=CYLINDRICAL_SURFACE('',#309,1.4);
#34=TOROIDAL_SURFACE('',#308,3.89999999999999,2.5);
#35=TOROIDAL_SURFACE('',#310,1.38569981785225,0.5);
#36=CONICAL_SURFACE('',#300,0.0992187500000007,7.0);
#37=CONICAL_SURFACE('',#301,0.0992187500000007,7.0);
#38=CONICAL_SURFACE('',#302,0.0992187500000007,7.0);
#39=CONICAL_SURFACE('',#303,0.0992187500000007,7.0);
#40=CONICAL_SURFACE('',#305,1.87499999997636,4.00000000179043);
#41=FACE_OUTER_BOUND('',#123,.T.);
#42=FACE_OUTER_BOUND('',#124,.T.);
#43=FACE_OUTER_BOUND('',#125,.T.);
#44=FACE_OUTER_BOUND('',#126,.T.);
#45=FACE_OUTER_BOUND('',#129,.T.);
#46=FACE_OUTER_BOUND('',#130,.T.);
#47=FACE_OUTER_BOUND('',#131,.T.);
#48=FACE_OUTER_BOUND('',#132,.T.);
#49=ADVANCED_FACE('',(#109,#110),#63,.F.);
#50=ADVANCED_FACE('',(#41),#64,.F.);
#51=ADVANCED_FACE('',(#42),#65,.F.);
#52=ADVANCED_FACE('',(#43),#66,.F.);
#53=ADVANCED_FACE('',(#44),#67,.F.);
#54=ADVANCED_FACE('',(#111,#112),#68,.T.);
#55=ADVANCED_FACE('',(#45),#36,.T.);
#56=ADVANCED_FACE('',(#46),#37,.T.);
#57=ADVANCED_FACE('',(#47),#38,.T.);
#58=ADVANCED_FACE('',(#48),#39,.T.);
#59=ADVANCED_FACE('',(#113,#114),#40,.F.);
#60=ADVANCED_FACE('',(#115,#116),#34,.T.);
#61=ADVANCED_FACE('',(#117,#118),#33,.F.);
#62=ADVANCED_FACE('',(#119,#120),#35,.F.);
#63=PLANE('',#289);
#64=PLANE('',#290);
#65=PLANE('',#291);
#66=PLANE('',#292);
#67=PLANE('',#293);
#68=PLANE('',#299);
#69=LINE('',#438,#89);
#70=LINE('',#441,#90);
#71=LINE('',#443,#91);
#72=LINE('',#445,#92);
#73=LINE('',#447,#93);
#74=LINE('',#450,#94);
#75=LINE('',#452,#95);
#76=LINE('',#453,#96);
#77=LINE('',#455,#97);
#78=LINE('',#457,#98);
#79=LINE('',#459,#99);
#80=LINE('',#461,#100);
#81=LINE('',#463,#101);
#82=LINE('',#465,#102);
#83=LINE('',#467,#103);
#84=LINE('',#469,#104);
#85=LINE('',#471,#105);
#86=LINE('',#473,#106);
#87=LINE('',#475,#107);
#88=LINE('',#477,#108);
#89=VECTOR('',#319,1.0);
#90=VECTOR('',#320,1.0);
#91=VECTOR('',#321,1.0);
#92=VECTOR('',#322,1.0);
#93=VECTOR('',#325,1.0);
#94=VECTOR('',#326,1.0);
#95=VECTOR('',#327,1.0);
#96=VECTOR('',#328,1.0);
#97=VECTOR('',#329,1.0);
#98=VECTOR('',#332,1.0);
#99=VECTOR('',#333,1.0);
#100=VECTOR('',#334,1.0);
#101=VECTOR('',#335,1.0);
#102=VECTOR('',#338,1.0);
#103=VECTOR('',#339,1.0);
#104=VECTOR('',#340,1.0);
#105=VECTOR('',#341,1.0);
#106=VECTOR('',#344,1.0);
#107=VECTOR('',#345,1.0);
#108=VECTOR('',#346,1.0);
#109=FACE_BOUND('',#121,.T.);
#110=FACE_BOUND('',#122,.T.);
#111=FACE_BOUND('',#127,.T.);
#112=FACE_BOUND('',#128,.T.);
#113=FACE_BOUND('',#133,.T.);
#114=FACE_BOUND('',#134,.T.);
#115=FACE_BOUND('',#135,.T.);
#116=FACE_BOUND('',#136,.T.);
#117=FACE_BOUND('',#137,.T.);
#118=FACE_BOUND('',#138,.T.);
#119=FACE_BOUND('',#139,.T.);
#120=FACE_BOUND('',#140,.T.);
#121=EDGE_LOOP('',(#141));
#122=EDGE_LOOP('',(#142,#143,#144,#145));
#123=EDGE_LOOP('',(#146,#147,#148,#149,#150,#151));
#124=EDGE_LOOP('',(#152,#153,#154,#155,#156,#157));
#125=EDGE_LOOP('',(#158,#159,#160,#161,#162,#163));
#126=EDGE_LOOP('',(#164,#165,#166,#167,#168,#169));
#127=EDGE_LOOP('',(#170));
#128=EDGE_LOOP('',(#171,#172,#173,#174,#175,#176,#177,#178));
#129=EDGE_LOOP('',(#179,#180,#181));
#130=EDGE_LOOP('',(#182,#183,#184));
#131=EDGE_LOOP('',(#185,#186,#187));
#132=EDGE_LOOP('',(#188,#189,#190));
#133=EDGE_LOOP('',(#191));
#134=EDGE_LOOP('',(#192));
#135=EDGE_LOOP('',(#193));
#136=EDGE_LOOP('',(#194));
#137=EDGE_LOOP('',(#195));
#138=EDGE_LOOP('',(#196));
#139=EDGE_LOOP('',(#197));
#140=EDGE_LOOP('',(#198));
#141=ORIENTED_EDGE('',*,*,#220,.T.);
#142=ORIENTED_EDGE('',*,*,#221,.T.);
#143=ORIENTED_EDGE('',*,*,#222,.T.);
#144=ORIENTED_EDGE('',*,*,#223,.T.);
#145=ORIENTED_EDGE('',*,*,#224,.T.);
#146=ORIENTED_EDGE('',*,*,#225,.F.);
#147=ORIENTED_EDGE('',*,*,#226,.T.);
#148=ORIENTED_EDGE('',*,*,#227,.F.);
#149=ORIENTED_EDGE('',*,*,#221,.F.);
#150=ORIENTED_EDGE('',*,*,#228,.T.);
#151=ORIENTED_EDGE('',*,*,#229,.T.);
#152=ORIENTED_EDGE('',*,*,#224,.F.);
#153=ORIENTED_EDGE('',*,*,#230,.T.);
#154=ORIENTED_EDGE('',*,*,#231,.T.);
#155=ORIENTED_EDGE('',*,*,#232,.F.);
#156=ORIENTED_EDGE('',*,*,#233,.T.);
#157=ORIENTED_EDGE('',*,*,#228,.F.);
#158=ORIENTED_EDGE('',*,*,#223,.F.);
#159=ORIENTED_EDGE('',*,*,#234,.T.);
#160=ORIENTED_EDGE('',*,*,#235,.T.);
#161=ORIENTED_EDGE('',*,*,#236,.F.);
#162=ORIENTED_EDGE('',*,*,#237,.T.);
#163=ORIENTED_EDGE('',*,*,#230,.F.);
#164=ORIENTED_EDGE('',*,*,#222,.F.);
#165=ORIENTED_EDGE('',*,*,#227,.T.);
#166=ORIENTED_EDGE('',*,*,#238,.T.);
#167=ORIENTED_EDGE('',*,*,#239,.F.);
#168=ORIENTED_EDGE('',*,*,#240,.T.);
#169=ORIENTED_EDGE('',*,*,#234,.F.);
#170=ORIENTED_EDGE('',*,*,#241,.F.);
#171=ORIENTED_EDGE('',*,*,#239,.T.);
#172=ORIENTED_EDGE('',*,*,#242,.T.);
#173=ORIENTED_EDGE('',*,*,#225,.T.);
#174=ORIENTED_EDGE('',*,*,#243,.T.);
#175=ORIENTED_EDGE('',*,*,#232,.T.);
#176=ORIENTED_EDGE('',*,*,#244,.T.);
#177=ORIENTED_EDGE('',*,*,#236,.T.);
#178=ORIENTED_EDGE('',*,*,#245,.T.);
#179=ORIENTED_EDGE('',*,*,#238,.F.);
#180=ORIENTED_EDGE('',*,*,#226,.F.);
#181=ORIENTED_EDGE('',*,*,#242,.F.);
#182=ORIENTED_EDGE('',*,*,#235,.F.);
#183=ORIENTED_EDGE('',*,*,#240,.F.);
#184=ORIENTED_EDGE('',*,*,#245,.F.);
#185=ORIENTED_EDGE('',*,*,#231,.F.);
#186=ORIENTED_EDGE('',*,*,#237,.F.);
#187=ORIENTED_EDGE('',*,*,#244,.F.);
#188=ORIENTED_EDGE('',*,*,#229,.F.);
#189=ORIENTED_EDGE('',*,*,#233,.F.);
#190=ORIENTED_EDGE('',*,*,#243,.F.);
#191=ORIENTED_EDGE('',*,*,#246,.T.);
#192=ORIENTED_EDGE('',*,*,#241,.T.);
#193=ORIENTED_EDGE('',*,*,#247,.T.);
#194=ORIENTED_EDGE('',*,*,#248,.T.);
#195=ORIENTED_EDGE('',*,*,#248,.F.);
#196=ORIENTED_EDGE('',*,*,#220,.F.);
#197=ORIENTED_EDGE('',*,*,#247,.F.);
#198=ORIENTED_EDGE('',*,*,#246,.F.);
#199=VERTEX_POINT('',#437);
#200=VERTEX_POINT('',#439);
#201=VERTEX_POINT('',#440);
#202=VERTEX_POINT('',#442);
#203=VERTEX_POINT('',#444);
#204=VERTEX_POINT('',#448);
#205=VERTEX_POINT('',#449);
#206=VERTEX_POINT('',#451);
#207=VERTEX_POINT('',#454);
#208=VERTEX_POINT('',#458);
#209=VERTEX_POINT('',#460);
#210=VERTEX_POINT('',#462);
#211=VERTEX_POINT('',#466);
#212=VERTEX_POINT('',#468);
#213=VERTEX_POINT('',#470);
#214=VERTEX_POINT('',#474);
#215=VERTEX_POINT('',#476);
#216=VERTEX_POINT('',#480);
#217=VERTEX_POINT('',#491);
#218=VERTEX_POINT('',#494);
#219=VERTEX_POINT('',#496);
#220=EDGE_CURVE('',#199,#199,#249,.T.);
#221=EDGE_CURVE('',#200,#201,#69,.T.);
#222=EDGE_CURVE('',#201,#202,#70,.T.);
#223=EDGE_CURVE('',#202,#203,#71,.T.);
#224=EDGE_CURVE('',#203,#200,#72,.T.);
#225=EDGE_CURVE('',#204,#205,#73,.T.);
#226=EDGE_CURVE('',#204,#206,#74,.T.);
#227=EDGE_CURVE('INSERT_CORNER_EDGE3',#201,#206,#75,.T.);
#228=EDGE_CURVE('INSERT_CORNER_EDGE4',#200,#207,#76,.T.);
#229=EDGE_CURVE('',#207,#205,#77,.T.);
#230=EDGE_CURVE('INSERT_CORNER_EDGE1',#203,#208,#78,.T.);
#231=EDGE_CURVE('',#208,#209,#79,.T.);
#232=EDGE_CURVE('',#210,#209,#80,.T.);
#233=EDGE_CURVE('',#210,#207,#81,.T.);
#234=EDGE_CURVE('INSERT_CORNER_EDGE2',#202,#211,#82,.T.);
#235=EDGE_CURVE('',#211,#212,#83,.T.);
#236=EDGE_CURVE('',#213,#212,#84,.T.);
#237=EDGE_CURVE('',#213,#208,#85,.T.);
#238=EDGE_CURVE('',#206,#214,#86,.T.);
#239=EDGE_CURVE('',#215,#214,#87,.T.);
#240=EDGE_CURVE('',#215,#211,#88,.T.);
#241=EDGE_CURVE('',#216,#216,#250,.T.);
#242=EDGE_CURVE('',#214,#204,#251,.T.);
#243=EDGE_CURVE('',#205,#210,#252,.T.);
#244=EDGE_CURVE('',#209,#213,#253,.T.);
#245=EDGE_CURVE('',#212,#215,#254,.T.);
#246=EDGE_CURVE('',#217,#217,#255,.T.);
#247=EDGE_CURVE('',#218,#218,#256,.T.);
#248=EDGE_CURVE('',#219,#219,#257,.T.);
#249=CIRCLE('',#288,1.4);
#250=CIRCLE('',#294,1.92255023212159);
#251=CIRCLE('',#295,0.0992187500000007);
#252=CIRCLE('',#296,0.0992187500000007);
#253=CIRCLE('',#297,0.0992187500000007);
#254=CIRCLE('',#298,0.0992187500000007);
#255=CIRCLE('',#304,1.88448184298103);
#256=CIRCLE('',#306,1.80474984821024);
#257=CIRCLE('',#307,1.4);
#258=CURVE_STYLE('',#262,POSITIVE_LENGTH_MEASURE(0.18),#261);
#259=CURVE_STYLE('',#263,POSITIVE_LENGTH_MEASURE(0.18),#283);
#260=CURVE_STYLE('',#264,POSITIVE_LENGTH_MEASURE(0.18),#283);
#261=DRAUGHTING_PRE_DEFINED_COLOUR('blue');
#262=DRAUGHTING_PRE_DEFINED_CURVE_FONT('continuous');
#263=DRAUGHTING_PRE_DEFINED_CURVE_FONT('continuous');
#264=DRAUGHTING_PRE_DEFINED_CURVE_FONT('continuous');
#265=B_SPLINE_CURVE_WITH_KNOTS('CUTTING EDGE LINE',5,(#386,#387,#388,#389,#390,#391,
     #392,#393,#394,#395,#396,#397,#398,#399,#400,#401,#402,#403,#404,#405,#406,
     #407,#408,#409,#410,#411,#412,#413,#414,#415,#416,#417,#418,#419,#420,#421,
     #422,#423,#424,#425,#426,#427,#428,#429,#430,#431,#432,#433),.UNSPECIFIED.,
     .T.,.F.,(2,4,4,4,1,1,1,1,1,1,1,4,4,4,4,1,1,1,1,1,1,1,4,4,2),(-0.2464190865,
     0.0,0.00139257739999998,0.2478116639,0.2485328201,0.24925397630002,0.2499751325,
     0.250696288700015,0.2514174449,0.252138601100017,0.2528597573,0.2535809135,
     0.5,0.5013925774,0.7478116639,0.7485328201,0.749253976300018,0.7499751325,0.750696288700018,
     0.7514174449,0.752138601100021,0.7528597573,0.7535809135,1.0,1.0013925774),
     .UNSPECIFIED.);
#266=PRESENTATION_LAYER_ASSIGNMENT('1','Layer 1',(#265,#286,#287,#31));
#269=STYLED_ITEM('',(#275),#265);
#270=STYLED_ITEM('',(#276),#286);
#271=STYLED_ITEM('',(#277),#287);
#272=STYLED_ITEM('',(#278),#31);
#273=PRESENTATION_STYLE_ASSIGNMENT((#279));
#274=PRESENTATION_STYLE_ASSIGNMENT((#280));
#275=PRESENTATION_STYLE_ASSIGNMENT((#258));
#276=PRESENTATION_STYLE_ASSIGNMENT((#259));
#277=PRESENTATION_STYLE_ASSIGNMENT((#260));
#278=PRESENTATION_STYLE_ASSIGNMENT((#26));
#279=POINT_STYLE('',#281,POSITIVE_LENGTH_MEASURE(3.0),#283);
#280=POINT_STYLE('',#282,POSITIVE_LENGTH_MEASURE(3.0),#283);
#281=PRE_DEFINED_POINT_MARKER_SYMBOL('plus');
#282=PRE_DEFINED_POINT_MARKER_SYMBOL('plus');
#283=COLOUR_RGB('Medium Maroon',0.6,0.4,0.4);
#284=COLOUR_RGB('IsoInsertColor',0.8,0.8,0.8);
#285=AXIS2_PLACEMENT_3D('',#383,#311,#312);
#286=AXIS2_PLACEMENT_3D('PCS',#434,#313,#314);
#287=AXIS2_PLACEMENT_3D('MCS',#435,#315,#316);
#288=AXIS2_PLACEMENT_3D('',#436,#317,#318);
#289=AXIS2_PLACEMENT_3D('',#446,#323,#324);
#290=AXIS2_PLACEMENT_3D('',#456,#330,#331);
#291=AXIS2_PLACEMENT_3D('',#464,#336,#337);
#292=AXIS2_PLACEMENT_3D('',#472,#342,#343);
#293=AXIS2_PLACEMENT_3D('',#478,#347,#348);
#294=AXIS2_PLACEMENT_3D('',#479,#349,#350);
#295=AXIS2_PLACEMENT_3D('',#481,#351,#352);
#296=AXIS2_PLACEMENT_3D('',#482,#353,#354);
#297=AXIS2_PLACEMENT_3D('',#483,#355,#356);
#298=AXIS2_PLACEMENT_3D('',#484,#357,#358);
#299=AXIS2_PLACEMENT_3D('',#485,#359,#360);
#300=AXIS2_PLACEMENT_3D('',#486,#361,#362);
#301=AXIS2_PLACEMENT_3D('',#487,#363,#364);
#302=AXIS2_PLACEMENT_3D('',#488,#365,#366);
#303=AXIS2_PLACEMENT_3D('',#489,#367,#368);
#304=AXIS2_PLACEMENT_3D('',#490,#369,#370);
#305=AXIS2_PLACEMENT_3D('',#492,#371,#372);
#306=AXIS2_PLACEMENT_3D('',#493,#373,#374);
#307=AXIS2_PLACEMENT_3D('',#495,#375,#376);
#308=AXIS2_PLACEMENT_3D('',#497,#377,#378);
#309=AXIS2_PLACEMENT_3D('',#498,#379,#380);
#310=AXIS2_PLACEMENT_3D('',#499,#381,#382);
#311=DIRECTION('',(0.0,0.0,1.0));
#312=DIRECTION('',(1.0,0.0,0.0));
#313=DIRECTION('',(0.0,0.0,1.0));
#314=DIRECTION('',(1.0,0.0,0.0));
#315=DIRECTION('',(0.0,0.0,1.0));
#316=DIRECTION('',(1.0,0.0,0.0));
#317=DIRECTION('',(0.0,0.0,1.0));
#318=DIRECTION('',(-0.953716950748227,-0.300705799504273,0.0));
#319=DIRECTION('',(1.0,7.21644966006352E-16,0.0));
#320=DIRECTION('',(-0.819152044288991,-0.573576436351047,0.0));
#321=DIRECTION('',(-1.0,0.0,0.0));
#322=DIRECTION('',(0.819152044288992,0.573576436351047,0.0));
#323=DIRECTION('',(0.0,0.0,1.0));
#324=DIRECTION('',(-0.953716950748227,-0.300705799504274,0.0));
#325=DIRECTION('',(-1.0,-7.21644966006352E-16,-1.18552433091976E-16));
#326=DIRECTION('',(2.15105711021124E-16,-0.121869343405148,-0.992546151641322));
#327=DIRECTION('',(0.360526322965514,0.113673512990021,0.925796469475593));
#328=DIRECTION('',(-0.0383969203001169,0.121779472850606,0.991814214711452));
#329=DIRECTION('',(-2.15105711021124E-16,0.121869343405148,0.992546151641322));
#330=DIRECTION('',(7.21644966006352E-16,-0.992546151641322,0.121869343405148));
#331=DIRECTION('',(1.0,7.21644966006352E-16,0.0));
#332=DIRECTION('',(-0.360526322965515,-0.113673512990019,0.925796469475594));
#333=DIRECTION('',(-0.0699013836907665,0.0998295217864846,0.992546151641322));
#334=DIRECTION('',(-0.819152044288992,-0.573576436351047,4.16168436999958E-16));
#335=DIRECTION('',(0.0699013836907665,-0.0998295217864846,-0.992546151641322));
#336=DIRECTION('',(0.569301084572375,-0.81304620916816,0.121869343405148));
#337=DIRECTION('',(0.819152044288992,0.573576436351047,0.0));
#338=DIRECTION('',(0.0383969203001168,-0.121779472850604,0.991814214711452));
#339=DIRECTION('',(-1.11022302462516E-16,-0.121869343405147,0.992546151641322));
#340=DIRECTION('',(1.0,5.55111512312578E-17,1.25368345421122E-16));
#341=DIRECTION('',(1.11022302462516E-16,0.121869343405147,-0.992546151641322));
#342=DIRECTION('',(-5.55111512312578E-17,0.992546151641323,0.121869343405147));
#343=DIRECTION('',(-1.0,0.0,0.0));
#344=DIRECTION('',(0.0699013836907664,-0.0998295217864827,0.992546151641322));
#345=DIRECTION('',(0.819152044288991,0.573576436351047,-4.16168436999959E-16));
#346=DIRECTION('',(-0.0699013836907664,0.0998295217864827,-0.992546151641322));
#347=DIRECTION('',(-0.569301084572376,0.81304620916816,0.121869343405147));
#348=DIRECTION('',(-0.819152044288991,-0.573576436351047,0.0));
#349=DIRECTION('',(0.0,0.0,1.0));
#350=DIRECTION('',(-0.953716950748227,-0.300705799504274,0.0));
#351=DIRECTION('',(-1.20339735310749E-16,9.08369172207806E-16,1.0));
#352=DIRECTION('',(-0.300705799504271,0.953716950748223,-9.02513933390473E-16));
#353=DIRECTION('',(-1.20339735310749E-16,9.08369172207806E-16,1.0));
#354=DIRECTION('',(-0.300705799504271,0.953716950748223,-9.02513933390473E-16));
#355=DIRECTION('',(-1.20339735310749E-16,9.08369172207806E-16,1.0));
#356=DIRECTION('',(-0.300705799504274,0.953716950748227,-9.02513933390471E-16));
#357=DIRECTION('',(-1.20339735310749E-16,9.08369172207806E-16,1.0));
#358=DIRECTION('',(-0.300705799504271,0.953716950748227,-9.02513933390471E-16));
#359=DIRECTION('',(-1.20339735310749E-16,9.08369172207806E-16,1.0));
#360=DIRECTION('',(-0.300705799504274,0.953716950748227,-9.02513933390471E-16));
#361=DIRECTION('',(-1.20339735310749E-16,9.08369172207806E-16,1.0));
#362=DIRECTION('',(-0.300705799504274,0.953716950748227,-8.64652871222683E-16));
#363=DIRECTION('',(-1.20339735310749E-16,9.08369172207806E-16,1.0));
#364=DIRECTION('',(-0.300705799504274,0.953716950748227,-9.03474020542885E-16));
#365=DIRECTION('',(-1.20339735310749E-16,9.08369172207806E-16,1.0));
#366=DIRECTION('',(-0.300705799504274,0.953716950748227,-8.92886434364648E-16));
#367=DIRECTION('',(-1.20339735310749E-16,9.08369172207806E-16,1.0));
#368=DIRECTION('',(-0.300705799504274,0.953716950748227,-8.54065285044446E-16));
#369=DIRECTION('',(0.0,0.0,-1.0));
#370=DIRECTION('',(0.953716950748227,0.300705799504273,0.0));
#371=DIRECTION('',(0.0,0.0,1.0));
#372=DIRECTION('',(-0.953716950748227,-0.300705799504274,-9.66395375416709E-17));
#373=DIRECTION('',(0.0,0.0,1.0));
#374=DIRECTION('',(0.953716950748227,0.300705799504273,0.0));
#375=DIRECTION('',(0.0,0.0,-1.0));
#376=DIRECTION('',(-0.953716950748227,-0.300705799504273,0.0));
#377=DIRECTION('',(0.0,0.0,1.0));
#378=DIRECTION('',(-0.953716950748227,-0.300705799504274,0.0));
#379=DIRECTION('',(0.0,0.0,1.0));
#380=DIRECTION('',(-0.953716950748227,-0.300705799504274,0.0));
#381=DIRECTION('',(0.0,0.0,-1.0));
#382=DIRECTION('',(0.953716950748227,0.300705799504274,0.0));
#383=CARTESIAN_POINT('',(0.0,0.0,0.0));
#386=CARTESIAN_POINT('',(8.8946192147473,-3.10862446895044E-15,-1.10933564796705E-32));
#387=CARTESIAN_POINT('',(11.0515378619027,-2.22044604925031E-15,9.15634196651445E-17));
#388=CARTESIAN_POINT('',(11.0634721233205,0.00179435081056845,9.13696525648468E-17));
#389=CARTESIAN_POINT('',(11.0759319909106,0.0057229319713108,8.89097908643352E-17));
#390=CARTESIAN_POINT('',(11.0867371628916,0.0110982969711797,7.69035131290516E-17));
#391=CARTESIAN_POINT('',(12.853581482074,1.2482560081057,8.06764028250706E-18));
#392=CARTESIAN_POINT('',(14.6106498266189,2.4785685081057,-7.39557098644699E-33));
#393=CARTESIAN_POINT('',(16.3677181711638,3.7088810081057,2.95822839457879E-32));
#394=CARTESIAN_POINT('',(18.1247865157087,4.9391935081057,8.06764028250717E-18));
#395=CARTESIAN_POINT('',(19.8866607437241,6.17287112393952,4.59274129554742E-17));
#396=CARTESIAN_POINT('',(19.8957750543002,6.1803117969235,5.29093194548755E-17));
#397=CARTESIAN_POINT('',(19.909065561749,6.19472907612859,5.4315628555614E-17));
#398=CARTESIAN_POINT('',(19.9213893607883,6.21772917748257,4.06493099701862E-17));
#399=CARTESIAN_POINT('',(19.9268254327081,6.25135720320081,1.196263007839E-17));
#400=CARTESIAN_POINT('',(19.9214815980239,6.2812190205321,-1.60183820479952E-17));
#401=CARTESIAN_POINT('',(19.9087309763616,6.30874548690019,-4.28338947998287E-17));
#402=CARTESIAN_POINT('',(19.8849897637826,6.33317395015272,-6.65169083645776E-17));
#403=CARTESIAN_POINT('',(19.861702382436,6.34494588946027,-7.36031310225248E-17));
#404=CARTESIAN_POINT('',(19.8425460244613,6.34913271129432,-6.52956210754714E-17));
#405=CARTESIAN_POINT('',(19.8308122236268,6.35000000000001,-5.33703310396768E-17));
#406=CARTESIAN_POINT('',(17.6799609374718,6.35,-9.01272538049938E-18));
#407=CARTESIAN_POINT('',(15.5349765517342,6.35,-3.69778549322349E-33));
#408=CARTESIAN_POINT('',(13.3899921659967,6.35,-9.86076131526265E-33));
#409=CARTESIAN_POINT('',(11.2450077802591,6.35,-9.01272538049942E-18));
#410=CARTESIAN_POINT('',(9.08808913310368,6.35,-8.17164214592885E-17));
#411=CARTESIAN_POINT('',(9.07615487168585,6.34820564918943,-9.09332098070357E-17));
#412=CARTESIAN_POINT('',(9.06369500409577,6.34427706802868,-8.89097908643364E-17));
#413=CARTESIAN_POINT('',(9.05288983211479,6.33890170302881,-7.69035131290518E-17));
#414=CARTESIAN_POINT('',(7.28604551293239,5.1017439918943,-8.06764028250708E-18));
#415=CARTESIAN_POINT('',(5.52897716838748,3.8714314918943,3.69778549322349E-33));
#416=CARTESIAN_POINT('',(3.77190882384258,2.6411189918943,9.86076131526265E-33));
#417=CARTESIAN_POINT('',(2.01484047929767,1.4108064918943,-8.06764028250706E-18));
#418=CARTESIAN_POINT('',(0.252966251282249,0.177128876060483,-4.59274129554738E-17));
#419=CARTESIAN_POINT('',(0.243851940706195,0.169688203076503,-5.29093194548655E-17));
#420=CARTESIAN_POINT('',(0.23056143325741,0.155270923871432,-5.43156285556176E-17));
#421=CARTESIAN_POINT('',(0.218237634218029,0.132270822517418,-4.06493099701798E-17));
#422=CARTESIAN_POINT('',(0.21280156229829,0.0986427967991825,-1.19626300783803E-17));
#423=CARTESIAN_POINT('',(0.218145396982434,0.0687809794678627,1.60183820480351E-17));
#424=CARTESIAN_POINT('',(0.23089601864476,0.0412545130997497,4.2833894799894E-17));
#425=CARTESIAN_POINT('',(0.254637231223834,0.0168260498472552,6.65169083645917E-17));
#426=CARTESIAN_POINT('',(0.277924612570448,0.00505411053971816,7.36031310225238E-17));
#427=CARTESIAN_POINT('',(0.297080970545075,8.67288705677094E-4,6.52956210754343E-17));
#428=CARTESIAN_POINT('',(0.308814771379614,-3.5527136788005E-15,5.33703310396768E-17));
#429=CARTESIAN_POINT('',(2.45966605753456,-3.5527136788005E-15,9.01272538049938E-18));
#430=CARTESIAN_POINT('',(4.60465044327213,-3.99680288865056E-15,-6.16297582203915E-33));
#431=CARTESIAN_POINT('',(6.74963482900972,-3.10862446895044E-15,-1.60237371373018E-32));
#432=CARTESIAN_POINT('',(8.8946192147473,-3.10862446895044E-15,-1.10933564796705E-32));
#433=CARTESIAN_POINT('',(11.0515378619027,-2.22044604925031E-15,9.15634196651445E-17));
#434=CARTESIAN_POINT('',(0.0,0.0,0.0));
#435=CARTESIAN_POINT('',(10.0698134975032,3.175,0.0));
#436=CARTESIAN_POINT('',(10.0698134975032,3.175,-3.175));
#437=CARTESIAN_POINT('',(8.73460976645567,2.75401188069402,-3.175));
#438=CARTESIAN_POINT('',(10.0698134975032,5.96015901913327,-3.175));
#439=CARTESIAN_POINT('',(9.19165623193508,5.96015901913327,-3.175));
#440=CARTESIAN_POINT('',(18.9032093663413,5.96015901913328,-3.175));
#441=CARTESIAN_POINT('',(11.6673150823686,0.893531295807048,-3.175));
#442=CARTESIAN_POINT('',(10.9479707630713,0.389840980866716,-3.175));
#443=CARTESIAN_POINT('',(10.0698134975032,0.389840980866715,-3.175));
#444=CARTESIAN_POINT('',(1.23641762866507,0.389840980866715,-3.175));
#445=CARTESIAN_POINT('',(8.47231191263775,5.45646870419294,-3.175));
#446=CARTESIAN_POINT('',(9.82493431578671,2.70459146865531,-3.175));
#447=CARTESIAN_POINT('',(10.0698134975032,6.35,-5.81748951963656E-15));
#448=CARTESIAN_POINT('',(19.8249453232094,6.35,-4.64355953780962E-15));
#449=CARTESIAN_POINT('',(9.1000233945215,6.35,-5.93419380393636E-15));
#450=CARTESIAN_POINT('',(19.8249453232094,6.35,-4.695485512529E-15));
#451=CARTESIAN_POINT('',(19.8249453232094,6.25078125,-0.808071872150616));
#452=CARTESIAN_POINT('',(18.8307603948783,5.93731594617547,-3.36104189964792));
#453=CARTESIAN_POINT('',(9.07021574921528,6.3453190229239,-0.0381234989291223));
#454=CARTESIAN_POINT('',(9.1000233945215,6.25078124999999,-0.808071872150688));
#455=CARTESIAN_POINT('',(9.1000233945215,6.35,-6.08400198948732E-15));
#456=CARTESIAN_POINT('',(10.0698134975032,6.35,-5.81748951963656E-15));
#457=CARTESIAN_POINT('',(1.30886660012807,0.412684053824528,-3.36104189964792));
#458=CARTESIAN_POINT('',(0.314681671796975,0.0992187499999973,-0.808071872150619));
#459=CARTESIAN_POINT('',(0.25777213475277,0.180493991894297,-1.37148141276276E-15));
#460=CARTESIAN_POINT('',(0.25777213475277,0.180493991894297,-1.39407891457401E-15));
#461=CARTESIAN_POINT('',(8.24870831208862,5.77580774061755,-5.51506228827902E-15));
#462=CARTESIAN_POINT('',(9.0431138574773,6.3320564918943,-5.92474295295644E-15));
#463=CARTESIAN_POINT('',(9.0431138574773,6.3320564918943,-6.1212962982564E-15));
#464=CARTESIAN_POINT('',(8.24870831208861,5.77580774061754,-5.51506228827902E-15));
#465=CARTESIAN_POINT('',(11.0694112457911,0.00468097707609057,-0.0381234989291166));
#466=CARTESIAN_POINT('',(11.0396036004849,0.099218750000003,-0.80807187215066));
#467=CARTESIAN_POINT('',(11.0396036004849,-3.03576608295941E-15,-4.02881290547895E-17));
#468=CARTESIAN_POINT('',(11.0396036004849,-3.03576608295941E-15,6.73590081828051E-17));
#469=CARTESIAN_POINT('',(10.0698134975032,-3.03576608295941E-15,-4.93452761169949E-17));
#470=CARTESIAN_POINT('',(0.314681671796975,-3.46944695195361E-15,-1.22327525794395E-15));
#471=CARTESIAN_POINT('',(0.314681671796975,-3.46944695195361E-15,-1.31446678228606E-15));
#472=CARTESIAN_POINT('',(10.0698134975032,-3.46944695195361E-15,-4.9345276116996E-17));
#473=CARTESIAN_POINT('',(19.8818548602536,6.1695060081057,-4.79815038307501E-15));
#474=CARTESIAN_POINT('',(19.8818548602536,6.1695060081057,-4.47275588117955E-15));
#475=CARTESIAN_POINT('',(11.8909186829178,0.574192259382455,-3.51772507474546E-16));
#476=CARTESIAN_POINT('',(11.0965131375291,0.0179435081056993,5.79081572028807E-17));
#477=CARTESIAN_POINT('',(11.0965131375291,0.0179435081056993,-3.68399173529509E-17));
#478=CARTESIAN_POINT('',(11.8909186829178,0.57419225938245,-3.51772507474542E-16));
#479=CARTESIAN_POINT('',(10.0698134975032,3.175,-6.93889390390723E-15));
#480=CARTESIAN_POINT('',(8.2362447524639,2.59687799536275,-6.93889390390723E-15));
#481=CARTESIAN_POINT('',(19.8249453232094,6.25078125,-4.55343228400462E-15));
#482=CARTESIAN_POINT('',(9.1000233945215,6.25078124999999,-5.84406655013137E-15));
#483=CARTESIAN_POINT('',(0.314681671796975,0.0992187499999986,-1.31340251174894E-15));
#484=CARTESIAN_POINT('',(11.0396036004849,0.0992187499999977,-2.27682456221891E-17));
#485=CARTESIAN_POINT('',(10.0698134975032,3.175,-2.93341739787678E-15));
#486=CARTESIAN_POINT('',(19.8249453232094,6.25078125,-4.77048955893622E-15));
#487=CARTESIAN_POINT('',(11.0396036004849,0.0992187499999977,0.0));
#488=CARTESIAN_POINT('',(0.314681671796975,0.0992187499999986,-1.30104260698261E-15));
#489=CARTESIAN_POINT('',(9.1000233945215,6.25078124999999,-6.07153216591882E-15));
#490=CARTESIAN_POINT('',(10.0698134975032,3.175,-0.544403327785284));
#491=CARTESIAN_POINT('',(11.8670757745315,3.7416746192449,-0.544403327785284));
#492=CARTESIAN_POINT('',(10.0698134975032,3.175,-0.680000000032648));
#493=CARTESIAN_POINT('',(10.0698134975032,3.175,-0.782283357604644));
#494=CARTESIAN_POINT('',(11.7910340196016,3.71769874601128,-0.782283357604644));
#495=CARTESIAN_POINT('',(10.0698134975032,3.175,-2.14607469113957));
#496=CARTESIAN_POINT('',(8.73460976645567,2.75401188069402,-2.14607469113957));
#497=CARTESIAN_POINT('',(10.0698134975032,3.175,-2.14607469113958));
#498=CARTESIAN_POINT('',(10.0698134975032,3.175,-33.3676978394524));
#499=CARTESIAN_POINT('',(10.0698134975032,3.175,-0.509525090897632));
#500=MECHANICAL_DESIGN_GEOMETRIC_PRESENTATION_REPRESENTATION('',(#269,#270,#271,
     #272),#501);
#501=(GEOMETRIC_REPRESENTATION_CONTEXT(3)GLOBAL_UNCERTAINTY_ASSIGNED_CONTEXT((#502))
     GLOBAL_UNIT_ASSIGNED_CONTEXT((#508,#504,#503))REPRESENTATION_CONTEXT('VCET110301',
     'TOP_LEVEL_ASSEMBLY_PART'));
#502=UNCERTAINTY_MEASURE_WITH_UNIT(LENGTH_MEASURE(2.0E-5),#508,'DISTANCE_ACCURACY_VALUE',
     'Maximum Tolerance applied to model');
#503=(NAMED_UNIT(*)SI_UNIT($,.STERADIAN.)SOLID_ANGLE_UNIT());
#504=(CONVERSION_BASED_UNIT('DEGREE',#506)NAMED_UNIT(#505)PLANE_ANGLE_UNIT());
#505=DIMENSIONAL_EXPONENTS(0.0,0.0,0.0,0.0,0.0,0.0,0.0);
#506=PLANE_ANGLE_MEASURE_WITH_UNIT(PLANE_ANGLE_MEASURE(0.0174532925),#507);
#507=(NAMED_UNIT(*)PLANE_ANGLE_UNIT()SI_UNIT($,.RADIAN.));
#508=(LENGTH_UNIT()NAMED_UNIT(*)SI_UNIT(.MILLI.,.METRE.));
#509=CONSTRUCTIVE_GEOMETRY_REPRESENTATION('supplemental geometry',(#286,#287),#501);
#510=CONSTRUCTIVE_GEOMETRY_REPRESENTATION_RELATIONSHIP('supplemental geometry','contains PCS and MCS coordinate systems',
     #24,#509);
ENDSEC;
END-ISO-10303-21;
