ISO-10303-21;
HEADER;
FILE_DESCRIPTION(
/* description */ (''),
/* implementation_level */ '2;1');
FILE_NAME(
/* name */ 'DNMG190608.stp',
/* time_stamp */ '2017-03-21T10:54:10',
/* author */ ('Sandvik Coromant R&D'),
/* organization */ ('Sandvik Machining Solutions'),
/* preprocessor_version */ 'ST-DEVELOPER v15',
/* originating_system */ 'SIEMENS PLM Software NX v8.5.3.3(64 bits)',
/* authorization */ '');
FILE_SCHEMA(('AUTOMOTIVE_DESIGN'));
ENDSEC;
DATA;
#10=GEOMETRICALLY_BOUNDED_WIREFRAME_SHAPE_REPRESENTATION('IsoTurningInsert-None',
     (#25),#463);
#11=SHAPE_REPRESENTATION_RELATIONSHIP('None','relationship between IsoTurningInsert-None and IsoTurningInsert-None',
     #24,#13);
#12=SHAPE_REPRESENTATION_RELATIONSHIP('None','relationship between IsoTurningInsert-None and IsoTurningInsert-None',
     #24,#10);
#13=ADVANCED_BREP_SHAPE_REPRESENTATION('IsoTurningInsert-None',(#31),#463);
#14=SHAPE_DEFINITION_REPRESENTATION(#15,#24);
#15=PRODUCT_DEFINITION_SHAPE('','',#16);
#16=PRODUCT_DEFINITION(' ','',#18,#17);
#17=PRODUCT_DEFINITION_CONTEXT('part definition',#23,'design');
#18=PRODUCT_DEFINITION_FORMATION_WITH_SPECIFIED_SOURCE(' ',' ',#20,.NOT_KNOWN.);
#19=PRODUCT_RELATED_PRODUCT_CATEGORY('part','',(#20));
#20=PRODUCT('IsoTurningInsert','IsoTurningInsert',' ',(#21));
#21=PRODUCT_CONTEXT(' ',#23,'mechanical');
#22=APPLICATION_PROTOCOL_DEFINITION('international standard','automotive_design',
     2010,#23);
#23=APPLICATION_CONTEXT('core data for automotive mechanical design processes');
#24=SHAPE_REPRESENTATION('IsoTurningInsert-None',(#248),#463);
#25=GEOMETRIC_CURVE_SET('geometric curve set',(#228));
#26=SURFACE_STYLE_USAGE(.BOTH.,#27);
#27=SURFACE_SIDE_STYLE('',(#28));
#28=SURFACE_STYLE_FILL_AREA(#29);
#29=FILL_AREA_STYLE('',(#30));
#30=FILL_AREA_STYLE_COLOUR('',#247);
#31=MANIFOLD_SOLID_BREP('CUT',#32);
#32=CLOSED_SHELL('',(#46,#47,#48,#49,#50,#51,#52,#53,#54,#55,#56));
#33=CYLINDRICAL_SURFACE('',#267,0.793749999999998);
#34=CYLINDRICAL_SURFACE('',#268,0.793749999999998);
#35=CYLINDRICAL_SURFACE('',#269,0.793749999999998);
#36=CYLINDRICAL_SURFACE('',#270,0.793749999999998);
#37=CYLINDRICAL_SURFACE('',#271,3.175);
#38=FACE_OUTER_BOUND('',#103,.T.);
#39=FACE_OUTER_BOUND('',#104,.T.);
#40=FACE_OUTER_BOUND('',#105,.T.);
#41=FACE_OUTER_BOUND('',#106,.T.);
#42=FACE_OUTER_BOUND('',#109,.T.);
#43=FACE_OUTER_BOUND('',#110,.T.);
#44=FACE_OUTER_BOUND('',#111,.T.);
#45=FACE_OUTER_BOUND('',#112,.T.);
#46=ADVANCED_FACE('',(#95,#96),#57,.F.);
#47=ADVANCED_FACE('',(#38),#58,.T.);
#48=ADVANCED_FACE('',(#39),#59,.T.);
#49=ADVANCED_FACE('',(#40),#60,.T.);
#50=ADVANCED_FACE('',(#41),#61,.T.);
#51=ADVANCED_FACE('',(#97,#98),#62,.T.);
#52=ADVANCED_FACE('',(#42),#33,.T.);
#53=ADVANCED_FACE('',(#43),#34,.T.);
#54=ADVANCED_FACE('',(#44),#35,.T.);
#55=ADVANCED_FACE('',(#45),#36,.T.);
#56=ADVANCED_FACE('',(#99,#100),#37,.F.);
#57=PLANE('',#256);
#58=PLANE('',#257);
#59=PLANE('',#258);
#60=PLANE('',#259);
#61=PLANE('',#260);
#62=PLANE('',#266);
#63=LINE('',#409,#79);
#64=LINE('',#414,#80);
#65=LINE('',#418,#81);
#66=LINE('',#422,#82);
#67=LINE('',#426,#83);
#68=LINE('',#429,#84);
#69=LINE('',#430,#85);
#70=LINE('',#432,#86);
#71=LINE('',#434,#87);
#72=LINE('',#436,#88);
#73=LINE('',#438,#89);
#74=LINE('',#440,#90);
#75=LINE('',#442,#91);
#76=LINE('',#444,#92);
#77=LINE('',#446,#93);
#78=LINE('',#448,#94);
#79=VECTOR('',#280,1.0);
#80=VECTOR('',#283,1.0);
#81=VECTOR('',#286,1.0);
#82=VECTOR('',#289,1.0);
#83=VECTOR('',#294,1.0);
#84=VECTOR('',#295,1.0);
#85=VECTOR('',#296,1.0);
#86=VECTOR('',#299,1.0);
#87=VECTOR('',#300,1.0);
#88=VECTOR('',#301,1.0);
#89=VECTOR('',#304,1.0);
#90=VECTOR('',#305,1.0);
#91=VECTOR('',#306,1.0);
#92=VECTOR('',#309,1.0);
#93=VECTOR('',#310,1.0);
#94=VECTOR('',#311,1.0);
#95=FACE_BOUND('',#101,.T.);
#96=FACE_BOUND('',#102,.T.);
#97=FACE_BOUND('',#107,.T.);
#98=FACE_BOUND('',#108,.T.);
#99=FACE_BOUND('',#113,.T.);
#100=FACE_BOUND('',#114,.T.);
#101=EDGE_LOOP('',(#115));
#102=EDGE_LOOP('',(#116,#117,#118,#119,#120,#121,#122,#123));
#103=EDGE_LOOP('',(#124,#125,#126,#127));
#104=EDGE_LOOP('',(#128,#129,#130,#131));
#105=EDGE_LOOP('',(#132,#133,#134,#135));
#106=EDGE_LOOP('',(#136,#137,#138,#139));
#107=EDGE_LOOP('',(#140));
#108=EDGE_LOOP('',(#141,#142,#143,#144,#145,#146,#147,#148));
#109=EDGE_LOOP('',(#149,#150,#151,#152));
#110=EDGE_LOOP('',(#153,#154,#155,#156));
#111=EDGE_LOOP('',(#157,#158,#159,#160));
#112=EDGE_LOOP('',(#161,#162,#163,#164));
#113=EDGE_LOOP('',(#165));
#114=EDGE_LOOP('',(#166));
#115=ORIENTED_EDGE('',*,*,#185,.T.);
#116=ORIENTED_EDGE('',*,*,#186,.T.);
#117=ORIENTED_EDGE('',*,*,#187,.T.);
#118=ORIENTED_EDGE('',*,*,#188,.T.);
#119=ORIENTED_EDGE('',*,*,#189,.T.);
#120=ORIENTED_EDGE('',*,*,#190,.T.);
#121=ORIENTED_EDGE('',*,*,#191,.T.);
#122=ORIENTED_EDGE('',*,*,#192,.T.);
#123=ORIENTED_EDGE('',*,*,#193,.T.);
#124=ORIENTED_EDGE('',*,*,#194,.F.);
#125=ORIENTED_EDGE('',*,*,#195,.T.);
#126=ORIENTED_EDGE('',*,*,#186,.F.);
#127=ORIENTED_EDGE('',*,*,#196,.T.);
#128=ORIENTED_EDGE('',*,*,#192,.F.);
#129=ORIENTED_EDGE('',*,*,#197,.T.);
#130=ORIENTED_EDGE('',*,*,#198,.F.);
#131=ORIENTED_EDGE('',*,*,#199,.T.);
#132=ORIENTED_EDGE('',*,*,#190,.F.);
#133=ORIENTED_EDGE('',*,*,#200,.T.);
#134=ORIENTED_EDGE('',*,*,#201,.F.);
#135=ORIENTED_EDGE('',*,*,#202,.T.);
#136=ORIENTED_EDGE('',*,*,#188,.F.);
#137=ORIENTED_EDGE('',*,*,#203,.T.);
#138=ORIENTED_EDGE('',*,*,#204,.F.);
#139=ORIENTED_EDGE('',*,*,#205,.T.);
#140=ORIENTED_EDGE('',*,*,#206,.F.);
#141=ORIENTED_EDGE('',*,*,#204,.T.);
#142=ORIENTED_EDGE('',*,*,#207,.T.);
#143=ORIENTED_EDGE('',*,*,#194,.T.);
#144=ORIENTED_EDGE('',*,*,#208,.T.);
#145=ORIENTED_EDGE('',*,*,#198,.T.);
#146=ORIENTED_EDGE('',*,*,#209,.T.);
#147=ORIENTED_EDGE('',*,*,#201,.T.);
#148=ORIENTED_EDGE('',*,*,#210,.T.);
#149=ORIENTED_EDGE('',*,*,#187,.F.);
#150=ORIENTED_EDGE('',*,*,#195,.F.);
#151=ORIENTED_EDGE('',*,*,#207,.F.);
#152=ORIENTED_EDGE('',*,*,#203,.F.);
#153=ORIENTED_EDGE('',*,*,#189,.F.);
#154=ORIENTED_EDGE('',*,*,#205,.F.);
#155=ORIENTED_EDGE('',*,*,#210,.F.);
#156=ORIENTED_EDGE('',*,*,#200,.F.);
#157=ORIENTED_EDGE('',*,*,#191,.F.);
#158=ORIENTED_EDGE('',*,*,#202,.F.);
#159=ORIENTED_EDGE('',*,*,#209,.F.);
#160=ORIENTED_EDGE('',*,*,#197,.F.);
#161=ORIENTED_EDGE('',*,*,#193,.F.);
#162=ORIENTED_EDGE('',*,*,#199,.F.);
#163=ORIENTED_EDGE('',*,*,#208,.F.);
#164=ORIENTED_EDGE('',*,*,#196,.F.);
#165=ORIENTED_EDGE('',*,*,#185,.F.);
#166=ORIENTED_EDGE('',*,*,#206,.T.);
#167=VERTEX_POINT('',#408);
#168=VERTEX_POINT('',#410);
#169=VERTEX_POINT('',#411);
#170=VERTEX_POINT('',#413);
#171=VERTEX_POINT('',#415);
#172=VERTEX_POINT('',#417);
#173=VERTEX_POINT('',#419);
#174=VERTEX_POINT('',#421);
#175=VERTEX_POINT('',#423);
#176=VERTEX_POINT('',#427);
#177=VERTEX_POINT('',#428);
#178=VERTEX_POINT('',#433);
#179=VERTEX_POINT('',#435);
#180=VERTEX_POINT('',#439);
#181=VERTEX_POINT('',#441);
#182=VERTEX_POINT('',#445);
#183=VERTEX_POINT('',#447);
#184=VERTEX_POINT('',#451);
#185=EDGE_CURVE('',#167,#167,#211,.T.);
#186=EDGE_CURVE('',#168,#169,#63,.T.);
#187=EDGE_CURVE('',#169,#170,#212,.T.);
#188=EDGE_CURVE('',#170,#171,#64,.T.);
#189=EDGE_CURVE('',#171,#172,#213,.T.);
#190=EDGE_CURVE('',#172,#173,#65,.T.);
#191=EDGE_CURVE('',#173,#174,#214,.T.);
#192=EDGE_CURVE('',#174,#175,#66,.T.);
#193=EDGE_CURVE('',#175,#168,#215,.T.);
#194=EDGE_CURVE('',#176,#177,#67,.T.);
#195=EDGE_CURVE('',#176,#169,#68,.T.);
#196=EDGE_CURVE('',#168,#177,#69,.T.);
#197=EDGE_CURVE('',#174,#178,#70,.T.);
#198=EDGE_CURVE('',#179,#178,#71,.T.);
#199=EDGE_CURVE('',#179,#175,#72,.T.);
#200=EDGE_CURVE('',#172,#180,#73,.T.);
#201=EDGE_CURVE('',#181,#180,#74,.T.);
#202=EDGE_CURVE('',#181,#173,#75,.T.);
#203=EDGE_CURVE('',#170,#182,#76,.T.);
#204=EDGE_CURVE('',#183,#182,#77,.T.);
#205=EDGE_CURVE('',#183,#171,#78,.T.);
#206=EDGE_CURVE('',#184,#184,#216,.T.);
#207=EDGE_CURVE('',#182,#176,#217,.T.);
#208=EDGE_CURVE('',#177,#179,#218,.T.);
#209=EDGE_CURVE('',#178,#181,#219,.T.);
#210=EDGE_CURVE('',#180,#183,#220,.T.);
#211=CIRCLE('',#251,3.175);
#212=CIRCLE('',#252,0.793749999999998);
#213=CIRCLE('',#253,0.793749999999998);
#214=CIRCLE('',#254,0.793749999999998);
#215=CIRCLE('',#255,0.793749999999998);
#216=CIRCLE('',#261,3.175);
#217=CIRCLE('',#262,0.793749999999998);
#218=CIRCLE('',#263,0.793749999999998);
#219=CIRCLE('',#264,0.793749999999998);
#220=CIRCLE('',#265,0.793749999999998);
#221=CURVE_STYLE('',#225,POSITIVE_LENGTH_MEASURE(0.18),#224);
#222=CURVE_STYLE('',#226,POSITIVE_LENGTH_MEASURE(0.18),#246);
#223=CURVE_STYLE('',#227,POSITIVE_LENGTH_MEASURE(0.18),#246);
#224=DRAUGHTING_PRE_DEFINED_COLOUR('blue');
#225=DRAUGHTING_PRE_DEFINED_CURVE_FONT('continuous');
#226=DRAUGHTING_PRE_DEFINED_CURVE_FONT('continuous');
#227=DRAUGHTING_PRE_DEFINED_CURVE_FONT('continuous');
#228=B_SPLINE_CURVE_WITH_KNOTS('CUTTING EDGE LINE',5,(#339,#340,#341,#342,#343,#344,
     #345,#346,#347,#348,#349,#350,#351,#352,#353,#354,#355,#356,#357,#358,#359,
     #360,#361,#362,#363,#364,#365,#366,#367,#368,#369,#370,#371,#372,#373,#374,
     #375,#376,#377,#378,#379,#380,#381,#382,#383,#384,#385,#386,#387,#388,#389,
     #390,#391,#392,#393,#394,#395,#396,#397,#398,#399,#400,#401,#402,#403,#404),
     .UNSPECIFIED.,.T.,.F.,(2,4,1,4,4,1,1,1,1,1,1,1,1,1,1,1,1,1,1,1,4,4,1,4,4,1,
     1,1,1,1,1,1,1,1,1,1,1,1,1,1,4,4,1,1),(-0.2333211537,0.0,0.0050963141,0.0101926282,
     0.2435137819,0.244961598425,0.24640941495,0.247857231475,0.249305048,0.250752864525,
     0.25220068105,0.253648497575,0.2550963141,0.256544130625,0.25799194715,0.259439763675,
     0.260887580200014,0.262335396725,0.26378321325,0.265231029775,0.2666788463,
     0.5,0.5050963141,0.5101926282,0.7435137819,0.744961598425,0.74640941495,0.747857231475,
     0.749305048000005,0.750752864525,0.75220068105,0.753648497575,0.7550963141,
     0.756544130625,0.75799194715,0.759439763675,0.760887580200004,0.762335396725,
     0.76378321325,0.765231029775,0.7666788463,1.0,1.0050963141,1.0101926282),.UNSPECIFIED.);
#229=PRESENTATION_LAYER_ASSIGNMENT('1','Layer 1',(#228,#249,#250,#31));
#232=STYLED_ITEM('',(#238),#228);
#233=STYLED_ITEM('',(#239),#249);
#234=STYLED_ITEM('',(#240),#250);
#235=STYLED_ITEM('',(#241),#31);
#236=PRESENTATION_STYLE_ASSIGNMENT((#242));
#237=PRESENTATION_STYLE_ASSIGNMENT((#243));
#238=PRESENTATION_STYLE_ASSIGNMENT((#221));
#239=PRESENTATION_STYLE_ASSIGNMENT((#222));
#240=PRESENTATION_STYLE_ASSIGNMENT((#223));
#241=PRESENTATION_STYLE_ASSIGNMENT((#26));
#242=POINT_STYLE('',#244,POSITIVE_LENGTH_MEASURE(3.0),#246);
#243=POINT_STYLE('',#245,POSITIVE_LENGTH_MEASURE(3.0),#246);
#244=PRE_DEFINED_POINT_MARKER_SYMBOL('plus');
#245=PRE_DEFINED_POINT_MARKER_SYMBOL('plus');
#246=COLOUR_RGB('Medium Maroon',0.6,0.4,0.4);
#247=COLOUR_RGB('IsoInsertColor',0.8,0.8,0.8);
#248=AXIS2_PLACEMENT_3D('',#336,#272,#273);
#249=AXIS2_PLACEMENT_3D('PCS',#405,#274,#275);
#250=AXIS2_PLACEMENT_3D('MCS',#406,#276,#277);
#251=AXIS2_PLACEMENT_3D('',#407,#278,#279);
#252=AXIS2_PLACEMENT_3D('',#412,#281,#282);
#253=AXIS2_PLACEMENT_3D('',#416,#284,#285);
#254=AXIS2_PLACEMENT_3D('',#420,#287,#288);
#255=AXIS2_PLACEMENT_3D('',#424,#290,#291);
#256=AXIS2_PLACEMENT_3D('',#425,#292,#293);
#257=AXIS2_PLACEMENT_3D('',#431,#297,#298);
#258=AXIS2_PLACEMENT_3D('',#437,#302,#303);
#259=AXIS2_PLACEMENT_3D('',#443,#307,#308);
#260=AXIS2_PLACEMENT_3D('',#449,#312,#313);
#261=AXIS2_PLACEMENT_3D('',#450,#314,#315);
#262=AXIS2_PLACEMENT_3D('',#452,#316,#317);
#263=AXIS2_PLACEMENT_3D('',#453,#318,#319);
#264=AXIS2_PLACEMENT_3D('',#454,#320,#321);
#265=AXIS2_PLACEMENT_3D('',#455,#322,#323);
#266=AXIS2_PLACEMENT_3D('',#456,#324,#325);
#267=AXIS2_PLACEMENT_3D('',#457,#326,#327);
#268=AXIS2_PLACEMENT_3D('',#458,#328,#329);
#269=AXIS2_PLACEMENT_3D('',#459,#330,#331);
#270=AXIS2_PLACEMENT_3D('',#460,#332,#333);
#271=AXIS2_PLACEMENT_3D('',#461,#334,#335);
#272=DIRECTION('',(0.0,0.0,1.0));
#273=DIRECTION('',(1.0,0.0,0.0));
#274=DIRECTION('',(0.0,0.0,1.0));
#275=DIRECTION('',(1.0,0.0,0.0));
#276=DIRECTION('',(0.0,0.0,1.0));
#277=DIRECTION('',(1.0,0.0,0.0));
#278=DIRECTION('',(0.0,0.0,1.0));
#279=DIRECTION('',(-0.887010833178222,-0.461748613235034,0.0));
#280=DIRECTION('',(1.0,5.55111512312578E-16,0.0));
#281=DIRECTION('',(0.0,0.0,-1.0));
#282=DIRECTION('',(-0.887010833178221,-0.461748613235033,0.0));
#283=DIRECTION('',(-0.573576436351045,-0.819152044288992,0.0));
#284=DIRECTION('',(0.0,0.0,-1.0));
#285=DIRECTION('',(-0.887010833178221,-0.461748613235034,0.0));
#286=DIRECTION('',(-1.0,2.77555756156289E-16,0.0));
#287=DIRECTION('',(0.0,0.0,-1.0));
#288=DIRECTION('',(-0.887010833178222,-0.461748613235034,0.0));
#289=DIRECTION('',(0.573576436351046,0.819152044288992,0.0));
#290=DIRECTION('',(0.0,0.0,-1.0));
#291=DIRECTION('',(-0.887010833178221,-0.461748613235033,0.0));
#292=DIRECTION('',(0.0,0.0,1.0));
#293=DIRECTION('',(-0.887010833178222,-0.461748613235034,0.0));
#294=DIRECTION('',(-1.0,-5.55111512312578E-16,-6.87451812463677E-17));
#295=DIRECTION('',(6.87451812463679E-17,-3.42738381761054E-16,-1.0));
#296=DIRECTION('',(-6.87451812463679E-17,3.42738381761054E-16,1.0));
#297=DIRECTION('',(-5.55111512312578E-16,1.0,-3.42738381761054E-16));
#298=DIRECTION('',(-1.0,-5.55111512312578E-16,0.0));
#299=DIRECTION('',(-6.87451812463679E-17,3.42738381761054E-16,1.0));
#300=DIRECTION('',(-0.573576436351046,-0.819152044288992,2.4132423000027E-16));
#301=DIRECTION('',(6.87451812463679E-17,-3.42738381761054E-16,-1.0));
#302=DIRECTION('',(-0.819152044288992,0.573576436351046,-2.52899415364209E-16));
#303=DIRECTION('',(-0.573576436351046,-0.819152044288992,0.0));
#304=DIRECTION('',(-6.87451812463679E-17,3.42738381761054E-16,1.0));
#305=DIRECTION('',(1.0,-2.77555756156289E-16,6.8745181246368E-17));
#306=DIRECTION('',(6.87451812463679E-17,-3.42738381761054E-16,-1.0));
#307=DIRECTION('',(-2.77555756156289E-16,-1.0,3.42738381761054E-16));
#308=DIRECTION('',(1.0,-2.77555756156289E-16,0.0));
#309=DIRECTION('',(-6.87451812463679E-17,3.42738381761054E-16,1.0));
#310=DIRECTION('',(0.573576436351045,0.819152044288992,-2.4132423000027E-16));
#311=DIRECTION('',(6.87451812463679E-17,-3.42738381761054E-16,-1.0));
#312=DIRECTION('',(0.819152044288992,-0.573576436351045,2.52899415364209E-16));
#313=DIRECTION('',(0.573576436351045,0.819152044288992,0.0));
#314=DIRECTION('',(0.0,0.0,1.0));
#315=DIRECTION('',(-0.887010833178222,-0.461748613235034,0.0));
#316=DIRECTION('',(-6.87451812463679E-17,3.42738381761054E-16,1.0));
#317=DIRECTION('',(-0.461748613235033,0.887010833178223,-3.3575564967513E-16));
#318=DIRECTION('',(-6.87451812463679E-17,3.42738381761054E-16,1.0));
#319=DIRECTION('',(-0.461748613235033,0.887010833178223,-3.3575564967513E-16));
#320=DIRECTION('',(-6.87451812463679E-17,3.42738381761054E-16,1.0));
#321=DIRECTION('',(-0.461748613235034,0.887010833178222,-3.3575564967513E-16));
#322=DIRECTION('',(-6.87451812463679E-17,3.42738381761054E-16,1.0));
#323=DIRECTION('',(-0.461748613235033,0.887010833178222,-3.3575564967513E-16));
#324=DIRECTION('',(-6.87451812463679E-17,3.42738381761054E-16,1.0));
#325=DIRECTION('',(-0.461748613235034,0.887010833178222,-3.35755649675129E-16));
#326=DIRECTION('',(-6.87451812463679E-17,3.42738381761054E-16,1.0));
#327=DIRECTION('',(-0.461748613235033,0.887010833178223,-3.3575564967513E-16));
#328=DIRECTION('',(-6.87451812463679E-17,3.42738381761054E-16,1.0));
#329=DIRECTION('',(-0.461748613235033,0.887010833178222,-3.3575564967513E-16));
#330=DIRECTION('',(-6.87451812463679E-17,3.42738381761054E-16,1.0));
#331=DIRECTION('',(-0.461748613235034,0.887010833178222,-3.3575564967513E-16));
#332=DIRECTION('',(-6.87451812463679E-17,3.42738381761054E-16,1.0));
#333=DIRECTION('',(-0.461748613235033,0.887010833178223,-3.3575564967513E-16));
#334=DIRECTION('',(0.0,0.0,1.0));
#335=DIRECTION('',(-0.887010833178222,-0.461748613235034,0.0));
#336=CARTESIAN_POINT('',(0.0,0.0,0.0));
#339=CARTESIAN_POINT('',(15.4782331128268,8.88178419700125E-16,0.0));
#340=CARTESIAN_POINT('',(19.0398990925637,1.77635683940025E-15,2.77087790519839E-16));
#341=CARTESIAN_POINT('',(19.1865042772659,0.0169236851823174,2.81365794041022E-16));
#342=CARTESIAN_POINT('',(19.3436459357216,0.0694447734028527,2.7589746963634E-16));
#343=CARTESIAN_POINT('',(19.476801444965,0.168042825554995,2.3596071474819E-16));
#344=CARTESIAN_POINT('',(19.574753795671,0.278427735270303,1.5593879708824E-16));
#345=CARTESIAN_POINT('',(21.6176414758013,3.19597370364636,2.00738910945341E-17));
#346=CARTESIAN_POINT('',(23.6184845162355,6.05347370364636,2.46519032881566E-33));
#347=CARTESIAN_POINT('',(25.6193275566698,8.91097370364636,5.91645678915759E-32));
#348=CARTESIAN_POINT('',(27.620170597104,11.7684737036464,2.00738910945342E-17));
#349=CARTESIAN_POINT('',(29.6328228959194,14.6428390724645,1.05437821411209E-16));
#350=CARTESIAN_POINT('',(29.6553477498902,14.6773356010316,1.13146535378071E-16));
#351=CARTESIAN_POINT('',(29.6870069341162,14.7332798940184,1.18580593438874E-16));
#352=CARTESIAN_POINT('',(29.7214719774515,14.8120986993528,1.145001166272E-16));
#353=CARTESIAN_POINT('',(29.7517159999763,14.9186536014598,9.58870135268695E-17));
#354=CARTESIAN_POINT('',(29.7667528601746,15.0290198169659,6.74547469284232E-17));
#355=CARTESIAN_POINT('',(29.7662057280416,15.1406999287677,3.29634766109836E-17));
#356=CARTESIAN_POINT('',(29.7503410470987,15.2497535358163,-4.28131161445996E-18));
#357=CARTESIAN_POINT('',(29.7199186090908,15.354295966339,-4.20643945477182E-17));
#358=CARTESIAN_POINT('',(29.6777750545422,15.4492718270849,-7.75311277573554E-17));
#359=CARTESIAN_POINT('',(29.6241479338947,15.5382697216794,-1.11757121468268E-16));
#360=CARTESIAN_POINT('',(29.5559613817883,15.6231533987239,-1.45344091669981E-16));
#361=CARTESIAN_POINT('',(29.4757295037991,15.6986995638476,-1.75097236445118E-16));
#362=CARTESIAN_POINT('',(29.3845603340081,15.7632048287935,-1.98290629874643E-16));
#363=CARTESIAN_POINT('',(29.2855288342699,15.8141908146049,-2.11242999780008E-16));
#364=CARTESIAN_POINT('',(29.180896909719,15.8505337427529,-2.09440908004952E-16));
#365=CARTESIAN_POINT('',(29.0965639874663,15.8675102415291,-1.93187279674791E-16));
#366=CARTESIAN_POINT('',(29.0325781434336,15.8736648842555,-1.69294901473441E-16));
#367=CARTESIAN_POINT('',(28.9914005160671,15.875,-1.48211343059257E-16));
#368=CARTESIAN_POINT('',(25.482448314998,15.875,-2.72048590522836E-17));
#369=CARTESIAN_POINT('',(21.9940849276122,15.875,5.91645678915759E-32));
#370=CARTESIAN_POINT('',(18.5057215402263,15.875,-3.94430452610506E-32));
#371=CARTESIAN_POINT('',(15.0173581528404,15.875,-2.72048590522837E-17));
#372=CARTESIAN_POINT('',(11.4556921731035,15.875,-1.92399359005166E-16));
#373=CARTESIAN_POINT('',(11.3090869884014,15.8580763148177,-2.62978926856738E-16));
#374=CARTESIAN_POINT('',(11.1519453299457,15.8055552265971,-2.78241941908169E-16));
#375=CARTESIAN_POINT('',(11.0187898207022,15.706957174445,-2.3596071474819E-16));
#376=CARTESIAN_POINT('',(10.9208374699962,15.5965722647297,-1.5593879708824E-16));
#377=CARTESIAN_POINT('',(8.87794978986596,12.6790262963536,-2.00738910945341E-17));
#378=CARTESIAN_POINT('',(6.87710674943171,9.82152629635363,1.4791141972894E-32));
#379=CARTESIAN_POINT('',(4.87626370899747,6.96402629635364,7.88860905221012E-32));
#380=CARTESIAN_POINT('',(2.87542066856322,4.10652629635364,-2.0073891094534E-17));
#381=CARTESIAN_POINT('',(0.862768369747846,1.23216092753552,-1.05437821411209E-16));
#382=CARTESIAN_POINT('',(0.840243515777072,1.19766439896844,-1.1314653537807E-16));
#383=CARTESIAN_POINT('',(0.808584331551042,1.14172010598156,-1.18580593438873E-16));
#384=CARTESIAN_POINT('',(0.774119288215703,1.06290130064719,-1.14500116627196E-16));
#385=CARTESIAN_POINT('',(0.743875265690873,0.956346398540152,-9.58870135268536E-17));
#386=CARTESIAN_POINT('',(0.728838405492606,0.845980183034072,-6.74547469284011E-17));
#387=CARTESIAN_POINT('',(0.729385537625671,0.734300071232252,-3.29634766109573E-17));
#388=CARTESIAN_POINT('',(0.745250218568536,0.625246464183586,4.28131161448622E-18));
#389=CARTESIAN_POINT('',(0.775672656576461,0.520704033661036,4.20643945477205E-17));
#390=CARTESIAN_POINT('',(0.817816211125022,0.425728172915065,7.75311277573574E-17));
#391=CARTESIAN_POINT('',(0.871443331772497,0.336730278320606,1.1175712146827E-16));
#392=CARTESIAN_POINT('',(0.939629883878879,0.251846601276234,1.45344091669935E-16));
#393=CARTESIAN_POINT('',(1.01986176186805,0.176300436152513,1.75097236445078E-16));
#394=CARTESIAN_POINT('',(1.11103093165904,0.111795171206622,1.98290629874618E-16));
#395=CARTESIAN_POINT('',(1.21006243139718,0.0608091853951045,2.11242999780004E-16));
#396=CARTESIAN_POINT('',(1.31469435594815,0.0244662572471581,2.09440908004982E-16));
#397=CARTESIAN_POINT('',(1.39902727820097,0.0074897584708804,1.93187279674791E-16));
#398=CARTESIAN_POINT('',(1.46301312223362,0.00133511574451273,1.6929490147344E-16));
#399=CARTESIAN_POINT('',(1.50419074960011,-1.77635683940025E-15,1.48211343059257E-16));
#400=CARTESIAN_POINT('',(5.01314295066923,1.77635683940025E-15,2.72048590522836E-17));
#401=CARTESIAN_POINT('',(8.50150633805509,8.88178419700125E-16,-1.97215226305253E-32));
#402=CARTESIAN_POINT('',(11.9898697254409,2.66453525910038E-15,0.0));
#403=CARTESIAN_POINT('',(15.4782331128268,8.88178419700125E-16,0.0));
#404=CARTESIAN_POINT('',(19.0398990925637,1.77635683940025E-15,2.77087790519839E-16));
#405=CARTESIAN_POINT('',(0.0,0.0,0.0));
#406=CARTESIAN_POINT('',(15.2477956328336,7.9375,0.0));
#407=CARTESIAN_POINT('',(15.2477956328336,7.9375,-6.35));
#408=CARTESIAN_POINT('',(12.4315362374928,6.47144815297877,-6.35));
#409=CARTESIAN_POINT('',(15.2477956328336,15.875,-6.35));
#410=CARTESIAN_POINT('',(11.5289947654546,15.875,-6.35));
#411=CARTESIAN_POINT('',(28.9708117023839,15.875,-6.35));
#412=CARTESIAN_POINT('',(28.9708117023839,15.08125,-6.35));
#413=CARTESIAN_POINT('',(29.6210136375383,14.6259737036464,-6.35));
#414=CARTESIAN_POINT('',(21.7498149843775,3.38473703646357,-6.35));
#415=CARTESIAN_POINT('',(19.6167984353671,0.338473703646358,-6.35));
#416=CARTESIAN_POINT('',(18.9665965002127,0.793749999999999,-6.35));
#417=CARTESIAN_POINT('',(18.9665965002127,0.0,-6.35));
#418=CARTESIAN_POINT('',(15.2477956328336,0.0,-6.35));
#419=CARTESIAN_POINT('',(1.52477956328336,5.20417042793042E-15,-6.35));
#420=CARTESIAN_POINT('',(1.52477956328337,0.793749999999999,-6.35));
#421=CARTESIAN_POINT('',(0.874577628128979,1.24902629635364,-6.35));
#422=CARTESIAN_POINT('',(8.74577628128976,12.4902629635364,-6.35));
#423=CARTESIAN_POINT('',(10.8787928303002,15.5365262963536,-6.35));
#424=CARTESIAN_POINT('',(11.5289947654546,15.08125,-6.35));
#425=CARTESIAN_POINT('',(15.0883223003549,7.43171520759503,-6.35));
#426=CARTESIAN_POINT('',(15.2477956328336,15.875,-5.65390330310514E-15));
#427=CARTESIAN_POINT('',(28.9708117023839,15.875,-4.71051207615709E-15));
#428=CARTESIAN_POINT('',(11.5289947654546,15.875,-5.90955294275226E-15));
#429=CARTESIAN_POINT('',(28.9708117023839,15.875,-4.33680868994202E-15));
#430=CARTESIAN_POINT('',(11.5289947654546,15.875,-5.20417042793042E-15));
#431=CARTESIAN_POINT('',(15.2477956328336,15.875,-5.65390330310514E-15));
#432=CARTESIAN_POINT('',(0.874577628128977,1.24902629635364,-8.67361737988404E-16));
#433=CARTESIAN_POINT('',(0.874577628128977,1.24902629635364,-1.62911022106464E-15));
#434=CARTESIAN_POINT('',(8.74577628128976,12.4902629635364,-4.94080650733019E-15));
#435=CARTESIAN_POINT('',(10.8787928303002,15.5365262963536,-5.83824326317477E-15));
#436=CARTESIAN_POINT('',(10.8787928303002,15.5365262963536,-5.20417042793042E-15));
#437=CARTESIAN_POINT('',(8.74577628128976,12.4902629635364,-4.94080650733019E-15));
#438=CARTESIAN_POINT('',(18.9665965002127,1.73472347597681E-15,5.77778983316171E-31));
#439=CARTESIAN_POINT('',(18.9665965002127,1.73472347597681E-15,4.27181469987092E-17));
#440=CARTESIAN_POINT('',(15.2477956328336,0.0,-2.12931492648412E-16));
#441=CARTESIAN_POINT('',(1.52477956328336,6.93889390390723E-15,-1.15632271959647E-15));
#442=CARTESIAN_POINT('',(1.52477956328336,6.93889390390723E-15,-8.67361737988403E-16));
#443=CARTESIAN_POINT('',(15.2477956328336,1.73472347597681E-15,-2.12931492648413E-16));
#444=CARTESIAN_POINT('',(29.6210136375383,14.6259737036464,-4.33680868994202E-15));
#445=CARTESIAN_POINT('',(29.6210136375383,14.6259737036464,-4.23772457468892E-15));
#446=CARTESIAN_POINT('',(21.7498149843775,3.38473703646358,-9.26028288423371E-16));
#447=CARTESIAN_POINT('',(19.616798435367,0.33847370364636,-2.85915325787862E-17));
#448=CARTESIAN_POINT('',(19.616798435367,0.33847370364636,0.0));
#449=CARTESIAN_POINT('',(21.7498149843775,3.38473703646358,-9.26028288423369E-16));
#450=CARTESIAN_POINT('',(15.2477956328336,7.9375,-6.93889390390723E-15));
#451=CARTESIAN_POINT('',(12.4315362374928,6.47144815297877,-6.93889390390723E-15));
#452=CARTESIAN_POINT('',(28.9708117023839,15.08125,-4.43846348563426E-15));
#453=CARTESIAN_POINT('',(11.5289947654546,15.08125,-5.63750435222943E-15));
#454=CARTESIAN_POINT('',(1.52477956328337,0.793750000000001,-1.4283713101193E-15));
#455=CARTESIAN_POINT('',(18.9665965002127,0.79375,-2.29330443524127E-16));
#456=CARTESIAN_POINT('',(15.2477956328336,7.9375,-2.93341739787678E-15));
#457=CARTESIAN_POINT('',(28.9708117023839,15.08125,-4.33680868994202E-15));
#458=CARTESIAN_POINT('',(18.9665965002127,0.79375,0.0));
#459=CARTESIAN_POINT('',(1.52477956328337,0.793750000000001,-8.67361737988404E-16));
#460=CARTESIAN_POINT('',(11.5289947654546,15.08125,-5.20417042793042E-15));
#461=CARTESIAN_POINT('',(15.2477956328336,7.9375,-33.3676978394524));
#462=MECHANICAL_DESIGN_GEOMETRIC_PRESENTATION_REPRESENTATION('',(#232,#233,#234,
     #235),#463);
#463=(GEOMETRIC_REPRESENTATION_CONTEXT(3)GLOBAL_UNCERTAINTY_ASSIGNED_CONTEXT((#464))
     GLOBAL_UNIT_ASSIGNED_CONTEXT((#470,#466,#465))REPRESENTATION_CONTEXT('DNMG190608',
     'TOP_LEVEL_ASSEMBLY_PART'));
#464=UNCERTAINTY_MEASURE_WITH_UNIT(LENGTH_MEASURE(2.0E-5),#470,'DISTANCE_ACCURACY_VALUE',
     'Maximum Tolerance applied to model');
#465=(NAMED_UNIT(*)SI_UNIT($,.STERADIAN.)SOLID_ANGLE_UNIT());
#466=(CONVERSION_BASED_UNIT('DEGREE',#468)NAMED_UNIT(#467)PLANE_ANGLE_UNIT());
#467=DIMENSIONAL_EXPONENTS(0.0,0.0,0.0,0.0,0.0,0.0,0.0);
#468=PLANE_ANGLE_MEASURE_WITH_UNIT(PLANE_ANGLE_MEASURE(0.0174532925),#469);
#469=(NAMED_UNIT(*)PLANE_ANGLE_UNIT()SI_UNIT($,.RADIAN.));
#470=(LENGTH_UNIT()NAMED_UNIT(*)SI_UNIT(.MILLI.,.METRE.));
#471=CONSTRUCTIVE_GEOMETRY_REPRESENTATION('supplemental geometry',(#249,#250),#463);
#472=CONSTRUCTIVE_GEOMETRY_REPRESENTATION_RELATIONSHIP('supplemental geometry','contains PCS and MCS coordinate systems',
     #24,#471);
ENDSEC;
END-ISO-10303-21;
