ISO-10303-21;
HEADER;
FILE_DESCRIPTION(
/* description */ (''),
/* implementation_level */ '2;1');
FILE_NAME(
/* name */ 'TPMT220408.stp',
/* time_stamp */ '2017-03-21T10:54:43',
/* author */ ('Sandvik Coromant R&D'),
/* organization */ ('Sandvik Machining Solutions'),
/* preprocessor_version */ 'ST-DEVELOPER v15',
/* originating_system */ 'SIEMENS PLM Software NX v8.5.3.3(64 bits)',
/* authorization */ '');
FILE_SCHEMA(('AUTOMOTIVE_DESIGN'));
ENDSEC;
DATA;
#10=GEOMETRICALLY_BOUNDED_WIREFRAME_SHAPE_REPRESENTATION('IsoTurningInsert-None',
     (#25),#406);
#11=SHAPE_REPRESENTATION_RELATIONSHIP('None','relationship between IsoTurningInsert-None and IsoTurningInsert-None',
     #24,#13);
#12=SHAPE_REPRESENTATION_RELATIONSHIP('None','relationship between IsoTurningInsert-None and IsoTurningInsert-None',
     #24,#10);
#13=ADVANCED_BREP_SHAPE_REPRESENTATION('IsoTurningInsert-None',(#31),#406);
#14=SHAPE_DEFINITION_REPRESENTATION(#15,#24);
#15=PRODUCT_DEFINITION_SHAPE('','',#16);
#16=PRODUCT_DEFINITION(' ','',#18,#17);
#17=PRODUCT_DEFINITION_CONTEXT('part definition',#23,'design');
#18=PRODUCT_DEFINITION_FORMATION_WITH_SPECIFIED_SOURCE(' ',' ',#20,.NOT_KNOWN.);
#19=PRODUCT_RELATED_PRODUCT_CATEGORY('part','',(#20));
#20=PRODUCT('IsoTurningInsert','IsoTurningInsert',' ',(#21));
#21=PRODUCT_CONTEXT(' ',#23,'mechanical');
#22=APPLICATION_PROTOCOL_DEFINITION('international standard','automotive_design',
     2010,#23);
#23=APPLICATION_CONTEXT('core data for automotive mechanical design processes');
#24=SHAPE_REPRESENTATION('IsoTurningInsert-None',(#245),#406);
#25=GEOMETRIC_CURVE_SET('geometric curve set',(#224));
#26=SURFACE_STYLE_USAGE(.BOTH.,#27);
#27=SURFACE_SIDE_STYLE('',(#28));
#28=SURFACE_STYLE_FILL_AREA(#29);
#29=FILL_AREA_STYLE('',(#30));
#30=FILL_AREA_STYLE_COLOUR('',#244);
#31=MANIFOLD_SOLID_BREP('CUT',#32);
#32=CLOSED_SHELL('',(#46,#47,#48,#49,#50,#51,#52,#53,#54,#55,#56,#57));
#33=CYLINDRICAL_SURFACE('',#266,2.75);
#34=TOROIDAL_SURFACE('',#265,6.75,4.0);
#35=TOROIDAL_SURFACE('',#267,3.7087141803334,0.3);
#36=CONICAL_SURFACE('',#258,0.793749999999998,11.0);
#37=CONICAL_SURFACE('',#259,0.793749999999998,11.0);
#38=CONICAL_SURFACE('',#260,0.793749999999998,11.0);
#39=CONICAL_SURFACE('',#262,4.00000000002695,3.99999999859314);
#40=FACE_OUTER_BOUND('',#107,.T.);
#41=FACE_OUTER_BOUND('',#108,.T.);
#42=FACE_OUTER_BOUND('',#109,.T.);
#43=FACE_OUTER_BOUND('',#112,.T.);
#44=FACE_OUTER_BOUND('',#113,.T.);
#45=FACE_OUTER_BOUND('',#114,.T.);
#46=ADVANCED_FACE('',(#93,#94),#58,.F.);
#47=ADVANCED_FACE('',(#40),#59,.F.);
#48=ADVANCED_FACE('',(#41),#60,.F.);
#49=ADVANCED_FACE('',(#42),#61,.F.);
#50=ADVANCED_FACE('',(#95,#96),#62,.T.);
#51=ADVANCED_FACE('',(#43),#36,.T.);
#52=ADVANCED_FACE('',(#44),#37,.T.);
#53=ADVANCED_FACE('',(#45),#38,.T.);
#54=ADVANCED_FACE('',(#97,#98),#39,.F.);
#55=ADVANCED_FACE('',(#99,#100),#34,.T.);
#56=ADVANCED_FACE('',(#101,#102),#33,.F.);
#57=ADVANCED_FACE('',(#103,#104),#35,.F.);
#58=PLANE('',#249);
#59=PLANE('',#250);
#60=PLANE('',#251);
#61=PLANE('',#252);
#62=PLANE('',#257);
#63=LINE('',#355,#78);
#64=LINE('',#358,#79);
#65=LINE('',#360,#80);
#66=LINE('',#362,#81);
#67=LINE('',#364,#82);
#68=LINE('',#366,#83);
#69=LINE('',#368,#84);
#70=LINE('',#370,#85);
#71=LINE('',#372,#86);
#72=LINE('',#374,#87);
#73=LINE('',#376,#88);
#74=LINE('',#378,#89);
#75=LINE('',#380,#90);
#76=LINE('',#383,#91);
#77=LINE('',#384,#92);
#78=VECTOR('',#276,1.0);
#79=VECTOR('',#277,1.0);
#80=VECTOR('',#278,1.0);
#81=VECTOR('',#281,1.0);
#82=VECTOR('',#282,1.0);
#83=VECTOR('',#283,1.0);
#84=VECTOR('',#284,1.0);
#85=VECTOR('',#285,1.0);
#86=VECTOR('',#288,1.0);
#87=VECTOR('',#289,1.0);
#88=VECTOR('',#290,1.0);
#89=VECTOR('',#291,1.0);
#90=VECTOR('',#294,1.0);
#91=VECTOR('',#295,1.0);
#92=VECTOR('',#296,1.0);
#93=FACE_BOUND('',#105,.T.);
#94=FACE_BOUND('',#106,.T.);
#95=FACE_BOUND('',#110,.T.);
#96=FACE_BOUND('',#111,.T.);
#97=FACE_BOUND('',#115,.T.);
#98=FACE_BOUND('',#116,.T.);
#99=FACE_BOUND('',#117,.T.);
#100=FACE_BOUND('',#118,.T.);
#101=FACE_BOUND('',#119,.T.);
#102=FACE_BOUND('',#120,.T.);
#103=FACE_BOUND('',#121,.T.);
#104=FACE_BOUND('',#122,.T.);
#105=EDGE_LOOP('',(#123));
#106=EDGE_LOOP('',(#124,#125,#126));
#107=EDGE_LOOP('',(#127,#128,#129,#130,#131,#132));
#108=EDGE_LOOP('',(#133,#134,#135,#136,#137,#138));
#109=EDGE_LOOP('',(#139,#140,#141,#142,#143,#144));
#110=EDGE_LOOP('',(#145));
#111=EDGE_LOOP('',(#146,#147,#148,#149,#150,#151));
#112=EDGE_LOOP('',(#152,#153,#154));
#113=EDGE_LOOP('',(#155,#156,#157));
#114=EDGE_LOOP('',(#158,#159,#160));
#115=EDGE_LOOP('',(#161));
#116=EDGE_LOOP('',(#162));
#117=EDGE_LOOP('',(#163));
#118=EDGE_LOOP('',(#164));
#119=EDGE_LOOP('',(#165));
#120=EDGE_LOOP('',(#166));
#121=EDGE_LOOP('',(#167));
#122=EDGE_LOOP('',(#168));
#123=ORIENTED_EDGE('',*,*,#186,.T.);
#124=ORIENTED_EDGE('',*,*,#187,.T.);
#125=ORIENTED_EDGE('',*,*,#188,.T.);
#126=ORIENTED_EDGE('',*,*,#189,.T.);
#127=ORIENTED_EDGE('',*,*,#189,.F.);
#128=ORIENTED_EDGE('',*,*,#190,.T.);
#129=ORIENTED_EDGE('',*,*,#191,.T.);
#130=ORIENTED_EDGE('',*,*,#192,.F.);
#131=ORIENTED_EDGE('',*,*,#193,.T.);
#132=ORIENTED_EDGE('',*,*,#194,.F.);
#133=ORIENTED_EDGE('',*,*,#188,.F.);
#134=ORIENTED_EDGE('',*,*,#195,.T.);
#135=ORIENTED_EDGE('',*,*,#196,.T.);
#136=ORIENTED_EDGE('',*,*,#197,.F.);
#137=ORIENTED_EDGE('',*,*,#198,.T.);
#138=ORIENTED_EDGE('',*,*,#190,.F.);
#139=ORIENTED_EDGE('',*,*,#199,.F.);
#140=ORIENTED_EDGE('',*,*,#200,.T.);
#141=ORIENTED_EDGE('',*,*,#195,.F.);
#142=ORIENTED_EDGE('',*,*,#187,.F.);
#143=ORIENTED_EDGE('',*,*,#194,.T.);
#144=ORIENTED_EDGE('',*,*,#201,.T.);
#145=ORIENTED_EDGE('',*,*,#202,.F.);
#146=ORIENTED_EDGE('',*,*,#197,.T.);
#147=ORIENTED_EDGE('',*,*,#203,.T.);
#148=ORIENTED_EDGE('',*,*,#199,.T.);
#149=ORIENTED_EDGE('',*,*,#204,.T.);
#150=ORIENTED_EDGE('',*,*,#192,.T.);
#151=ORIENTED_EDGE('',*,*,#205,.T.);
#152=ORIENTED_EDGE('',*,*,#196,.F.);
#153=ORIENTED_EDGE('',*,*,#200,.F.);
#154=ORIENTED_EDGE('',*,*,#203,.F.);
#155=ORIENTED_EDGE('',*,*,#191,.F.);
#156=ORIENTED_EDGE('',*,*,#198,.F.);
#157=ORIENTED_EDGE('',*,*,#205,.F.);
#158=ORIENTED_EDGE('',*,*,#201,.F.);
#159=ORIENTED_EDGE('',*,*,#193,.F.);
#160=ORIENTED_EDGE('',*,*,#204,.F.);
#161=ORIENTED_EDGE('',*,*,#206,.T.);
#162=ORIENTED_EDGE('',*,*,#202,.T.);
#163=ORIENTED_EDGE('',*,*,#207,.T.);
#164=ORIENTED_EDGE('',*,*,#208,.T.);
#165=ORIENTED_EDGE('',*,*,#208,.F.);
#166=ORIENTED_EDGE('',*,*,#186,.F.);
#167=ORIENTED_EDGE('',*,*,#207,.F.);
#168=ORIENTED_EDGE('',*,*,#206,.F.);
#169=VERTEX_POINT('',#354);
#170=VERTEX_POINT('',#356);
#171=VERTEX_POINT('',#357);
#172=VERTEX_POINT('',#359);
#173=VERTEX_POINT('',#363);
#174=VERTEX_POINT('',#365);
#175=VERTEX_POINT('',#367);
#176=VERTEX_POINT('',#369);
#177=VERTEX_POINT('',#373);
#178=VERTEX_POINT('',#375);
#179=VERTEX_POINT('',#377);
#180=VERTEX_POINT('',#381);
#181=VERTEX_POINT('',#382);
#182=VERTEX_POINT('',#387);
#183=VERTEX_POINT('',#396);
#184=VERTEX_POINT('',#399);
#185=VERTEX_POINT('',#401);
#186=EDGE_CURVE('',#169,#169,#209,.T.);
#187=EDGE_CURVE('',#170,#171,#63,.T.);
#188=EDGE_CURVE('',#171,#172,#64,.T.);
#189=EDGE_CURVE('',#172,#170,#65,.T.);
#190=EDGE_CURVE('INSERT_CORNER_EDGE1',#172,#173,#66,.T.);
#191=EDGE_CURVE('',#173,#174,#67,.T.);
#192=EDGE_CURVE('',#175,#174,#68,.T.);
#193=EDGE_CURVE('',#175,#176,#69,.T.);
#194=EDGE_CURVE('INSERT_CORNER_EDGE3',#170,#176,#70,.T.);
#195=EDGE_CURVE('INSERT_CORNER_EDGE2',#171,#177,#71,.T.);
#196=EDGE_CURVE('',#177,#178,#72,.T.);
#197=EDGE_CURVE('',#179,#178,#73,.T.);
#198=EDGE_CURVE('',#179,#173,#74,.T.);
#199=EDGE_CURVE('',#180,#181,#75,.T.);
#200=EDGE_CURVE('',#180,#177,#76,.T.);
#201=EDGE_CURVE('',#176,#181,#77,.T.);
#202=EDGE_CURVE('',#182,#182,#210,.T.);
#203=EDGE_CURVE('',#178,#180,#211,.T.);
#204=EDGE_CURVE('',#181,#175,#212,.T.);
#205=EDGE_CURVE('',#174,#179,#213,.T.);
#206=EDGE_CURVE('',#183,#183,#214,.T.);
#207=EDGE_CURVE('',#184,#184,#215,.T.);
#208=EDGE_CURVE('',#185,#185,#216,.T.);
#209=CIRCLE('',#248,2.75);
#210=CIRCLE('',#253,4.07132534818238);
#211=CIRCLE('',#254,0.793749999999998);
#212=CIRCLE('',#255,0.793749999999998);
#213=CIRCLE('',#256,0.793749999999998);
#214=CIRCLE('',#261,4.00798339541186);
#215=CIRCLE('',#263,3.92089691193805);
#216=CIRCLE('',#264,2.75);
#217=CURVE_STYLE('',#221,POSITIVE_LENGTH_MEASURE(0.18),#220);
#218=CURVE_STYLE('',#222,POSITIVE_LENGTH_MEASURE(0.18),#243);
#219=CURVE_STYLE('',#223,POSITIVE_LENGTH_MEASURE(0.18),#243);
#220=DRAUGHTING_PRE_DEFINED_COLOUR('blue');
#221=DRAUGHTING_PRE_DEFINED_CURVE_FONT('continuous');
#222=DRAUGHTING_PRE_DEFINED_CURVE_FONT('continuous');
#223=DRAUGHTING_PRE_DEFINED_CURVE_FONT('continuous');
#224=TRIMMED_CURVE('CUTTING EDGE LINE',#225,(PARAMETER_VALUE(0.0)),(PARAMETER_VALUE(
     1.0)),.T.,.PARAMETER.);
#225=(BOUNDED_CURVE()B_SPLINE_CURVE(3,(#332,#333,#334,#335,#336,#337,#338,#339,#340,
     #341,#342,#343,#344,#345,#346,#347,#348,#349,#350),.UNSPECIFIED.,.T.,.F.)
     B_SPLINE_CURVE_WITH_KNOTS((1,3,3,3,3,3,3,3,1),(-0.0265014949249509,0.0,0.306831838408382,
     0.333333333333333,0.640165171741716,0.666666666666667,0.973498505075049,1.0,
     1.30683183840838),.UNSPECIFIED.)CURVE()GEOMETRIC_REPRESENTATION_ITEM()
     RATIONAL_B_SPLINE_CURVE((0.666666666666667,0.666666666666667,0.666666666666667,
     0.666666666666667,0.444444444444444,0.444444444444444,0.666666666666667,0.666666666666667,
     0.666666666666667,0.666666666666667,0.444444444444444,0.444444444444444,0.666666666666667,
     0.666666666666667,0.666666666666667,0.666666666666667,0.444444444444444,0.444444444444444,
     0.666666666666667))REPRESENTATION_ITEM('CUTTING EDGE LINE'));
#226=PRESENTATION_LAYER_ASSIGNMENT('1','Layer 1',(#224,#246,#247,#31));
#229=STYLED_ITEM('',(#235),#224);
#230=STYLED_ITEM('',(#236),#246);
#231=STYLED_ITEM('',(#237),#247);
#232=STYLED_ITEM('',(#238),#31);
#233=PRESENTATION_STYLE_ASSIGNMENT((#239));
#234=PRESENTATION_STYLE_ASSIGNMENT((#240));
#235=PRESENTATION_STYLE_ASSIGNMENT((#217));
#236=PRESENTATION_STYLE_ASSIGNMENT((#218));
#237=PRESENTATION_STYLE_ASSIGNMENT((#219));
#238=PRESENTATION_STYLE_ASSIGNMENT((#26));
#239=POINT_STYLE('',#241,POSITIVE_LENGTH_MEASURE(3.0),#243);
#240=POINT_STYLE('',#242,POSITIVE_LENGTH_MEASURE(3.0),#243);
#241=PRE_DEFINED_POINT_MARKER_SYMBOL('plus');
#242=PRE_DEFINED_POINT_MARKER_SYMBOL('plus');
#243=COLOUR_RGB('Medium Maroon',0.6,0.4,0.4);
#244=COLOUR_RGB('IsoInsertColor',0.8,0.8,0.8);
#245=AXIS2_PLACEMENT_3D('',#329,#268,#269);
#246=AXIS2_PLACEMENT_3D('PCS',#351,#270,#271);
#247=AXIS2_PLACEMENT_3D('MCS',#352,#272,#273);
#248=AXIS2_PLACEMENT_3D('',#353,#274,#275);
#249=AXIS2_PLACEMENT_3D('',#361,#279,#280);
#250=AXIS2_PLACEMENT_3D('',#371,#286,#287);
#251=AXIS2_PLACEMENT_3D('',#379,#292,#293);
#252=AXIS2_PLACEMENT_3D('',#385,#297,#298);
#253=AXIS2_PLACEMENT_3D('',#386,#299,#300);
#254=AXIS2_PLACEMENT_3D('',#388,#301,#302);
#255=AXIS2_PLACEMENT_3D('',#389,#303,#304);
#256=AXIS2_PLACEMENT_3D('',#390,#305,#306);
#257=AXIS2_PLACEMENT_3D('',#391,#307,#308);
#258=AXIS2_PLACEMENT_3D('',#392,#309,#310);
#259=AXIS2_PLACEMENT_3D('',#393,#311,#312);
#260=AXIS2_PLACEMENT_3D('',#394,#313,#314);
#261=AXIS2_PLACEMENT_3D('',#395,#315,#316);
#262=AXIS2_PLACEMENT_3D('',#397,#317,#318);
#263=AXIS2_PLACEMENT_3D('',#398,#319,#320);
#264=AXIS2_PLACEMENT_3D('',#400,#321,#322);
#265=AXIS2_PLACEMENT_3D('',#402,#323,#324);
#266=AXIS2_PLACEMENT_3D('',#403,#325,#326);
#267=AXIS2_PLACEMENT_3D('',#404,#327,#328);
#268=DIRECTION('',(0.0,0.0,1.0));
#269=DIRECTION('',(1.0,0.0,0.0));
#270=DIRECTION('',(0.0,0.0,1.0));
#271=DIRECTION('',(1.0,0.0,0.0));
#272=DIRECTION('',(0.0,0.0,1.0));
#273=DIRECTION('',(1.0,0.0,0.0));
#274=DIRECTION('',(0.0,0.0,1.0));
#275=DIRECTION('',(-0.866025403784438,-0.5,0.0));
#276=DIRECTION('',(0.500000000000001,-0.866025403784438,0.0));
#277=DIRECTION('',(-1.0,-1.33226762955019E-15,0.0));
#278=DIRECTION('',(0.5,0.866025403784439,0.0));
#279=DIRECTION('',(0.0,0.0,1.0));
#280=DIRECTION('',(-0.866025403784439,-0.5,0.0));
#281=DIRECTION('',(-0.313797732273575,-0.181171205199242,0.932045051285943));
#282=DIRECTION('',(-0.165245437266675,0.0954044976882727,0.981627183447664));
#283=DIRECTION('',(-0.5,-0.866025403784439,1.61099770368305E-16));
#284=DIRECTION('',(0.165245437266675,-0.0954044976882727,-0.981627183447664));
#285=DIRECTION('',(-1.94289029309402E-16,0.362342410398485,0.932045051285943));
#286=DIRECTION('',(0.850114077911045,-0.490813591723832,0.190808995376545));
#287=DIRECTION('',(0.5,0.866025403784439,0.0));
#288=DIRECTION('',(0.313797732273574,-0.181171205199242,0.932045051285943));
#289=DIRECTION('',(1.66533453693773E-16,-0.190808995376545,0.981627183447664));
#290=DIRECTION('',(1.0,1.33226762955019E-15,9.6659862220983E-17));
#291=DIRECTION('',(-1.66533453693773E-16,0.190808995376545,-0.981627183447664));
#292=DIRECTION('',(-1.27675647831893E-15,0.981627183447664,0.190808995376545));
#293=DIRECTION('',(-1.0,-1.33226762955019E-15,0.0));
#294=DIRECTION('',(-0.500000000000001,0.866025403784438,-2.67498746399814E-16));
#295=DIRECTION('',(-0.165245437266675,-0.0954044976882728,-0.981627183447664));
#296=DIRECTION('',(0.165245437266675,0.0954044976882728,0.981627183447664));
#297=DIRECTION('',(-0.850114077911044,-0.490813591723833,0.190808995376545));
#298=DIRECTION('',(-0.165245437266675,-0.0954044976882725,-0.981627183447664));
#299=DIRECTION('',(0.0,0.0,1.0));
#300=DIRECTION('',(-0.866025403784439,-0.5,0.0));
#301=DIRECTION('',(-1.0031202989993E-16,2.50965769017957E-16,1.0));
#302=DIRECTION('',(-0.499999999999999,0.866025403784439,-2.67498746399814E-16));
#303=DIRECTION('',(-1.0031202989993E-16,2.50965769017957E-16,1.0));
#304=DIRECTION('',(-0.500000000000001,0.866025403784438,-2.67498746399814E-16));
#305=DIRECTION('',(-1.0031202989993E-16,2.50965769017957E-16,1.0));
#306=DIRECTION('',(-0.5,0.866025403784439,-2.67498746399814E-16));
#307=DIRECTION('',(-1.0031202989993E-16,2.50965769017957E-16,1.0));
#308=DIRECTION('',(-0.5,0.866025403784439,-2.67498746399814E-16));
#309=DIRECTION('',(-1.0031202989993E-16,2.50965769017957E-16,1.0));
#310=DIRECTION('',(-0.5,0.866025403784439,0.0));
#311=DIRECTION('',(-1.0031202989993E-16,2.50965769017957E-16,1.0));
#312=DIRECTION('',(-0.5,0.866025403784439,1.33321263361599E-17));
#313=DIRECTION('',(-1.0031202989993E-16,2.50965769017957E-16,1.0));
#314=DIRECTION('',(-0.5,0.866025403784439,2.66642526723198E-17));
#315=DIRECTION('',(0.0,0.0,-1.0));
#316=DIRECTION('',(0.866025403784439,0.5,0.0));
#317=DIRECTION('',(0.0,0.0,1.0));
#318=DIRECTION('',(-0.866025403784439,-0.5,0.0));
#319=DIRECTION('',(0.0,0.0,1.0));
#320=DIRECTION('',(0.866025403784439,0.5,0.0));
#321=DIRECTION('',(0.0,0.0,-1.0));
#322=DIRECTION('',(-0.866025403784438,-0.5,0.0));
#323=DIRECTION('',(0.0,0.0,1.0));
#324=DIRECTION('',(-0.866025403784439,-0.5,0.0));
#325=DIRECTION('',(0.0,0.0,1.0));
#326=DIRECTION('',(-0.866025403784439,-0.5,0.0));
#327=DIRECTION('',(0.0,0.0,-1.0));
#328=DIRECTION('',(0.866025403784439,0.5,0.0));
#329=CARTESIAN_POINT('',(0.0,0.0,0.0));
#332=CARTESIAN_POINT('',(21.3096375918708,1.190625,0.0));
#333=CARTESIAN_POINT('',(18.101735158686,6.74687499999999,0.0));
#334=CARTESIAN_POINT('',(14.8938327255011,12.303125,1.8439146814369E-15));
#335=CARTESIAN_POINT('',(11.6859302923163,17.859375,-1.53233907044618E-17));
#336=CARTESIAN_POINT('',(11.3422264601893,18.4546875,-2.14527469862465E-16));
#337=CARTESIAN_POINT('',(10.6548187959354,18.4546875,-9.33085041110977E-17));
#338=CARTESIAN_POINT('',(10.3111149638085,17.859375,-8.42786488745399E-17));
#339=CARTESIAN_POINT('',(7.10321253062361,12.303125,0.0));
#340=CARTESIAN_POINT('',(3.89531009743872,6.74687499999999,-3.70315275357835E-16));
#341=CARTESIAN_POINT('',(0.687407664253891,1.19062499999997,-8.42786488745396E-17));
#342=CARTESIAN_POINT('',(0.343703832126941,0.59531249999997,-5.3631867465615E-17));
#343=CARTESIAN_POINT('',(0.687407664253894,-2.29816166097407E-14,1.10273686676752E-16));
#344=CARTESIAN_POINT('',(1.37481532850779,-2.26485497023532E-14,9.96020395790018E-17));
#345=CARTESIAN_POINT('',(7.79062019487751,-1.33226762955019E-14,0.0));
#346=CARTESIAN_POINT('',(14.2064250612472,1.33226762955019E-14,-1.47359940607908E-15));
#347=CARTESIAN_POINT('',(20.6222299276169,5.32907051820075E-15,9.96020395790016E-17));
#348=CARTESIAN_POINT('',(21.3096375918708,5.99520433297584E-15,2.68159337328081E-16));
#349=CARTESIAN_POINT('',(21.6533414239978,0.595312500000004,1.53233907044618E-16));
#350=CARTESIAN_POINT('',(21.3096375918708,1.190625,-3.06467814089235E-17));
#351=CARTESIAN_POINT('',(0.0,0.0,0.0));
#352=CARTESIAN_POINT('',(10.9985226280624,6.35,0.0));
#353=CARTESIAN_POINT('',(10.9985226280624,6.35,-4.7625));
#354=CARTESIAN_POINT('',(8.61695276765516,4.975,-4.7625));
#355=CARTESIAN_POINT('',(15.6960728564057,9.0621318888658,-4.7625));
#356=CARTESIAN_POINT('',(10.9985226280624,17.1985275554632,-4.7625));
#357=CARTESIAN_POINT('',(20.393623084749,0.925736222268387,-4.7625));
#358=CARTESIAN_POINT('',(8.54516467434021,0.925736222268371,-4.7625));
#359=CARTESIAN_POINT('',(1.60342217137571,0.925736222268363,-4.7625));
#360=CARTESIAN_POINT('',(5.07429342285796,6.93746157636579,-4.7625));
#361=CARTESIAN_POINT('',(10.8612631016432,5.83774047358084,-4.7625));
#362=CARTESIAN_POINT('',(0.841433963705791,0.485802125450812,-2.499235275455));
#363=CARTESIAN_POINT('',(1.37481532850779,0.793749999999979,-4.08348975017643));
#364=CARTESIAN_POINT('',(0.687407664253891,1.19062499999998,-2.73776071963958E-15));
#365=CARTESIAN_POINT('',(0.687407664253891,1.19062499999998,-2.18575157973078E-15));
#366=CARTESIAN_POINT('',(5.49926131403119,9.525,-3.79470760369927E-15));
#367=CARTESIAN_POINT('',(10.3111149638085,17.859375,-5.40366362766775E-15));
#368=CARTESIAN_POINT('',(10.3111149638085,17.859375,-5.87943740016877E-15));
#369=CARTESIAN_POINT('',(10.9985226280624,17.4625,-4.08348975017643));
#370=CARTESIAN_POINT('',(10.9985226280624,17.7994434868935,-3.21677776584988));
#371=CARTESIAN_POINT('',(4.2725823371701,7.40032968749999,-3.38453874301759E-15));
#372=CARTESIAN_POINT('',(20.6724518013939,0.764754387655649,-3.93432025624477));
#373=CARTESIAN_POINT('',(20.6222299276169,0.793750000000001,-4.08348975017642));
#374=CARTESIAN_POINT('',(20.6222299276169,5.20417042793042E-15,-7.85479996932684E-17));
#375=CARTESIAN_POINT('',(20.6222299276169,5.20417042793042E-15,1.12757025938493E-16));
#376=CARTESIAN_POINT('',(10.9985226280624,-7.80625564189563E-15,-8.526165884426E-16));
#377=CARTESIAN_POINT('',(1.37481532850779,-1.99493199737333E-14,-1.81799020282369E-15));
#378=CARTESIAN_POINT('',(1.37481532850779,-1.99493199737333E-14,-1.66256426031649E-15));
#379=CARTESIAN_POINT('',(8.54516467434021,-1.12757025938492E-14,-1.09871790485161E-15));
#380=CARTESIAN_POINT('',(16.4977839420935,9.525,-2.69142347297802E-15));
#381=CARTESIAN_POINT('',(21.3096375918708,1.190625,-1.17093834628433E-16));
#382=CARTESIAN_POINT('',(11.6859302923163,17.859375,-5.2657531113276E-15));
#383=CARTESIAN_POINT('',(21.3096375918708,1.190625,-1.44978189836781E-16));
#384=CARTESIAN_POINT('',(11.6859302923163,17.859375,-5.22851079707812E-15));
#385=CARTESIAN_POINT('',(16.4977839420935,9.52499999999999,-2.69142347297802E-15));
#386=CARTESIAN_POINT('',(10.9985226280624,6.35,0.0));
#387=CARTESIAN_POINT('',(7.4726514494649,4.31433732590881,0.0));
#388=CARTESIAN_POINT('',(20.6222299276169,0.793750000000002,-8.64470532195098E-17));
#389=CARTESIAN_POINT('',(10.9985226280624,17.4625,-5.23510632991868E-15));
#390=CARTESIAN_POINT('',(1.37481532850779,0.793749999999976,-2.0171942819817E-15));
#391=CARTESIAN_POINT('',(10.9985226280624,6.35,-2.44624922170663E-15));
#392=CARTESIAN_POINT('',(20.6222299276169,0.793750000000002,0.0));
#393=CARTESIAN_POINT('',(1.37481532850779,0.793749999999976,-2.60208521396521E-15));
#394=CARTESIAN_POINT('',(10.9985226280624,17.4625,-5.20417042793042E-15));
#395=CARTESIAN_POINT('',(10.9985226280624,6.35,-0.905832126939232));
#396=CARTESIAN_POINT('',(14.4695380664352,8.35399169770593,-0.905832126939232));
#397=CARTESIAN_POINT('',(10.9985226280624,6.35,-1.01999999997449));
#398=CARTESIAN_POINT('',(10.9985226280624,6.35,-1.09698650981164));
#399=CARTESIAN_POINT('',(14.3941189594207,8.31044845596903,-1.09698650981164));
#400=CARTESIAN_POINT('',(10.9985226280624,6.35,-3.92473750965556));
#401=CARTESIAN_POINT('',(8.61695276765516,4.975,-3.92473750965556));
#402=CARTESIAN_POINT('',(10.9985226280624,6.35,-3.92473750965556));
#403=CARTESIAN_POINT('',(10.9985226280624,6.35,-33.3676978394524));
#404=CARTESIAN_POINT('',(10.9985226280624,6.35,-0.884905184823342));
#405=MECHANICAL_DESIGN_GEOMETRIC_PRESENTATION_REPRESENTATION('',(#229,#230,#231,
     #232),#406);
#406=(GEOMETRIC_REPRESENTATION_CONTEXT(3)GLOBAL_UNCERTAINTY_ASSIGNED_CONTEXT((#407))
     GLOBAL_UNIT_ASSIGNED_CONTEXT((#413,#409,#408))REPRESENTATION_CONTEXT('TPMT220408',
     'TOP_LEVEL_ASSEMBLY_PART'));
#407=UNCERTAINTY_MEASURE_WITH_UNIT(LENGTH_MEASURE(2.0E-5),#413,'DISTANCE_ACCURACY_VALUE',
     'Maximum Tolerance applied to model');
#408=(NAMED_UNIT(*)SI_UNIT($,.STERADIAN.)SOLID_ANGLE_UNIT());
#409=(CONVERSION_BASED_UNIT('DEGREE',#411)NAMED_UNIT(#410)PLANE_ANGLE_UNIT());
#410=DIMENSIONAL_EXPONENTS(0.0,0.0,0.0,0.0,0.0,0.0,0.0);
#411=PLANE_ANGLE_MEASURE_WITH_UNIT(PLANE_ANGLE_MEASURE(0.0174532925),#412);
#412=(NAMED_UNIT(*)PLANE_ANGLE_UNIT()SI_UNIT($,.RADIAN.));
#413=(LENGTH_UNIT()NAMED_UNIT(*)SI_UNIT(.MILLI.,.METRE.));
#414=CONSTRUCTIVE_GEOMETRY_REPRESENTATION('supplemental geometry',(#246,#247),#406);
#415=CONSTRUCTIVE_GEOMETRY_REPRESENTATION_RELATIONSHIP('supplemental geometry','contains PCS and MCS coordinate systems',
     #24,#414);
ENDSEC;
END-ISO-10303-21;
