ISO-10303-21;
HEADER;
FILE_DESCRIPTION(
/* description */ (''),
/* implementation_level */ '2;1');
FILE_NAME(
/* name */ 'CNMM250932.stp',
/* time_stamp */ '2017-03-21T10:54:00',
/* author */ ('Sandvik Coromant R&D'),
/* organization */ ('Sandvik Machining Solutions'),
/* preprocessor_version */ 'ST-DEVELOPER v15',
/* originating_system */ 'SIEMENS PLM Software NX v8.5.3.3(64 bits)',
/* authorization */ '');
FILE_SCHEMA(('AUTOMOTIVE_DESIGN'));
ENDSEC;
DATA;
#10=GEOMETRICALLY_BOUNDED_WIREFRAME_SHAPE_REPRESENTATION('IsoTurningInsert-None',
     (#25),#491);
#11=SHAPE_REPRESENTATION_RELATIONSHIP('None','relationship between IsoTurningInsert-None and IsoTurningInsert-None',
     #24,#13);
#12=SHAPE_REPRESENTATION_RELATIONSHIP('None','relationship between IsoTurningInsert-None and IsoTurningInsert-None',
     #24,#10);
#13=ADVANCED_BREP_SHAPE_REPRESENTATION('IsoTurningInsert-None',(#31),#491);
#14=SHAPE_DEFINITION_REPRESENTATION(#15,#24);
#15=PRODUCT_DEFINITION_SHAPE('','',#16);
#16=PRODUCT_DEFINITION(' ','',#18,#17);
#17=PRODUCT_DEFINITION_CONTEXT('part definition',#23,'design');
#18=PRODUCT_DEFINITION_FORMATION_WITH_SPECIFIED_SOURCE(' ',' ',#20,.NOT_KNOWN.);
#19=PRODUCT_RELATED_PRODUCT_CATEGORY('part','',(#20));
#20=PRODUCT('IsoTurningInsert','IsoTurningInsert',' ',(#21));
#21=PRODUCT_CONTEXT(' ',#23,'mechanical');
#22=APPLICATION_PROTOCOL_DEFINITION('international standard','automotive_design',
     2010,#23);
#23=APPLICATION_CONTEXT('core data for automotive mechanical design processes');
#24=SHAPE_REPRESENTATION('IsoTurningInsert-None',(#248),#491);
#25=GEOMETRIC_CURVE_SET('geometric curve set',(#228));
#26=SURFACE_STYLE_USAGE(.BOTH.,#27);
#27=SURFACE_SIDE_STYLE('',(#28));
#28=SURFACE_STYLE_FILL_AREA(#29);
#29=FILL_AREA_STYLE('',(#30));
#30=FILL_AREA_STYLE_COLOUR('',#247);
#31=MANIFOLD_SOLID_BREP('CUT',#32);
#32=CLOSED_SHELL('',(#46,#47,#48,#49,#50,#51,#52,#53,#54,#55,#56));
#33=CYLINDRICAL_SURFACE('',#267,3.175);
#34=CYLINDRICAL_SURFACE('',#268,3.175);
#35=CYLINDRICAL_SURFACE('',#269,3.175);
#36=CYLINDRICAL_SURFACE('',#270,3.175);
#37=CYLINDRICAL_SURFACE('',#271,4.5595);
#38=FACE_OUTER_BOUND('',#103,.T.);
#39=FACE_OUTER_BOUND('',#104,.T.);
#40=FACE_OUTER_BOUND('',#105,.T.);
#41=FACE_OUTER_BOUND('',#106,.T.);
#42=FACE_OUTER_BOUND('',#109,.T.);
#43=FACE_OUTER_BOUND('',#110,.T.);
#44=FACE_OUTER_BOUND('',#111,.T.);
#45=FACE_OUTER_BOUND('',#112,.T.);
#46=ADVANCED_FACE('',(#95,#96),#57,.F.);
#47=ADVANCED_FACE('',(#38),#58,.T.);
#48=ADVANCED_FACE('',(#39),#59,.T.);
#49=ADVANCED_FACE('',(#40),#60,.T.);
#50=ADVANCED_FACE('',(#41),#61,.T.);
#51=ADVANCED_FACE('',(#97,#98),#62,.T.);
#52=ADVANCED_FACE('',(#42),#33,.T.);
#53=ADVANCED_FACE('',(#43),#34,.T.);
#54=ADVANCED_FACE('',(#44),#35,.T.);
#55=ADVANCED_FACE('',(#45),#36,.T.);
#56=ADVANCED_FACE('',(#99,#100),#37,.F.);
#57=PLANE('',#256);
#58=PLANE('',#257);
#59=PLANE('',#258);
#60=PLANE('',#259);
#61=PLANE('',#260);
#62=PLANE('',#266);
#63=LINE('',#437,#79);
#64=LINE('',#442,#80);
#65=LINE('',#446,#81);
#66=LINE('',#450,#82);
#67=LINE('',#454,#83);
#68=LINE('',#457,#84);
#69=LINE('',#458,#85);
#70=LINE('',#460,#86);
#71=LINE('',#462,#87);
#72=LINE('',#464,#88);
#73=LINE('',#466,#89);
#74=LINE('',#468,#90);
#75=LINE('',#470,#91);
#76=LINE('',#472,#92);
#77=LINE('',#474,#93);
#78=LINE('',#476,#94);
#79=VECTOR('',#280,1.0);
#80=VECTOR('',#283,1.0);
#81=VECTOR('',#286,1.0);
#82=VECTOR('',#289,1.0);
#83=VECTOR('',#294,1.0);
#84=VECTOR('',#295,1.0);
#85=VECTOR('',#296,1.0);
#86=VECTOR('',#299,1.0);
#87=VECTOR('',#300,1.0);
#88=VECTOR('',#301,1.0);
#89=VECTOR('',#304,1.0);
#90=VECTOR('',#305,1.0);
#91=VECTOR('',#306,1.0);
#92=VECTOR('',#309,1.0);
#93=VECTOR('',#310,1.0);
#94=VECTOR('',#311,1.0);
#95=FACE_BOUND('',#101,.T.);
#96=FACE_BOUND('',#102,.T.);
#97=FACE_BOUND('',#107,.T.);
#98=FACE_BOUND('',#108,.T.);
#99=FACE_BOUND('',#113,.T.);
#100=FACE_BOUND('',#114,.T.);
#101=EDGE_LOOP('',(#115));
#102=EDGE_LOOP('',(#116,#117,#118,#119,#120,#121,#122,#123));
#103=EDGE_LOOP('',(#124,#125,#126,#127));
#104=EDGE_LOOP('',(#128,#129,#130,#131));
#105=EDGE_LOOP('',(#132,#133,#134,#135));
#106=EDGE_LOOP('',(#136,#137,#138,#139));
#107=EDGE_LOOP('',(#140));
#108=EDGE_LOOP('',(#141,#142,#143,#144,#145,#146,#147,#148));
#109=EDGE_LOOP('',(#149,#150,#151,#152));
#110=EDGE_LOOP('',(#153,#154,#155,#156));
#111=EDGE_LOOP('',(#157,#158,#159,#160));
#112=EDGE_LOOP('',(#161,#162,#163,#164));
#113=EDGE_LOOP('',(#165));
#114=EDGE_LOOP('',(#166));
#115=ORIENTED_EDGE('',*,*,#185,.T.);
#116=ORIENTED_EDGE('',*,*,#186,.T.);
#117=ORIENTED_EDGE('',*,*,#187,.T.);
#118=ORIENTED_EDGE('',*,*,#188,.T.);
#119=ORIENTED_EDGE('',*,*,#189,.T.);
#120=ORIENTED_EDGE('',*,*,#190,.T.);
#121=ORIENTED_EDGE('',*,*,#191,.T.);
#122=ORIENTED_EDGE('',*,*,#192,.T.);
#123=ORIENTED_EDGE('',*,*,#193,.T.);
#124=ORIENTED_EDGE('',*,*,#194,.F.);
#125=ORIENTED_EDGE('',*,*,#195,.T.);
#126=ORIENTED_EDGE('',*,*,#186,.F.);
#127=ORIENTED_EDGE('',*,*,#196,.T.);
#128=ORIENTED_EDGE('',*,*,#192,.F.);
#129=ORIENTED_EDGE('',*,*,#197,.T.);
#130=ORIENTED_EDGE('',*,*,#198,.F.);
#131=ORIENTED_EDGE('',*,*,#199,.T.);
#132=ORIENTED_EDGE('',*,*,#190,.F.);
#133=ORIENTED_EDGE('',*,*,#200,.T.);
#134=ORIENTED_EDGE('',*,*,#201,.F.);
#135=ORIENTED_EDGE('',*,*,#202,.T.);
#136=ORIENTED_EDGE('',*,*,#188,.F.);
#137=ORIENTED_EDGE('',*,*,#203,.T.);
#138=ORIENTED_EDGE('',*,*,#204,.F.);
#139=ORIENTED_EDGE('',*,*,#205,.T.);
#140=ORIENTED_EDGE('',*,*,#206,.F.);
#141=ORIENTED_EDGE('',*,*,#204,.T.);
#142=ORIENTED_EDGE('',*,*,#207,.T.);
#143=ORIENTED_EDGE('',*,*,#194,.T.);
#144=ORIENTED_EDGE('',*,*,#208,.T.);
#145=ORIENTED_EDGE('',*,*,#198,.T.);
#146=ORIENTED_EDGE('',*,*,#209,.T.);
#147=ORIENTED_EDGE('',*,*,#201,.T.);
#148=ORIENTED_EDGE('',*,*,#210,.T.);
#149=ORIENTED_EDGE('',*,*,#187,.F.);
#150=ORIENTED_EDGE('',*,*,#195,.F.);
#151=ORIENTED_EDGE('',*,*,#207,.F.);
#152=ORIENTED_EDGE('',*,*,#203,.F.);
#153=ORIENTED_EDGE('',*,*,#189,.F.);
#154=ORIENTED_EDGE('',*,*,#205,.F.);
#155=ORIENTED_EDGE('',*,*,#210,.F.);
#156=ORIENTED_EDGE('',*,*,#200,.F.);
#157=ORIENTED_EDGE('',*,*,#191,.F.);
#158=ORIENTED_EDGE('',*,*,#202,.F.);
#159=ORIENTED_EDGE('',*,*,#209,.F.);
#160=ORIENTED_EDGE('',*,*,#197,.F.);
#161=ORIENTED_EDGE('',*,*,#193,.F.);
#162=ORIENTED_EDGE('',*,*,#199,.F.);
#163=ORIENTED_EDGE('',*,*,#208,.F.);
#164=ORIENTED_EDGE('',*,*,#196,.F.);
#165=ORIENTED_EDGE('',*,*,#185,.F.);
#166=ORIENTED_EDGE('',*,*,#206,.T.);
#167=VERTEX_POINT('',#436);
#168=VERTEX_POINT('',#438);
#169=VERTEX_POINT('',#439);
#170=VERTEX_POINT('',#441);
#171=VERTEX_POINT('',#443);
#172=VERTEX_POINT('',#445);
#173=VERTEX_POINT('',#447);
#174=VERTEX_POINT('',#449);
#175=VERTEX_POINT('',#451);
#176=VERTEX_POINT('',#455);
#177=VERTEX_POINT('',#456);
#178=VERTEX_POINT('',#461);
#179=VERTEX_POINT('',#463);
#180=VERTEX_POINT('',#467);
#181=VERTEX_POINT('',#469);
#182=VERTEX_POINT('',#473);
#183=VERTEX_POINT('',#475);
#184=VERTEX_POINT('',#479);
#185=EDGE_CURVE('',#167,#167,#211,.T.);
#186=EDGE_CURVE('',#168,#169,#63,.T.);
#187=EDGE_CURVE('',#169,#170,#212,.T.);
#188=EDGE_CURVE('',#170,#171,#64,.T.);
#189=EDGE_CURVE('',#171,#172,#213,.T.);
#190=EDGE_CURVE('',#172,#173,#65,.T.);
#191=EDGE_CURVE('',#173,#174,#214,.T.);
#192=EDGE_CURVE('',#174,#175,#66,.T.);
#193=EDGE_CURVE('',#175,#168,#215,.T.);
#194=EDGE_CURVE('',#176,#177,#67,.T.);
#195=EDGE_CURVE('',#176,#169,#68,.T.);
#196=EDGE_CURVE('',#168,#177,#69,.T.);
#197=EDGE_CURVE('',#174,#178,#70,.T.);
#198=EDGE_CURVE('',#179,#178,#71,.T.);
#199=EDGE_CURVE('',#179,#175,#72,.T.);
#200=EDGE_CURVE('',#172,#180,#73,.T.);
#201=EDGE_CURVE('',#181,#180,#74,.T.);
#202=EDGE_CURVE('',#181,#173,#75,.T.);
#203=EDGE_CURVE('',#170,#182,#76,.T.);
#204=EDGE_CURVE('',#183,#182,#77,.T.);
#205=EDGE_CURVE('',#183,#171,#78,.T.);
#206=EDGE_CURVE('',#184,#184,#216,.T.);
#207=EDGE_CURVE('',#182,#176,#217,.T.);
#208=EDGE_CURVE('',#177,#179,#218,.T.);
#209=EDGE_CURVE('',#178,#181,#219,.T.);
#210=EDGE_CURVE('',#180,#183,#220,.T.);
#211=CIRCLE('',#251,4.5595);
#212=CIRCLE('',#252,3.175);
#213=CIRCLE('',#253,3.175);
#214=CIRCLE('',#254,3.175);
#215=CIRCLE('',#255,3.175);
#216=CIRCLE('',#261,4.5595);
#217=CIRCLE('',#262,3.175);
#218=CIRCLE('',#263,3.175);
#219=CIRCLE('',#264,3.175);
#220=CIRCLE('',#265,3.175);
#221=CURVE_STYLE('',#225,POSITIVE_LENGTH_MEASURE(0.18),#224);
#222=CURVE_STYLE('',#226,POSITIVE_LENGTH_MEASURE(0.18),#246);
#223=CURVE_STYLE('',#227,POSITIVE_LENGTH_MEASURE(0.18),#246);
#224=DRAUGHTING_PRE_DEFINED_COLOUR('blue');
#225=DRAUGHTING_PRE_DEFINED_CURVE_FONT('continuous');
#226=DRAUGHTING_PRE_DEFINED_CURVE_FONT('continuous');
#227=DRAUGHTING_PRE_DEFINED_CURVE_FONT('continuous');
#228=B_SPLINE_CURVE_WITH_KNOTS('CUTTING EDGE LINE',5,(#339,#340,#341,#342,#343,#344,
     #345,#346,#347,#348,#349,#350,#351,#352,#353,#354,#355,#356,#357,#358,#359,
     #360,#361,#362,#363,#364,#365,#366,#367,#368,#369,#370,#371,#372,#373,#374,
     #375,#376,#377,#378,#379,#380,#381,#382,#383,#384,#385,#386,#387,#388,#389,
     #390,#391,#392,#393,#394,#395,#396,#397,#398,#399,#400,#401,#402,#403,#404,
     #405,#406,#407,#408,#409,#410,#411,#412,#413,#414,#415,#416,#417,#418,#419,
     #420,#421,#422,#423,#424,#425,#426,#427,#428,#429,#430,#431,#432),.UNSPECIFIED.,
     .T.,.F.,(2,4,1,1,1,1,1,1,1,1,1,1,1,1,1,1,1,4,4,1,1,1,1,1,1,1,1,1,1,1,1,1,1,
     1,4,4,1,1,1,1,1,1,1,1,1,1,1,1,1,1,1,4,4,1,1,1,1,1,1,1,1,1,1,1,1,1,1,1,4,4,1,
     1),(-0.1987562523,0.0,0.00284687487500002,0.00569374975000003,0.00854062462500005,
     0.0113874995,0.014234374375,0.01708124925,0.019928124125,0.022774999,0.025621873875,
     0.0284687487500001,0.031315623625,0.0341624985,0.037009373375,0.03985624825,
     0.042703123125,0.045549998,0.2443062502,0.24786484379375,0.2514234373875,0.25498203098125,
     0.258540624575,0.26209921816875,0.2656578117625,0.26921640535625,0.27277499895,
     0.27633359254375,0.2798921861375,0.28345077973125,0.287009373325,0.29056796691875,
     0.2941265605125,0.29768515410625,0.3012437477,0.5,0.502846874875,0.50569374975,
     0.508540624625,0.5113874995,0.514234374375,0.51708124925,0.519928124125,0.522774999,
     0.525621873875,0.52846874875,0.531315623625,0.5341624985,0.537009373375,0.53985624825,
     0.542703123125,0.545549998,0.7443062502,0.74786484379375,0.7514234373875,0.75498203098125,
     0.758540624575,0.76209921816875,0.7656578117625,0.76921640535625,0.77277499895,
     0.77633359254375,0.7798921861375,0.78345077973125,0.787009373325,0.79056796691875,
     0.7941265605125,0.79768515410625,0.8012437477,1.0,1.002846874875,1.00569374975),
     .UNSPECIFIED.);
#229=PRESENTATION_LAYER_ASSIGNMENT('1','Layer 1',(#228,#249,#250,#31));
#232=STYLED_ITEM('',(#238),#228);
#233=STYLED_ITEM('',(#239),#249);
#234=STYLED_ITEM('',(#240),#250);
#235=STYLED_ITEM('',(#241),#31);
#236=PRESENTATION_STYLE_ASSIGNMENT((#242));
#237=PRESENTATION_STYLE_ASSIGNMENT((#243));
#238=PRESENTATION_STYLE_ASSIGNMENT((#221));
#239=PRESENTATION_STYLE_ASSIGNMENT((#222));
#240=PRESENTATION_STYLE_ASSIGNMENT((#223));
#241=PRESENTATION_STYLE_ASSIGNMENT((#26));
#242=POINT_STYLE('',#244,POSITIVE_LENGTH_MEASURE(3.0),#246);
#243=POINT_STYLE('',#245,POSITIVE_LENGTH_MEASURE(3.0),#246);
#244=PRE_DEFINED_POINT_MARKER_SYMBOL('plus');
#245=PRE_DEFINED_POINT_MARKER_SYMBOL('plus');
#246=COLOUR_RGB('Medium Maroon',0.6,0.4,0.4);
#247=COLOUR_RGB('IsoInsertColor',0.8,0.8,0.8);
#248=AXIS2_PLACEMENT_3D('',#336,#272,#273);
#249=AXIS2_PLACEMENT_3D('PCS',#433,#274,#275);
#250=AXIS2_PLACEMENT_3D('MCS',#434,#276,#277);
#251=AXIS2_PLACEMENT_3D('',#435,#278,#279);
#252=AXIS2_PLACEMENT_3D('',#440,#281,#282);
#253=AXIS2_PLACEMENT_3D('',#444,#284,#285);
#254=AXIS2_PLACEMENT_3D('',#448,#287,#288);
#255=AXIS2_PLACEMENT_3D('',#452,#290,#291);
#256=AXIS2_PLACEMENT_3D('',#453,#292,#293);
#257=AXIS2_PLACEMENT_3D('',#459,#297,#298);
#258=AXIS2_PLACEMENT_3D('',#465,#302,#303);
#259=AXIS2_PLACEMENT_3D('',#471,#307,#308);
#260=AXIS2_PLACEMENT_3D('',#477,#312,#313);
#261=AXIS2_PLACEMENT_3D('',#478,#314,#315);
#262=AXIS2_PLACEMENT_3D('',#480,#316,#317);
#263=AXIS2_PLACEMENT_3D('',#481,#318,#319);
#264=AXIS2_PLACEMENT_3D('',#482,#320,#321);
#265=AXIS2_PLACEMENT_3D('',#483,#322,#323);
#266=AXIS2_PLACEMENT_3D('',#484,#324,#325);
#267=AXIS2_PLACEMENT_3D('',#485,#326,#327);
#268=AXIS2_PLACEMENT_3D('',#486,#328,#329);
#269=AXIS2_PLACEMENT_3D('',#487,#330,#331);
#270=AXIS2_PLACEMENT_3D('',#488,#332,#333);
#271=AXIS2_PLACEMENT_3D('',#489,#334,#335);
#272=DIRECTION('',(0.0,0.0,1.0));
#273=DIRECTION('',(1.0,0.0,0.0));
#274=DIRECTION('',(0.0,0.0,1.0));
#275=DIRECTION('',(1.0,0.0,0.0));
#276=DIRECTION('',(0.0,0.0,1.0));
#277=DIRECTION('',(1.0,0.0,0.0));
#278=DIRECTION('',(0.0,0.0,1.0));
#279=DIRECTION('',(-0.766044443118978,-0.642787609686539,0.0));
#280=DIRECTION('',(1.0,9.99200722162641E-16,0.0));
#281=DIRECTION('',(0.0,0.0,-1.0));
#282=DIRECTION('',(-0.766044443118978,-0.64278760968654,0.0));
#283=DIRECTION('',(-0.173648177666927,-0.984807753012209,0.0));
#284=DIRECTION('',(0.0,0.0,-1.0));
#285=DIRECTION('',(-0.766044443118978,-0.64278760968654,0.0));
#286=DIRECTION('',(-1.0,7.7715611723761E-16,0.0));
#287=DIRECTION('',(0.0,0.0,-1.0));
#288=DIRECTION('',(-0.766044443118978,-0.64278760968654,0.0));
#289=DIRECTION('',(0.17364817766693,0.984807753012208,0.0));
#290=DIRECTION('',(0.0,0.0,-1.0));
#291=DIRECTION('',(-0.766044443118978,-0.64278760968654,0.0));
#292=DIRECTION('',(0.0,0.0,1.0));
#293=DIRECTION('',(-0.766044443118978,-0.64278760968654,0.0));
#294=DIRECTION('',(-1.0,-9.99200722162641E-16,-5.16546256168595E-17));
#295=DIRECTION('',(5.16546256168597E-17,-1.9323465894762E-16,-1.0));
#296=DIRECTION('',(-5.16546256168597E-17,1.9323465894762E-16,1.0));
#297=DIRECTION('',(-9.99200722162641E-16,1.0,-1.9323465894762E-16));
#298=DIRECTION('',(-1.0,-9.99200722162641E-16,0.0));
#299=DIRECTION('',(-5.16546256168597E-17,1.9323465894762E-16,1.0));
#300=DIRECTION('',(-0.17364817766693,-0.984807753012208,1.8132925867585E-16));
#301=DIRECTION('',(5.16546256168597E-17,-1.9323465894762E-16,-1.0));
#302=DIRECTION('',(-0.984807753012208,0.17364817766693,-8.44247221747712E-17));
#303=DIRECTION('',(-0.17364817766693,-0.984807753012208,0.0));
#304=DIRECTION('',(-5.16546256168597E-17,1.9323465894762E-16,1.0));
#305=DIRECTION('',(1.0,-7.7715611723761E-16,5.16546256168598E-17));
#306=DIRECTION('',(5.16546256168597E-17,-1.9323465894762E-16,-1.0));
#307=DIRECTION('',(-7.7715611723761E-16,-1.0,1.9323465894762E-16));
#308=DIRECTION('',(1.0,-7.7715611723761E-16,0.0));
#309=DIRECTION('',(-5.16546256168597E-17,1.9323465894762E-16,1.0));
#310=DIRECTION('',(0.173648177666927,0.984807753012209,-1.81329258675851E-16));
#311=DIRECTION('',(5.16546256168597E-17,-1.9323465894762E-16,-1.0));
#312=DIRECTION('',(0.984807753012209,-0.173648177666927,8.44247221747708E-17));
#313=DIRECTION('',(0.173648177666927,0.984807753012209,0.0));
#314=DIRECTION('',(0.0,0.0,1.0));
#315=DIRECTION('',(-0.766044443118978,-0.642787609686539,0.0));
#316=DIRECTION('',(-5.16546256168597E-17,1.9323465894762E-16,1.0));
#317=DIRECTION('',(-0.64278760968654,0.766044443118978,-1.81229290034329E-16));
#318=DIRECTION('',(-5.16546256168597E-17,1.9323465894762E-16,1.0));
#319=DIRECTION('',(-0.64278760968654,0.766044443118978,-1.81229290034329E-16));
#320=DIRECTION('',(-5.16546256168597E-17,1.9323465894762E-16,1.0));
#321=DIRECTION('',(-0.64278760968654,0.766044443118978,-1.81229290034329E-16));
#322=DIRECTION('',(-5.16546256168597E-17,1.9323465894762E-16,1.0));
#323=DIRECTION('',(-0.64278760968654,0.766044443118978,-1.81229290034329E-16));
#324=DIRECTION('',(-5.16546256168597E-17,1.9323465894762E-16,1.0));
#325=DIRECTION('',(-0.64278760968654,0.766044443118978,-1.81229290034329E-16));
#326=DIRECTION('',(-5.16546256168597E-17,1.9323465894762E-16,1.0));
#327=DIRECTION('',(-0.64278760968654,0.766044443118978,-1.81229290034329E-16));
#328=DIRECTION('',(-5.16546256168597E-17,1.9323465894762E-16,1.0));
#329=DIRECTION('',(-0.64278760968654,0.766044443118978,-1.81229290034329E-16));
#330=DIRECTION('',(-5.16546256168597E-17,1.9323465894762E-16,1.0));
#331=DIRECTION('',(-0.64278760968654,0.766044443118978,-1.81229290034329E-16));
#332=DIRECTION('',(-5.16546256168597E-17,1.9323465894762E-16,1.0));
#333=DIRECTION('',(-0.64278760968654,0.766044443118978,-1.81229290034329E-16));
#334=DIRECTION('',(0.0,0.0,1.0));
#335=DIRECTION('',(-0.766044443118978,-0.642787609686539,0.0));
#336=CARTESIAN_POINT('',(0.0,0.0,0.0));
#339=CARTESIAN_POINT('',(19.2589192216253,1.49213974509621E-13,0.0));
#340=CARTESIAN_POINT('',(23.1787158794288,1.4388490399142E-13,6.16155526579222E-16));
#341=CARTESIAN_POINT('',(23.2807584124665,0.00204973987194812,6.20925708192682E-16));
#342=CARTESIAN_POINT('',(23.4384400583513,0.0114533898533349,6.26773218752272E-16));
#343=CARTESIAN_POINT('',(23.648741785832,0.0373212548628032,6.31316304822751E-16));
#344=CARTESIAN_POINT('',(23.9158850229564,0.0932096748992279,6.31460972210417E-16));
#345=CARTESIAN_POINT('',(24.181770721421,0.173549038374885,6.25566889651377E-16));
#346=CARTESIAN_POINT('',(24.4439562355507,0.278708700640996,6.1341764323862E-16));
#347=CARTESIAN_POINT('',(24.6987210765403,0.408467044370624,5.94875197496949E-16));
#348=CARTESIAN_POINT('',(24.9427617057456,0.561973587451028,5.69976696999267E-16));
#349=CARTESIAN_POINT('',(25.1727828885597,0.737758700322232,5.38910983788587E-16));
#350=CARTESIAN_POINT('',(25.3858401897999,0.933760580003588,5.02029698623551E-16));
#351=CARTESIAN_POINT('',(25.5793918341017,1.14743755222901,4.59822522435823E-16));
#352=CARTESIAN_POINT('',(25.7514183073962,1.3757996429048,4.12915640841453E-16));
#353=CARTESIAN_POINT('',(25.9005083948393,1.61574118623074,3.61994926428438E-16));
#354=CARTESIAN_POINT('',(26.0257977898682,1.86363669943098,3.07901502487528E-16));
#355=CARTESIAN_POINT('',(26.1272260755265,2.11701650822471,2.51235632736849E-16));
#356=CARTESIAN_POINT('',(26.1892194612786,2.31963137229883,2.04935530060433E-16));
#357=CARTESIAN_POINT('',(26.2258613791465,2.47328455299223,1.69288100646871E-16));
#358=CARTESIAN_POINT('',(26.2455994787704,2.57342089707137,1.45842608117971E-16));
#359=CARTESIAN_POINT('',(26.9262650252229,6.43366703590762,8.04145478714692E-17));
#360=CARTESIAN_POINT('',(27.5980708217222,10.2436670359076,5.36096985809795E-17));
#361=CARTESIAN_POINT('',(28.2698766182214,14.0536670359076,5.36096985809795E-17));
#362=CARTESIAN_POINT('',(28.9416824147206,17.8636670359075,8.04145478714692E-17));
#363=CARTESIAN_POINT('',(29.6240468500562,21.7335480523796,1.25152289318562E-16));
#364=CARTESIAN_POINT('',(29.6422971577339,21.8538156094869,1.07420436349238E-16));
#365=CARTESIAN_POINT('',(29.6621337450591,22.0440020233068,7.96454278578909E-17));
#366=CARTESIAN_POINT('',(29.6692845476691,22.3018878326221,4.2564426803695E-17));
#367=CARTESIAN_POINT('',(29.64403419596,22.6382669006894,-4.7858294080751E-18));
#368=CARTESIAN_POINT('',(29.5807171025643,22.9797724962101,-5.17492323542753E-17));
#369=CARTESIAN_POINT('',(29.4773594074315,23.3212092193788,-9.75249164548556E-17));
#370=CARTESIAN_POINT('',(29.3331313423176,23.6552779050036,-1.41044890662718E-16));
#371=CARTESIAN_POINT('',(29.1489042292206,23.9748427891986,-1.81314566736164E-16));
#372=CARTESIAN_POINT('',(28.9272224700623,24.2728217056126,-2.17396236312588E-16));
#373=CARTESIAN_POINT('',(28.6722651564435,24.5428791165515,-2.48507026158447E-16));
#374=CARTESIAN_POINT('',(28.3895458833639,24.7797992656313,-2.74063418272711E-16));
#375=CARTESIAN_POINT('',(28.0855973923975,24.9798466008318,-2.93723503733454E-16));
#376=CARTESIAN_POINT('',(27.7672957356652,25.1409239250988,-3.07389712898387E-16));
#377=CARTESIAN_POINT('',(27.441973275384,25.2625809138983,-3.15213357284E-16));
#378=CARTESIAN_POINT('',(27.1150892387558,25.345859268203,-3.17503965513634E-16));
#379=CARTESIAN_POINT('',(26.8598795705176,25.3835985031861,-3.15392160683128E-16));
#380=CARTESIAN_POINT('',(26.6691379284238,25.3970888023718,-3.11709870588107E-16));
#381=CARTESIAN_POINT('',(26.5475283730787,25.4,-3.08548711570378E-16));
#382=CARTESIAN_POINT('',(22.6179482041215,25.4,-1.84056012647608E-16));
#383=CARTESIAN_POINT('',(18.7491728128368,25.4,-1.22704008431738E-16));
#384=CARTESIAN_POINT('',(14.8803974215522,25.4,-1.22704008431739E-16));
#385=CARTESIAN_POINT('',(11.0116220302675,25.4,-1.84056012647608E-16));
#386=CARTESIAN_POINT('',(7.09182537246398,25.4,-3.15270300737849E-16));
#387=CARTESIAN_POINT('',(6.98978283942624,25.3979502601282,-3.31748456953315E-16));
#388=CARTESIAN_POINT('',(6.83210119354149,25.3885466101468,-3.55561148423062E-16));
#389=CARTESIAN_POINT('',(6.6217994660608,25.3626787451373,-3.83794031683596E-16));
#390=CARTESIAN_POINT('',(6.3546562289364,25.3067903251009,-4.13563950455153E-16));
#391=CARTESIAN_POINT('',(6.08877053047184,25.2264509616252,-4.3665389361817E-16));
#392=CARTESIAN_POINT('',(5.8265850163421,25.1212912993591,-4.52558692128457E-16));
#393=CARTESIAN_POINT('',(5.57182017535246,24.9915329556295,-4.60716417860793E-16));
#394=CARTESIAN_POINT('',(5.32777954614722,24.8380264125491,-4.60801099911414E-16));
#395=CARTESIAN_POINT('',(5.09775836333308,24.6622412996779,-4.52651991559416E-16));
#396=CARTESIAN_POINT('',(4.8847010620929,24.4662394199966,-4.36323560164242E-16));
#397=CARTESIAN_POINT('',(4.69114941779107,24.2525624477711,-4.12064419968385E-16));
#398=CARTESIAN_POINT('',(4.51912294449663,24.0242003570954,-3.80328927011735E-16));
#399=CARTESIAN_POINT('',(4.37003285705353,23.7842588137694,-3.41703515231238E-16));
#400=CARTESIAN_POINT('',(4.2447434620246,23.5363633005692,-2.97003396346194E-16));
#401=CARTESIAN_POINT('',(4.1433151763663,23.2829834917754,-2.46872019225038E-16));
#402=CARTESIAN_POINT('',(4.08132179061415,23.0803686277013,-2.03596395915474E-16));
#403=CARTESIAN_POINT('',(4.04467987274628,22.9267154470079,-1.69048444380403E-16));
#404=CARTESIAN_POINT('',(4.02494177312235,22.8265791029288,-1.45842608117972E-16));
#405=CARTESIAN_POINT('',(3.34427622666985,18.9663329640925,-8.04145478714697E-17));
#406=CARTESIAN_POINT('',(2.67247043017061,15.1563329640926,-5.36096985809797E-17));
#407=CARTESIAN_POINT('',(2.00066463367137,11.3463329640926,-5.36096985809796E-17));
#408=CARTESIAN_POINT('',(1.32885883717212,7.53633296409262,-8.04145478714693E-17));
#409=CARTESIAN_POINT('',(0.646494401836597,3.66645194762053,-1.25152289318562E-16));
#410=CARTESIAN_POINT('',(0.628244094158829,3.54618439051331,-1.07420436349238E-16));
#411=CARTESIAN_POINT('',(0.608407506833656,3.35599797669332,-7.96454278578911E-17));
#412=CARTESIAN_POINT('',(0.601256704223621,3.09811216737806,-4.25644268036951E-17));
#413=CARTESIAN_POINT('',(0.626507055932816,2.76173309931075,4.78582940807482E-18));
#414=CARTESIAN_POINT('',(0.68982414932845,2.42022750379006,5.17492323542751E-17));
#415=CARTESIAN_POINT('',(0.793181844461259,2.0787907806214,9.75249164548551E-17));
#416=CARTESIAN_POINT('',(0.937409909575138,1.74472209499661,1.41044890662718E-16));
#417=CARTESIAN_POINT('',(1.12163702267214,1.42515721080154,1.81314566736164E-16));
#418=CARTESIAN_POINT('',(1.3433187818304,1.12717829438753,2.17396236312588E-16));
#419=CARTESIAN_POINT('',(1.59827609544925,0.857120883448641,2.48507026158446E-16));
#420=CARTESIAN_POINT('',(1.8809953685289,0.620200734368842,2.74063418272711E-16));
#421=CARTESIAN_POINT('',(2.18494385949524,0.420153399168413,2.93723503733454E-16));
#422=CARTESIAN_POINT('',(2.50324551622752,0.259076074901348,3.07389712898387E-16));
#423=CARTESIAN_POINT('',(2.82856797650873,0.137419086101891,3.15213357284E-16));
#424=CARTESIAN_POINT('',(3.15545201313696,0.0541407317972151,3.17503965513634E-16));
#425=CARTESIAN_POINT('',(3.41066168137517,0.0164014968140798,3.15392160683128E-16));
#426=CARTESIAN_POINT('',(3.60140332346894,0.00291119762835912,3.11709870588107E-16));
#427=CARTESIAN_POINT('',(3.72301287881407,1.63424829224823E-13,3.08548711570378E-16));
#428=CARTESIAN_POINT('',(7.6525930477713,1.61648472385423E-13,1.84056012647608E-16));
#429=CARTESIAN_POINT('',(11.521368439056,1.54543045027822E-13,9.20280063238038E-17));
#430=CARTESIAN_POINT('',(15.3901438303406,1.54543045027822E-13,3.06760021079346E-17));
#431=CARTESIAN_POINT('',(19.2589192216253,1.49213974509621E-13,0.0));
#432=CARTESIAN_POINT('',(23.1787158794288,1.4388490399142E-13,6.16155526579222E-16));
#433=CARTESIAN_POINT('',(0.0,0.0,0.0));
#434=CARTESIAN_POINT('',(15.1352706259465,12.7,0.0));
#435=CARTESIAN_POINT('',(15.1352706259465,12.7,-9.525));
#436=CARTESIAN_POINT('',(11.6424909875455,9.76920989363423,-9.525));
#437=CARTESIAN_POINT('',(15.1352706259464,25.4,-9.525));
#438=CARTESIAN_POINT('',(7.14284663898285,25.4,-9.525));
#439=CARTESIAN_POINT('',(26.4867235954061,25.4,-9.525));
#440=CARTESIAN_POINT('',(26.4867235954061,22.225,-9.525));
#441=CARTESIAN_POINT('',(29.6134882112199,21.6736670359075,-9.525));
#442=CARTESIAN_POINT('',(27.6423290892014,10.4946681436301,-9.525));
#443=CARTESIAN_POINT('',(26.2544592287237,2.62366703590765,-9.525));
#444=CARTESIAN_POINT('',(23.1276946129099,3.17500000000014,-9.525));
#445=CARTESIAN_POINT('',(23.1276946129099,1.47451495458029E-13,-9.525));
#446=CARTESIAN_POINT('',(15.1352706259464,1.52655665885959E-13,-9.525));
#447=CARTESIAN_POINT('',(3.78381765648664,1.61329283265843E-13,-9.525));
#448=CARTESIAN_POINT('',(3.78381765648665,3.17500000000016,-9.525));
#449=CARTESIAN_POINT('',(0.657053040672883,3.72633296409266,-9.525));
#450=CARTESIAN_POINT('',(2.62821216269142,14.9053318563701,-9.525));
#451=CARTESIAN_POINT('',(4.0160820231691,22.7763329640925,-9.525));
#452=CARTESIAN_POINT('',(7.14284663898285,22.225,-9.525));
#453=CARTESIAN_POINT('',(15.0890493134093,12.1716879801979,-9.525));
#454=CARTESIAN_POINT('',(15.1352706259464,25.4,-5.38749756651153E-15));
#455=CARTESIAN_POINT('',(26.4867235954061,25.4,-4.8011425131667E-15));
#456=CARTESIAN_POINT('',(7.14284663898285,25.4,-5.80034323532934E-15));
#457=CARTESIAN_POINT('',(26.4867235954061,25.4,-5.20417042793042E-15));
#458=CARTESIAN_POINT('',(7.14284663898285,25.4,-6.93889390390723E-15));
#459=CARTESIAN_POINT('',(15.1352706259464,25.4,-5.38749756651153E-15));
#460=CARTESIAN_POINT('',(0.657053040672881,3.72633296409266,-1.73472347597681E-15));
#461=CARTESIAN_POINT('',(0.657053040672881,3.72633296409266,-1.94726081765045E-15));
#462=CARTESIAN_POINT('',(2.62821216269141,14.90533185637,-4.00561136949635E-15));
#463=CARTESIAN_POINT('',(4.0160820231691,22.7763329640925,-5.45487168607555E-15));
#464=CARTESIAN_POINT('',(4.0160820231691,22.7763329640925,-5.20417042793042E-15));
#465=CARTESIAN_POINT('',(2.62821216269142,14.9053318563701,-4.00561136949636E-15));
#466=CARTESIAN_POINT('',(23.1276946129099,1.49186218934005E-13,-9.62964972193618E-32));
#467=CARTESIAN_POINT('',(23.1276946129099,1.49186218934005E-13,-6.64915604242127E-17));
#468=CARTESIAN_POINT('',(15.1352706259465,1.54390389361936E-13,-4.79337229242021E-16));
#469=CARTESIAN_POINT('',(3.78381765648664,1.6306400674182E-13,-1.06569228258686E-15));
#470=CARTESIAN_POINT('',(3.78381765648664,1.6306400674182E-13,-1.73472347597681E-15));
#471=CARTESIAN_POINT('',(15.1352706259464,1.54390389361936E-13,-4.79337229242025E-16));
#472=CARTESIAN_POINT('',(29.6134882112199,21.6736670359075,-5.20417042793042E-15));
#473=CARTESIAN_POINT('',(29.6134882112199,21.6736670359075,-3.91957397810311E-15));
#474=CARTESIAN_POINT('',(27.6423290892013,10.4946681436301,-1.86122342625719E-15));
#475=CARTESIAN_POINT('',(26.2544592287237,2.62366703590765,-4.11963109678007E-16));
#476=CARTESIAN_POINT('',(26.2544592287237,2.62366703590765,-1.73472347597681E-15));
#477=CARTESIAN_POINT('',(27.6423290892014,10.4946681436301,-1.86122342625719E-15));
#478=CARTESIAN_POINT('',(15.1352706259465,12.7,0.0));
#479=CARTESIAN_POINT('',(11.6424909875455,9.76920989363423,0.0));
#480=CARTESIAN_POINT('',(26.4867235954061,22.225,-4.18762247100801E-15));
#481=CARTESIAN_POINT('',(7.14284663898285,22.225,-5.18682319317065E-15));
#482=CARTESIAN_POINT('',(3.78381765648664,3.17500000000016,-1.67921232474555E-15));
#483=CARTESIAN_POINT('',(23.1276946129099,3.17500000000015,-6.80011602582904E-16));
#484=CARTESIAN_POINT('',(15.1352706259465,12.7,-2.93341739787676E-15));
#485=CARTESIAN_POINT('',(26.4867235954061,22.225,-5.20417042793042E-15));
#486=CARTESIAN_POINT('',(23.1276946129099,3.17500000000015,-1.73472347597681E-15));
#487=CARTESIAN_POINT('',(3.78381765648664,3.17500000000016,-1.73472347597681E-15));
#488=CARTESIAN_POINT('',(7.14284663898285,22.225,-5.20417042793042E-15));
#489=CARTESIAN_POINT('',(15.1352706259465,12.7,-33.3676978394524));
#490=MECHANICAL_DESIGN_GEOMETRIC_PRESENTATION_REPRESENTATION('',(#232,#233,#234,
     #235),#491);
#491=(GEOMETRIC_REPRESENTATION_CONTEXT(3)GLOBAL_UNCERTAINTY_ASSIGNED_CONTEXT((#492))
     GLOBAL_UNIT_ASSIGNED_CONTEXT((#498,#494,#493))REPRESENTATION_CONTEXT('CNMM250932',
     'TOP_LEVEL_ASSEMBLY_PART'));
#492=UNCERTAINTY_MEASURE_WITH_UNIT(LENGTH_MEASURE(2.0E-5),#498,'DISTANCE_ACCURACY_VALUE',
     'Maximum Tolerance applied to model');
#493=(NAMED_UNIT(*)SI_UNIT($,.STERADIAN.)SOLID_ANGLE_UNIT());
#494=(CONVERSION_BASED_UNIT('DEGREE',#496)NAMED_UNIT(#495)PLANE_ANGLE_UNIT());
#495=DIMENSIONAL_EXPONENTS(0.0,0.0,0.0,0.0,0.0,0.0,0.0);
#496=PLANE_ANGLE_MEASURE_WITH_UNIT(PLANE_ANGLE_MEASURE(0.0174532925),#497);
#497=(NAMED_UNIT(*)PLANE_ANGLE_UNIT()SI_UNIT($,.RADIAN.));
#498=(LENGTH_UNIT()NAMED_UNIT(*)SI_UNIT(.MILLI.,.METRE.));
#499=CONSTRUCTIVE_GEOMETRY_REPRESENTATION('supplemental geometry',(#249,#250),#491);
#500=CONSTRUCTIVE_GEOMETRY_REPRESENTATION_RELATIONSHIP('supplemental geometry','contains PCS and MCS coordinate systems',
     #24,#499);
ENDSEC;
END-ISO-10303-21;
