ISO-10303-21;
HEADER;
FILE_DESCRIPTION(
/* description */ (''),
/* implementation_level */ '2;1');
FILE_NAME(
/* name */ 'RNMG250900.stp',
/* time_stamp */ '2017-03-21T10:54:15',
/* author */ ('Sandvik Coromant R&D'),
/* organization */ ('Sandvik Machining Solutions'),
/* preprocessor_version */ 'ST-DEVELOPER v15',
/* originating_system */ 'SIEMENS PLM Software NX v8.5.3.3(64 bits)',
/* authorization */ '');
FILE_SCHEMA(('AUTOMOTIVE_DESIGN'));
ENDSEC;
DATA;
#10=GEOMETRICALLY_BOUNDED_WIREFRAME_SHAPE_REPRESENTATION('IsoTurningInsert-None',
     (#25),#159);
#11=SHAPE_REPRESENTATION_RELATIONSHIP('None','relationship between IsoTurningInsert-None and IsoTurningInsert-None',
     #24,#13);
#12=SHAPE_REPRESENTATION_RELATIONSHIP('None','relationship between IsoTurningInsert-None and IsoTurningInsert-None',
     #24,#10);
#13=ADVANCED_BREP_SHAPE_REPRESENTATION('IsoTurningInsert-None',(#31),#159);
#14=SHAPE_DEFINITION_REPRESENTATION(#15,#24);
#15=PRODUCT_DEFINITION_SHAPE('','',#16);
#16=PRODUCT_DEFINITION(' ','',#18,#17);
#17=PRODUCT_DEFINITION_CONTEXT('part definition',#23,'design');
#18=PRODUCT_DEFINITION_FORMATION_WITH_SPECIFIED_SOURCE(' ',' ',#20,.NOT_KNOWN.);
#19=PRODUCT_RELATED_PRODUCT_CATEGORY('part','',(#20));
#20=PRODUCT('IsoTurningInsert','IsoTurningInsert',' ',(#21));
#21=PRODUCT_CONTEXT(' ',#23,'mechanical');
#22=APPLICATION_PROTOCOL_DEFINITION('international standard','automotive_design',
     2010,#23);
#23=APPLICATION_CONTEXT('core data for automotive mechanical design processes');
#24=SHAPE_REPRESENTATION('IsoTurningInsert-None',(#104),#159);
#25=GEOMETRIC_CURVE_SET('geometric curve set',(#80));
#26=SURFACE_STYLE_USAGE(.BOTH.,#27);
#27=SURFACE_SIDE_STYLE('',(#28));
#28=SURFACE_STYLE_FILL_AREA(#29);
#29=FILL_AREA_STYLE('',(#30));
#30=FILL_AREA_STYLE_COLOUR('',#103);
#31=MANIFOLD_SOLID_BREP('CUT',#32);
#32=CLOSED_SHELL('',(#35,#36,#37,#38));
#33=CYLINDRICAL_SURFACE('',#114,12.7);
#34=CYLINDRICAL_SURFACE('',#115,4.5595);
#35=ADVANCED_FACE('',(#41,#42),#39,.F.);
#36=ADVANCED_FACE('',(#43,#44),#40,.F.);
#37=ADVANCED_FACE('',(#45,#46),#33,.T.);
#38=ADVANCED_FACE('',(#47,#48),#34,.F.);
#39=PLANE('',#110);
#40=PLANE('',#113);
#41=FACE_BOUND('',#49,.T.);
#42=FACE_BOUND('',#50,.T.);
#43=FACE_BOUND('',#51,.T.);
#44=FACE_BOUND('',#52,.T.);
#45=FACE_BOUND('',#53,.T.);
#46=FACE_BOUND('',#54,.T.);
#47=FACE_BOUND('',#55,.T.);
#48=FACE_BOUND('',#56,.T.);
#49=EDGE_LOOP('',(#57));
#50=EDGE_LOOP('',(#58));
#51=EDGE_LOOP('',(#59));
#52=EDGE_LOOP('',(#60));
#53=EDGE_LOOP('',(#61));
#54=EDGE_LOOP('',(#62));
#55=EDGE_LOOP('',(#63));
#56=EDGE_LOOP('',(#64));
#57=ORIENTED_EDGE('',*,*,#69,.F.);
#58=ORIENTED_EDGE('',*,*,#70,.F.);
#59=ORIENTED_EDGE('',*,*,#71,.T.);
#60=ORIENTED_EDGE('',*,*,#72,.F.);
#61=ORIENTED_EDGE('',*,*,#72,.T.);
#62=ORIENTED_EDGE('',*,*,#69,.T.);
#63=ORIENTED_EDGE('',*,*,#71,.F.);
#64=ORIENTED_EDGE('',*,*,#70,.T.);
#65=VERTEX_POINT('',#147);
#66=VERTEX_POINT('',#149);
#67=VERTEX_POINT('',#152);
#68=VERTEX_POINT('',#154);
#69=EDGE_CURVE('',#65,#65,#81,.T.);
#70=EDGE_CURVE('',#66,#66,#82,.T.);
#71=EDGE_CURVE('',#67,#67,#83,.T.);
#72=EDGE_CURVE('',#68,#68,#84,.T.);
#73=CURVE_STYLE('',#77,POSITIVE_LENGTH_MEASURE(0.18),#76);
#74=CURVE_STYLE('',#78,POSITIVE_LENGTH_MEASURE(0.18),#102);
#75=CURVE_STYLE('',#79,POSITIVE_LENGTH_MEASURE(0.18),#102);
#76=DRAUGHTING_PRE_DEFINED_COLOUR('blue');
#77=DRAUGHTING_PRE_DEFINED_CURVE_FONT('continuous');
#78=DRAUGHTING_PRE_DEFINED_CURVE_FONT('continuous');
#79=DRAUGHTING_PRE_DEFINED_CURVE_FONT('continuous');
#80=CIRCLE('CUTTING EDGE LINE',#105,12.7);
#81=CIRCLE('',#108,12.7);
#82=CIRCLE('',#109,4.5595);
#83=CIRCLE('',#111,4.5595);
#84=CIRCLE('',#112,12.7);
#85=PRESENTATION_LAYER_ASSIGNMENT('1','Layer 1',(#80,#106,#107,#31));
#88=STYLED_ITEM('',(#94),#80);
#89=STYLED_ITEM('',(#95),#106);
#90=STYLED_ITEM('',(#96),#107);
#91=STYLED_ITEM('',(#97),#31);
#92=PRESENTATION_STYLE_ASSIGNMENT((#98));
#93=PRESENTATION_STYLE_ASSIGNMENT((#99));
#94=PRESENTATION_STYLE_ASSIGNMENT((#73));
#95=PRESENTATION_STYLE_ASSIGNMENT((#74));
#96=PRESENTATION_STYLE_ASSIGNMENT((#75));
#97=PRESENTATION_STYLE_ASSIGNMENT((#26));
#98=POINT_STYLE('',#100,POSITIVE_LENGTH_MEASURE(3.0),#102);
#99=POINT_STYLE('',#101,POSITIVE_LENGTH_MEASURE(3.0),#102);
#100=PRE_DEFINED_POINT_MARKER_SYMBOL('plus');
#101=PRE_DEFINED_POINT_MARKER_SYMBOL('plus');
#102=COLOUR_RGB('Medium Maroon',0.6,0.4,0.4);
#103=COLOUR_RGB('IsoInsertColor',0.8,0.8,0.8);
#104=AXIS2_PLACEMENT_3D('',#140,#116,#117);
#105=AXIS2_PLACEMENT_3D('',#143,#118,#119);
#106=AXIS2_PLACEMENT_3D('PCS',#144,#120,#121);
#107=AXIS2_PLACEMENT_3D('MCS',#145,#122,#123);
#108=AXIS2_PLACEMENT_3D('',#146,#124,#125);
#109=AXIS2_PLACEMENT_3D('',#148,#126,#127);
#110=AXIS2_PLACEMENT_3D('',#150,#128,#129);
#111=AXIS2_PLACEMENT_3D('',#151,#130,#131);
#112=AXIS2_PLACEMENT_3D('',#153,#132,#133);
#113=AXIS2_PLACEMENT_3D('',#155,#134,#135);
#114=AXIS2_PLACEMENT_3D('',#156,#136,#137);
#115=AXIS2_PLACEMENT_3D('',#157,#138,#139);
#116=DIRECTION('',(0.0,0.0,1.0));
#117=DIRECTION('',(1.0,0.0,0.0));
#118=DIRECTION('',(0.0,0.0,-1.0));
#119=DIRECTION('',(-0.882015164970351,-0.471221019015837,0.0));
#120=DIRECTION('',(0.0,0.0,1.0));
#121=DIRECTION('',(1.0,0.0,0.0));
#122=DIRECTION('',(0.0,0.0,1.0));
#123=DIRECTION('',(1.0,0.0,0.0));
#124=DIRECTION('',(0.0,0.0,-1.0));
#125=DIRECTION('',(-0.882015164970351,-0.471221019015837,0.0));
#126=DIRECTION('',(0.0,0.0,1.0));
#127=DIRECTION('',(-0.707106781186548,-0.707106781186547,0.0));
#128=DIRECTION('',(0.0,0.0,-1.0));
#129=DIRECTION('',(0.707106781186548,0.707106781186547,0.0));
#130=DIRECTION('',(0.0,0.0,1.0));
#131=DIRECTION('',(-0.707106781186548,-0.707106781186547,0.0));
#132=DIRECTION('',(0.0,0.0,1.0));
#133=DIRECTION('',(-0.707106781186548,-0.707106781186548,0.0));
#134=DIRECTION('',(0.0,0.0,1.0));
#135=DIRECTION('',(-0.707106781186548,-0.707106781186547,0.0));
#136=DIRECTION('',(0.0,0.0,1.0));
#137=DIRECTION('',(-0.707106781186548,-0.707106781186548,0.0));
#138=DIRECTION('',(0.0,0.0,1.0));
#139=DIRECTION('',(-0.707106781186548,-0.707106781186547,0.0));
#140=CARTESIAN_POINT('',(0.0,0.0,0.0));
#143=CARTESIAN_POINT('',(12.7,12.7,0.0));
#144=CARTESIAN_POINT('',(0.0,0.0,0.0));
#145=CARTESIAN_POINT('',(12.7,12.7,0.0));
#146=CARTESIAN_POINT('',(12.7,12.7,4.26685108753951E-15));
#147=CARTESIAN_POINT('',(1.49840740487652,6.71549305849886,4.26685108753951E-15));
#148=CARTESIAN_POINT('',(12.7,12.7,-3.46944695195361E-15));
#149=CARTESIAN_POINT('',(9.47594663117994,9.47594663117994,-3.46944695195361E-15));
#150=CARTESIAN_POINT('',(12.7,12.7,4.26685108753951E-15));
#151=CARTESIAN_POINT('',(12.7,12.7,-9.525));
#152=CARTESIAN_POINT('',(9.47594663117994,9.47594663117994,-9.525));
#153=CARTESIAN_POINT('',(12.7,12.7,-9.525));
#154=CARTESIAN_POINT('',(3.71974387893084,3.71974387893083,-9.525));
#155=CARTESIAN_POINT('',(12.7,12.1696699141101,-9.525));
#156=CARTESIAN_POINT('',(12.7,12.7,3.46944695195361E-15));
#157=CARTESIAN_POINT('',(12.7,12.7,-29.1328042564319));
#158=MECHANICAL_DESIGN_GEOMETRIC_PRESENTATION_REPRESENTATION('',(#88,#89,#90,#91),
     #159);
#159=(GEOMETRIC_REPRESENTATION_CONTEXT(3)GLOBAL_UNCERTAINTY_ASSIGNED_CONTEXT((#160))
     GLOBAL_UNIT_ASSIGNED_CONTEXT((#166,#162,#161))REPRESENTATION_CONTEXT('RNMG250900',
     'TOP_LEVEL_ASSEMBLY_PART'));
#160=UNCERTAINTY_MEASURE_WITH_UNIT(LENGTH_MEASURE(2.0E-5),#166,'DISTANCE_ACCURACY_VALUE',
     'Maximum Tolerance applied to model');
#161=(NAMED_UNIT(*)SI_UNIT($,.STERADIAN.)SOLID_ANGLE_UNIT());
#162=(CONVERSION_BASED_UNIT('DEGREE',#164)NAMED_UNIT(#163)PLANE_ANGLE_UNIT());
#163=DIMENSIONAL_EXPONENTS(0.0,0.0,0.0,0.0,0.0,0.0,0.0);
#164=PLANE_ANGLE_MEASURE_WITH_UNIT(PLANE_ANGLE_MEASURE(0.0174532925),#165);
#165=(NAMED_UNIT(*)PLANE_ANGLE_UNIT()SI_UNIT($,.RADIAN.));
#166=(LENGTH_UNIT()NAMED_UNIT(*)SI_UNIT(.MILLI.,.METRE.));
#167=CONSTRUCTIVE_GEOMETRY_REPRESENTATION('supplemental geometry',(#106,#107),#159);
#168=CONSTRUCTIVE_GEOMETRY_REPRESENTATION_RELATIONSHIP('supplemental geometry','contains PCS and MCS coordinate systems',
     #24,#167);
ENDSEC;
END-ISO-10303-21;
