ISO-10303-21;
HEADER;
FILE_DESCRIPTION(
/* description */ (''),
/* implementation_level */ '2;1');
FILE_NAME(
/* name */ 'RCMT060300.stp',
/* time_stamp */ '2017-03-21T10:54:11',
/* author */ ('Sandvik Coromant R&D'),
/* organization */ ('Sandvik Machining Solutions'),
/* preprocessor_version */ 'ST-DEVELOPER v15',
/* originating_system */ 'SIEMENS PLM Software NX v8.5.3.3(64 bits)',
/* authorization */ '');
FILE_SCHEMA(('AUTOMOTIVE_DESIGN'));
ENDSEC;
DATA;
#10=GEOMETRICALLY_BOUNDED_WIREFRAME_SHAPE_REPRESENTATION('IsoTurningInsert-None',
     (#25),#228);
#11=SHAPE_REPRESENTATION_RELATIONSHIP('None','relationship between IsoTurningInsert-None and IsoTurningInsert-None',
     #24,#13);
#12=SHAPE_REPRESENTATION_RELATIONSHIP('None','relationship between IsoTurningInsert-None and IsoTurningInsert-None',
     #24,#10);
#13=ADVANCED_BREP_SHAPE_REPRESENTATION('IsoTurningInsert-None',(#31),#228);
#14=SHAPE_DEFINITION_REPRESENTATION(#15,#24);
#15=PRODUCT_DEFINITION_SHAPE('','',#16);
#16=PRODUCT_DEFINITION(' ','',#18,#17);
#17=PRODUCT_DEFINITION_CONTEXT('part definition',#23,'design');
#18=PRODUCT_DEFINITION_FORMATION_WITH_SPECIFIED_SOURCE(' ',' ',#20,.NOT_KNOWN.);
#19=PRODUCT_RELATED_PRODUCT_CATEGORY('part','',(#20));
#20=PRODUCT('IsoTurningInsert','IsoTurningInsert',' ',(#21));
#21=PRODUCT_CONTEXT(' ',#23,'mechanical');
#22=APPLICATION_PROTOCOL_DEFINITION('international standard','automotive_design',
     2010,#23);
#23=APPLICATION_CONTEXT('core data for automotive mechanical design processes');
#24=SHAPE_REPRESENTATION('IsoTurningInsert-None',(#137),#228);
#25=GEOMETRIC_CURVE_SET('geometric curve set',(#117));
#26=SURFACE_STYLE_USAGE(.BOTH.,#27);
#27=SURFACE_SIDE_STYLE('',(#28));
#28=SURFACE_STYLE_FILL_AREA(#29);
#29=FILL_AREA_STYLE('',(#30));
#30=FILL_AREA_STYLE_COLOUR('',#136);
#31=MANIFOLD_SOLID_BREP('CUT',#32);
#32=CLOSED_SHELL('',(#38,#39,#40,#41,#42,#43,#44));
#33=CYLINDRICAL_SURFACE('',#152,1.4);
#34=TOROIDAL_SURFACE('',#151,3.9,2.5);
#35=TOROIDAL_SURFACE('',#153,1.58153008041286,0.3);
#36=CONICAL_SURFACE('',#146,3.17499999999999,6.99999999999999);
#37=CONICAL_SURFACE('',#148,1.87499999997636,4.00000000193298);
#38=ADVANCED_FACE('',(#47,#48),#45,.F.);
#39=ADVANCED_FACE('',(#49,#50),#46,.F.);
#40=ADVANCED_FACE('',(#51,#52),#36,.T.);
#41=ADVANCED_FACE('',(#53,#54),#37,.F.);
#42=ADVANCED_FACE('',(#55,#56),#34,.T.);
#43=ADVANCED_FACE('',(#57,#58),#33,.F.);
#44=ADVANCED_FACE('',(#59,#60),#35,.F.);
#45=PLANE('',#142);
#46=PLANE('',#145);
#47=FACE_BOUND('',#61,.T.);
#48=FACE_BOUND('',#62,.T.);
#49=FACE_BOUND('',#63,.T.);
#50=FACE_BOUND('',#64,.T.);
#51=FACE_BOUND('',#65,.T.);
#52=FACE_BOUND('',#66,.T.);
#53=FACE_BOUND('',#67,.T.);
#54=FACE_BOUND('',#68,.T.);
#55=FACE_BOUND('',#69,.T.);
#56=FACE_BOUND('',#70,.T.);
#57=FACE_BOUND('',#71,.T.);
#58=FACE_BOUND('',#72,.T.);
#59=FACE_BOUND('',#73,.T.);
#60=FACE_BOUND('',#74,.T.);
#61=EDGE_LOOP('',(#75));
#62=EDGE_LOOP('',(#76));
#63=EDGE_LOOP('',(#77));
#64=EDGE_LOOP('',(#78));
#65=EDGE_LOOP('',(#79));
#66=EDGE_LOOP('',(#80));
#67=EDGE_LOOP('',(#81));
#68=EDGE_LOOP('',(#82));
#69=EDGE_LOOP('',(#83));
#70=EDGE_LOOP('',(#84));
#71=EDGE_LOOP('',(#85));
#72=EDGE_LOOP('',(#86));
#73=EDGE_LOOP('',(#87));
#74=EDGE_LOOP('',(#88));
#75=ORIENTED_EDGE('',*,*,#96,.F.);
#76=ORIENTED_EDGE('',*,*,#97,.F.);
#77=ORIENTED_EDGE('',*,*,#98,.T.);
#78=ORIENTED_EDGE('',*,*,#99,.F.);
#79=ORIENTED_EDGE('',*,*,#99,.T.);
#80=ORIENTED_EDGE('',*,*,#96,.T.);
#81=ORIENTED_EDGE('',*,*,#100,.T.);
#82=ORIENTED_EDGE('',*,*,#97,.T.);
#83=ORIENTED_EDGE('',*,*,#101,.T.);
#84=ORIENTED_EDGE('',*,*,#102,.T.);
#85=ORIENTED_EDGE('',*,*,#102,.F.);
#86=ORIENTED_EDGE('',*,*,#98,.F.);
#87=ORIENTED_EDGE('',*,*,#101,.F.);
#88=ORIENTED_EDGE('',*,*,#100,.F.);
#89=VERTEX_POINT('',#207);
#90=VERTEX_POINT('',#209);
#91=VERTEX_POINT('',#212);
#92=VERTEX_POINT('',#214);
#93=VERTEX_POINT('',#218);
#94=VERTEX_POINT('',#221);
#95=VERTEX_POINT('',#223);
#96=EDGE_CURVE('',#89,#89,#103,.T.);
#97=EDGE_CURVE('',#90,#90,#104,.T.);
#98=EDGE_CURVE('',#91,#91,#105,.T.);
#99=EDGE_CURVE('',#92,#92,#106,.T.);
#100=EDGE_CURVE('',#93,#93,#107,.T.);
#101=EDGE_CURVE('',#94,#94,#108,.T.);
#102=EDGE_CURVE('',#95,#95,#109,.T.);
#103=CIRCLE('',#140,3.17499999999999);
#104=CIRCLE('',#141,1.91905389152441);
#105=CIRCLE('',#143,1.4);
#106=CIRCLE('',#144,2.78515901913327);
#107=CIRCLE('',#147,1.8807992954901);
#108=CIRCLE('',#149,1.82993757179719);
#109=CIRCLE('',#150,1.4);
#110=CURVE_STYLE('',#114,POSITIVE_LENGTH_MEASURE(0.18),#113);
#111=CURVE_STYLE('',#115,POSITIVE_LENGTH_MEASURE(0.18),#135);
#112=CURVE_STYLE('',#116,POSITIVE_LENGTH_MEASURE(0.18),#135);
#113=DRAUGHTING_PRE_DEFINED_COLOUR('blue');
#114=DRAUGHTING_PRE_DEFINED_CURVE_FONT('continuous');
#115=DRAUGHTING_PRE_DEFINED_CURVE_FONT('continuous');
#116=DRAUGHTING_PRE_DEFINED_CURVE_FONT('continuous');
#117=B_SPLINE_CURVE_WITH_KNOTS('CUTTING EDGE LINE',5,(#191,#192,#193,#194,#195,#196,
     #197,#198,#199,#200,#201,#202,#203),.UNSPECIFIED.,.T.,.F.,(1,1,1,1,1,1,1,1,
     1,1,1,1,1,1,1,1,1,1,1),(-0.625,-0.5,-0.375,-0.25,-0.125,0.0,0.125,0.25,0.375,
     0.5,0.625,0.75,0.875,1.0,1.125,1.25,1.375,1.5,1.625),.UNSPECIFIED.);
#118=PRESENTATION_LAYER_ASSIGNMENT('1','Layer 1',(#117,#138,#139,#31));
#121=STYLED_ITEM('',(#127),#117);
#122=STYLED_ITEM('',(#128),#138);
#123=STYLED_ITEM('',(#129),#139);
#124=STYLED_ITEM('',(#130),#31);
#125=PRESENTATION_STYLE_ASSIGNMENT((#131));
#126=PRESENTATION_STYLE_ASSIGNMENT((#132));
#127=PRESENTATION_STYLE_ASSIGNMENT((#110));
#128=PRESENTATION_STYLE_ASSIGNMENT((#111));
#129=PRESENTATION_STYLE_ASSIGNMENT((#112));
#130=PRESENTATION_STYLE_ASSIGNMENT((#26));
#131=POINT_STYLE('',#133,POSITIVE_LENGTH_MEASURE(3.0),#135);
#132=POINT_STYLE('',#134,POSITIVE_LENGTH_MEASURE(3.0),#135);
#133=PRE_DEFINED_POINT_MARKER_SYMBOL('plus');
#134=PRE_DEFINED_POINT_MARKER_SYMBOL('plus');
#135=COLOUR_RGB('Medium Maroon',0.6,0.4,0.4);
#136=COLOUR_RGB('IsoInsertColor',0.8,0.8,0.8);
#137=AXIS2_PLACEMENT_3D('',#188,#154,#155);
#138=AXIS2_PLACEMENT_3D('PCS',#204,#156,#157);
#139=AXIS2_PLACEMENT_3D('MCS',#205,#158,#159);
#140=AXIS2_PLACEMENT_3D('',#206,#160,#161);
#141=AXIS2_PLACEMENT_3D('',#208,#162,#163);
#142=AXIS2_PLACEMENT_3D('',#210,#164,#165);
#143=AXIS2_PLACEMENT_3D('',#211,#166,#167);
#144=AXIS2_PLACEMENT_3D('',#213,#168,#169);
#145=AXIS2_PLACEMENT_3D('',#215,#170,#171);
#146=AXIS2_PLACEMENT_3D('',#216,#172,#173);
#147=AXIS2_PLACEMENT_3D('',#217,#174,#175);
#148=AXIS2_PLACEMENT_3D('',#219,#176,#177);
#149=AXIS2_PLACEMENT_3D('',#220,#178,#179);
#150=AXIS2_PLACEMENT_3D('',#222,#180,#181);
#151=AXIS2_PLACEMENT_3D('',#224,#182,#183);
#152=AXIS2_PLACEMENT_3D('',#225,#184,#185);
#153=AXIS2_PLACEMENT_3D('',#226,#186,#187);
#154=DIRECTION('',(0.0,0.0,1.0));
#155=DIRECTION('',(1.0,0.0,0.0));
#156=DIRECTION('',(0.0,0.0,1.0));
#157=DIRECTION('',(1.0,0.0,0.0));
#158=DIRECTION('',(0.0,0.0,1.0));
#159=DIRECTION('',(1.0,0.0,0.0));
#160=DIRECTION('',(0.0,0.0,-1.0));
#161=DIRECTION('',(-0.882015164970351,-0.471221019015837,0.0));
#162=DIRECTION('',(0.0,0.0,1.0));
#163=DIRECTION('',(-0.707106781186548,-0.707106781186547,0.0));
#164=DIRECTION('',(0.0,0.0,-1.0));
#165=DIRECTION('',(0.707106781186548,0.707106781186547,0.0));
#166=DIRECTION('',(0.0,0.0,1.0));
#167=DIRECTION('',(-0.707106781186547,-0.707106781186547,0.0));
#168=DIRECTION('',(0.0,0.0,1.0));
#169=DIRECTION('',(-0.707106781186548,-0.707106781186547,0.0));
#170=DIRECTION('',(0.0,0.0,1.0));
#171=DIRECTION('',(-0.707106781186548,-0.707106781186547,0.0));
#172=DIRECTION('',(0.0,0.0,1.0));
#173=DIRECTION('',(-0.707106781186548,-0.707106781186547,-3.44301667841239E-17));
#174=DIRECTION('',(0.0,0.0,-1.0));
#175=DIRECTION('',(0.707106781186547,0.707106781186548,0.0));
#176=DIRECTION('',(0.0,0.0,1.0));
#177=DIRECTION('',(-0.707106781186548,-0.707106781186547,-2.41598843845765E-16));
#178=DIRECTION('',(0.0,0.0,1.0));
#179=DIRECTION('',(0.707106781186548,0.707106781186547,0.0));
#180=DIRECTION('',(0.0,0.0,-1.0));
#181=DIRECTION('',(-0.707106781186548,-0.707106781186547,0.0));
#182=DIRECTION('',(0.0,0.0,1.0));
#183=DIRECTION('',(-0.707106781186548,-0.707106781186547,0.0));
#184=DIRECTION('',(0.0,0.0,1.0));
#185=DIRECTION('',(-0.707106781186548,-0.707106781186547,0.0));
#186=DIRECTION('',(0.0,0.0,-1.0));
#187=DIRECTION('',(0.707106781186548,0.707106781186547,0.0));
#188=CARTESIAN_POINT('',(0.0,0.0,0.0));
#191=CARTESIAN_POINT('',(4.92196886050709,-0.094915741476961,0.0));
#192=CARTESIAN_POINT('',(2.09811393318894,-0.372473122450648,0.0));
#193=CARTESIAN_POINT('',(-0.0949157413420068,1.42803113943618,0.0));
#194=CARTESIAN_POINT('',(-0.372473122627171,4.25188606676364,0.0));
#195=CARTESIAN_POINT('',(1.42803113975535,6.44491574151661,0.0));
#196=CARTESIAN_POINT('',(4.25188606663053,6.72247312249811,0.0));
#197=CARTESIAN_POINT('',(6.44491574154413,4.92196886040316,0.0));
#198=CARTESIAN_POINT('',(6.7224731224463,2.0981139332717,0.0));
#199=CARTESIAN_POINT('',(4.92196886050709,-0.094915741476961,0.0));
#200=CARTESIAN_POINT('',(2.09811393318894,-0.372473122450648,0.0));
#201=CARTESIAN_POINT('',(-0.0949157413420068,1.42803113943618,0.0));
#202=CARTESIAN_POINT('',(-0.372473122627171,4.25188606676364,0.0));
#203=CARTESIAN_POINT('',(1.42803113975535,6.44491574151661,0.0));
#204=CARTESIAN_POINT('',(0.0,0.0,0.0));
#205=CARTESIAN_POINT('',(3.175,3.175,0.0));
#206=CARTESIAN_POINT('',(3.17499999999999,3.17499999999999,4.26685108753951E-15));
#207=CARTESIAN_POINT('',(0.374601851219134,1.67887326462471,4.26685108753951E-15));
#208=CARTESIAN_POINT('',(3.175,3.175,-3.46944695195361E-15));
#209=CARTESIAN_POINT('',(1.81802397984065,1.81802397984065,-3.46944695195361E-15));
#210=CARTESIAN_POINT('',(3.17499999999999,3.17499999999999,4.26685108753951E-15));
#211=CARTESIAN_POINT('',(3.175,3.175,-3.175));
#212=CARTESIAN_POINT('',(2.18505050633883,2.18505050633883,-3.175));
#213=CARTESIAN_POINT('',(3.17499999999999,3.17499999999999,-3.175));
#214=CARTESIAN_POINT('',(1.20559517088798,1.20559517088798,-3.175));
#215=CARTESIAN_POINT('',(3.175,2.64466991411009,-3.175));
#216=CARTESIAN_POINT('',(3.17499999999999,3.17499999999999,4.33680868994202E-15));
#217=CARTESIAN_POINT('',(3.175,3.175,-0.54706621040685));
#218=CARTESIAN_POINT('',(4.50492593589193,4.50492593589193,-0.54706621040685));
#219=CARTESIAN_POINT('',(3.175,3.175,-0.630000000032643));
#220=CARTESIAN_POINT('',(3.175,3.175,-0.694346635009169));
#221=CARTESIAN_POINT('',(4.46896126616584,4.46896126616584,-0.694346635009169));
#222=CARTESIAN_POINT('',(3.175,3.175,-2.09607469113958));
#223=CARTESIAN_POINT('',(2.18505050633883,2.18505050633883,-2.09607469113958));
#224=CARTESIAN_POINT('',(3.175,3.175,-2.09607469113958));
#225=CARTESIAN_POINT('',(3.175,3.175,-29.1328042564319));
#226=CARTESIAN_POINT('',(3.175,3.175,-0.52613926827352));
#227=MECHANICAL_DESIGN_GEOMETRIC_PRESENTATION_REPRESENTATION('',(#121,#122,#123,
     #124),#228);
#228=(GEOMETRIC_REPRESENTATION_CONTEXT(3)GLOBAL_UNCERTAINTY_ASSIGNED_CONTEXT((#229))
     GLOBAL_UNIT_ASSIGNED_CONTEXT((#235,#231,#230))REPRESENTATION_CONTEXT('RCMT060300',
     'TOP_LEVEL_ASSEMBLY_PART'));
#229=UNCERTAINTY_MEASURE_WITH_UNIT(LENGTH_MEASURE(2.0E-5),#235,'DISTANCE_ACCURACY_VALUE',
     'Maximum Tolerance applied to model');
#230=(NAMED_UNIT(*)SI_UNIT($,.STERADIAN.)SOLID_ANGLE_UNIT());
#231=(CONVERSION_BASED_UNIT('DEGREE',#233)NAMED_UNIT(#232)PLANE_ANGLE_UNIT());
#232=DIMENSIONAL_EXPONENTS(0.0,0.0,0.0,0.0,0.0,0.0,0.0);
#233=PLANE_ANGLE_MEASURE_WITH_UNIT(PLANE_ANGLE_MEASURE(0.0174532925),#234);
#234=(NAMED_UNIT(*)PLANE_ANGLE_UNIT()SI_UNIT($,.RADIAN.));
#235=(LENGTH_UNIT()NAMED_UNIT(*)SI_UNIT(.MILLI.,.METRE.));
#236=CONSTRUCTIVE_GEOMETRY_REPRESENTATION('supplemental geometry',(#138,#139),#228);
#237=CONSTRUCTIVE_GEOMETRY_REPRESENTATION_RELATIONSHIP('supplemental geometry','contains PCS and MCS coordinate systems',
     #24,#236);
ENDSEC;
END-ISO-10303-21;
