ISO-10303-21;
HEADER;
FILE_DESCRIPTION(
/* description */ (''),
/* implementation_level */ '2;1');
FILE_NAME(
/* name */ 'VBGT160402.stp',
/* time_stamp */ '2017-03-21T10:54:44',
/* author */ ('Sandvik Coromant R&D'),
/* organization */ ('Sandvik Machining Solutions'),
/* preprocessor_version */ 'ST-DEVELOPER v15',
/* originating_system */ 'SIEMENS PLM Software NX v8.5.3.3(64 bits)',
/* authorization */ '');
FILE_SCHEMA(('AUTOMOTIVE_DESIGN'));
ENDSEC;
DATA;
#10=GEOMETRICALLY_BOUNDED_WIREFRAME_SHAPE_REPRESENTATION('IsoTurningInsert-None',
     (#25),#503);
#11=SHAPE_REPRESENTATION_RELATIONSHIP('None','relationship between IsoTurningInsert-None and IsoTurningInsert-None',
     #24,#13);
#12=SHAPE_REPRESENTATION_RELATIONSHIP('None','relationship between IsoTurningInsert-None and IsoTurningInsert-None',
     #24,#10);
#13=ADVANCED_BREP_SHAPE_REPRESENTATION('IsoTurningInsert-None',(#31),#503);
#14=SHAPE_DEFINITION_REPRESENTATION(#15,#24);
#15=PRODUCT_DEFINITION_SHAPE('','',#16);
#16=PRODUCT_DEFINITION(' ','',#18,#17);
#17=PRODUCT_DEFINITION_CONTEXT('part definition',#23,'design');
#18=PRODUCT_DEFINITION_FORMATION_WITH_SPECIFIED_SOURCE(' ',' ',#20,.NOT_KNOWN.);
#19=PRODUCT_RELATED_PRODUCT_CATEGORY('part','',(#20));
#20=PRODUCT('IsoTurningInsert','IsoTurningInsert',' ',(#21));
#21=PRODUCT_CONTEXT(' ',#23,'mechanical');
#22=APPLICATION_PROTOCOL_DEFINITION('international standard','automotive_design',
     2010,#23);
#23=APPLICATION_CONTEXT('core data for automotive mechanical design processes');
#24=SHAPE_REPRESENTATION('IsoTurningInsert-None',(#285),#503);
#25=GEOMETRIC_CURVE_SET('geometric curve set',(#265));
#26=SURFACE_STYLE_USAGE(.BOTH.,#27);
#27=SURFACE_SIDE_STYLE('',(#28));
#28=SURFACE_STYLE_FILL_AREA(#29);
#29=FILL_AREA_STYLE('',(#30));
#30=FILL_AREA_STYLE_COLOUR('',#284);
#31=MANIFOLD_SOLID_BREP('CUT',#32);
#32=CLOSED_SHELL('',(#49,#50,#51,#52,#53,#54,#55,#56,#57,#58,#59,#60,#61,#62));
#33=CYLINDRICAL_SURFACE('',#309,2.2);
#34=TOROIDAL_SURFACE('',#308,6.19999999999999,4.0);
#35=TOROIDAL_SURFACE('',#310,2.51117873496444,0.5);
#36=CONICAL_SURFACE('',#300,0.198437500000003,5.0);
#37=CONICAL_SURFACE('',#301,0.198437500000003,5.0);
#38=CONICAL_SURFACE('',#302,0.198437500000003,5.0);
#39=CONICAL_SURFACE('',#303,0.198437500000003,5.0);
#40=CONICAL_SURFACE('',#305,2.99999999999613,4.00000000019616);
#41=FACE_OUTER_BOUND('',#123,.T.);
#42=FACE_OUTER_BOUND('',#124,.T.);
#43=FACE_OUTER_BOUND('',#125,.T.);
#44=FACE_OUTER_BOUND('',#126,.T.);
#45=FACE_OUTER_BOUND('',#129,.T.);
#46=FACE_OUTER_BOUND('',#130,.T.);
#47=FACE_OUTER_BOUND('',#131,.T.);
#48=FACE_OUTER_BOUND('',#132,.T.);
#49=ADVANCED_FACE('',(#109,#110),#63,.F.);
#50=ADVANCED_FACE('',(#41),#64,.F.);
#51=ADVANCED_FACE('',(#42),#65,.F.);
#52=ADVANCED_FACE('',(#43),#66,.F.);
#53=ADVANCED_FACE('',(#44),#67,.F.);
#54=ADVANCED_FACE('',(#111,#112),#68,.T.);
#55=ADVANCED_FACE('',(#45),#36,.T.);
#56=ADVANCED_FACE('',(#46),#37,.T.);
#57=ADVANCED_FACE('',(#47),#38,.T.);
#58=ADVANCED_FACE('',(#48),#39,.T.);
#59=ADVANCED_FACE('',(#113,#114),#40,.F.);
#60=ADVANCED_FACE('',(#115,#116),#34,.T.);
#61=ADVANCED_FACE('',(#117,#118),#33,.F.);
#62=ADVANCED_FACE('',(#119,#120),#35,.F.);
#63=PLANE('',#289);
#64=PLANE('',#290);
#65=PLANE('',#291);
#66=PLANE('',#292);
#67=PLANE('',#293);
#68=PLANE('',#299);
#69=LINE('',#440,#89);
#70=LINE('',#443,#90);
#71=LINE('',#445,#91);
#72=LINE('',#447,#92);
#73=LINE('',#449,#93);
#74=LINE('',#452,#94);
#75=LINE('',#454,#95);
#76=LINE('',#455,#96);
#77=LINE('',#457,#97);
#78=LINE('',#459,#98);
#79=LINE('',#461,#99);
#80=LINE('',#463,#100);
#81=LINE('',#465,#101);
#82=LINE('',#467,#102);
#83=LINE('',#469,#103);
#84=LINE('',#471,#104);
#85=LINE('',#473,#105);
#86=LINE('',#475,#106);
#87=LINE('',#477,#107);
#88=LINE('',#479,#108);
#89=VECTOR('',#319,1.0);
#90=VECTOR('',#320,1.0);
#91=VECTOR('',#321,1.0);
#92=VECTOR('',#322,1.0);
#93=VECTOR('',#325,1.0);
#94=VECTOR('',#326,1.0);
#95=VECTOR('',#327,1.0);
#96=VECTOR('',#328,1.0);
#97=VECTOR('',#329,1.0);
#98=VECTOR('',#332,1.0);
#99=VECTOR('',#333,1.0);
#100=VECTOR('',#334,1.0);
#101=VECTOR('',#335,1.0);
#102=VECTOR('',#338,1.0);
#103=VECTOR('',#339,1.0);
#104=VECTOR('',#340,1.0);
#105=VECTOR('',#341,1.0);
#106=VECTOR('',#344,1.0);
#107=VECTOR('',#345,1.0);
#108=VECTOR('',#346,1.0);
#109=FACE_BOUND('',#121,.T.);
#110=FACE_BOUND('',#122,.T.);
#111=FACE_BOUND('',#127,.T.);
#112=FACE_BOUND('',#128,.T.);
#113=FACE_BOUND('',#133,.T.);
#114=FACE_BOUND('',#134,.T.);
#115=FACE_BOUND('',#135,.T.);
#116=FACE_BOUND('',#136,.T.);
#117=FACE_BOUND('',#137,.T.);
#118=FACE_BOUND('',#138,.T.);
#119=FACE_BOUND('',#139,.T.);
#120=FACE_BOUND('',#140,.T.);
#121=EDGE_LOOP('',(#141));
#122=EDGE_LOOP('',(#142,#143,#144,#145));
#123=EDGE_LOOP('',(#146,#147,#148,#149,#150,#151));
#124=EDGE_LOOP('',(#152,#153,#154,#155,#156,#157));
#125=EDGE_LOOP('',(#158,#159,#160,#161,#162,#163));
#126=EDGE_LOOP('',(#164,#165,#166,#167,#168,#169));
#127=EDGE_LOOP('',(#170));
#128=EDGE_LOOP('',(#171,#172,#173,#174,#175,#176,#177,#178));
#129=EDGE_LOOP('',(#179,#180,#181));
#130=EDGE_LOOP('',(#182,#183,#184));
#131=EDGE_LOOP('',(#185,#186,#187));
#132=EDGE_LOOP('',(#188,#189,#190));
#133=EDGE_LOOP('',(#191));
#134=EDGE_LOOP('',(#192));
#135=EDGE_LOOP('',(#193));
#136=EDGE_LOOP('',(#194));
#137=EDGE_LOOP('',(#195));
#138=EDGE_LOOP('',(#196));
#139=EDGE_LOOP('',(#197));
#140=EDGE_LOOP('',(#198));
#141=ORIENTED_EDGE('',*,*,#220,.T.);
#142=ORIENTED_EDGE('',*,*,#221,.T.);
#143=ORIENTED_EDGE('',*,*,#222,.T.);
#144=ORIENTED_EDGE('',*,*,#223,.T.);
#145=ORIENTED_EDGE('',*,*,#224,.T.);
#146=ORIENTED_EDGE('',*,*,#225,.F.);
#147=ORIENTED_EDGE('',*,*,#226,.T.);
#148=ORIENTED_EDGE('',*,*,#227,.F.);
#149=ORIENTED_EDGE('',*,*,#221,.F.);
#150=ORIENTED_EDGE('',*,*,#228,.T.);
#151=ORIENTED_EDGE('',*,*,#229,.T.);
#152=ORIENTED_EDGE('',*,*,#224,.F.);
#153=ORIENTED_EDGE('',*,*,#230,.T.);
#154=ORIENTED_EDGE('',*,*,#231,.T.);
#155=ORIENTED_EDGE('',*,*,#232,.F.);
#156=ORIENTED_EDGE('',*,*,#233,.T.);
#157=ORIENTED_EDGE('',*,*,#228,.F.);
#158=ORIENTED_EDGE('',*,*,#223,.F.);
#159=ORIENTED_EDGE('',*,*,#234,.T.);
#160=ORIENTED_EDGE('',*,*,#235,.T.);
#161=ORIENTED_EDGE('',*,*,#236,.F.);
#162=ORIENTED_EDGE('',*,*,#237,.T.);
#163=ORIENTED_EDGE('',*,*,#230,.F.);
#164=ORIENTED_EDGE('',*,*,#222,.F.);
#165=ORIENTED_EDGE('',*,*,#227,.T.);
#166=ORIENTED_EDGE('',*,*,#238,.T.);
#167=ORIENTED_EDGE('',*,*,#239,.F.);
#168=ORIENTED_EDGE('',*,*,#240,.T.);
#169=ORIENTED_EDGE('',*,*,#234,.F.);
#170=ORIENTED_EDGE('',*,*,#241,.F.);
#171=ORIENTED_EDGE('',*,*,#239,.T.);
#172=ORIENTED_EDGE('',*,*,#242,.T.);
#173=ORIENTED_EDGE('',*,*,#225,.T.);
#174=ORIENTED_EDGE('',*,*,#243,.T.);
#175=ORIENTED_EDGE('',*,*,#232,.T.);
#176=ORIENTED_EDGE('',*,*,#244,.T.);
#177=ORIENTED_EDGE('',*,*,#236,.T.);
#178=ORIENTED_EDGE('',*,*,#245,.T.);
#179=ORIENTED_EDGE('',*,*,#238,.F.);
#180=ORIENTED_EDGE('',*,*,#226,.F.);
#181=ORIENTED_EDGE('',*,*,#242,.F.);
#182=ORIENTED_EDGE('',*,*,#235,.F.);
#183=ORIENTED_EDGE('',*,*,#240,.F.);
#184=ORIENTED_EDGE('',*,*,#245,.F.);
#185=ORIENTED_EDGE('',*,*,#231,.F.);
#186=ORIENTED_EDGE('',*,*,#237,.F.);
#187=ORIENTED_EDGE('',*,*,#244,.F.);
#188=ORIENTED_EDGE('',*,*,#229,.F.);
#189=ORIENTED_EDGE('',*,*,#233,.F.);
#190=ORIENTED_EDGE('',*,*,#243,.F.);
#191=ORIENTED_EDGE('',*,*,#246,.T.);
#192=ORIENTED_EDGE('',*,*,#241,.T.);
#193=ORIENTED_EDGE('',*,*,#247,.T.);
#194=ORIENTED_EDGE('',*,*,#248,.T.);
#195=ORIENTED_EDGE('',*,*,#248,.F.);
#196=ORIENTED_EDGE('',*,*,#220,.F.);
#197=ORIENTED_EDGE('',*,*,#247,.F.);
#198=ORIENTED_EDGE('',*,*,#246,.F.);
#199=VERTEX_POINT('',#439);
#200=VERTEX_POINT('',#441);
#201=VERTEX_POINT('',#442);
#202=VERTEX_POINT('',#444);
#203=VERTEX_POINT('',#446);
#204=VERTEX_POINT('',#450);
#205=VERTEX_POINT('',#451);
#206=VERTEX_POINT('',#453);
#207=VERTEX_POINT('',#456);
#208=VERTEX_POINT('',#460);
#209=VERTEX_POINT('',#462);
#210=VERTEX_POINT('',#464);
#211=VERTEX_POINT('',#468);
#212=VERTEX_POINT('',#470);
#213=VERTEX_POINT('',#472);
#214=VERTEX_POINT('',#476);
#215=VERTEX_POINT('',#478);
#216=VERTEX_POINT('',#482);
#217=VERTEX_POINT('',#493);
#218=VERTEX_POINT('',#496);
#219=VERTEX_POINT('',#498);
#220=EDGE_CURVE('',#199,#199,#249,.T.);
#221=EDGE_CURVE('',#200,#201,#69,.T.);
#222=EDGE_CURVE('',#201,#202,#70,.T.);
#223=EDGE_CURVE('',#202,#203,#71,.T.);
#224=EDGE_CURVE('',#203,#200,#72,.T.);
#225=EDGE_CURVE('',#204,#205,#73,.T.);
#226=EDGE_CURVE('',#204,#206,#74,.T.);
#227=EDGE_CURVE('INSERT_CORNER_EDGE3',#201,#206,#75,.T.);
#228=EDGE_CURVE('INSERT_CORNER_EDGE4',#200,#207,#76,.T.);
#229=EDGE_CURVE('',#207,#205,#77,.T.);
#230=EDGE_CURVE('INSERT_CORNER_EDGE1',#203,#208,#78,.T.);
#231=EDGE_CURVE('',#208,#209,#79,.T.);
#232=EDGE_CURVE('',#210,#209,#80,.T.);
#233=EDGE_CURVE('',#210,#207,#81,.T.);
#234=EDGE_CURVE('INSERT_CORNER_EDGE2',#202,#211,#82,.T.);
#235=EDGE_CURVE('',#211,#212,#83,.T.);
#236=EDGE_CURVE('',#213,#212,#84,.T.);
#237=EDGE_CURVE('',#213,#208,#85,.T.);
#238=EDGE_CURVE('',#206,#214,#86,.T.);
#239=EDGE_CURVE('',#215,#214,#87,.T.);
#240=EDGE_CURVE('',#215,#211,#88,.T.);
#241=EDGE_CURVE('',#216,#216,#250,.T.);
#242=EDGE_CURVE('',#214,#204,#251,.T.);
#243=EDGE_CURVE('',#205,#210,#252,.T.);
#244=EDGE_CURVE('',#209,#213,#253,.T.);
#245=EDGE_CURVE('',#212,#215,#254,.T.);
#246=EDGE_CURVE('',#217,#217,#255,.T.);
#247=EDGE_CURVE('',#218,#218,#256,.T.);
#248=EDGE_CURVE('',#219,#219,#257,.T.);
#249=CIRCLE('',#288,2.2);
#250=CIRCLE('',#294,3.07132534818238);
#251=CIRCLE('',#295,0.198437500000003);
#252=CIRCLE('',#296,0.198437500000003);
#253=CIRCLE('',#297,0.198437500000003);
#254=CIRCLE('',#298,0.198437500000003);
#255=CIRCLE('',#304,3.00996076009423);
#256=CIRCLE('',#306,2.92104776441283);
#257=CIRCLE('',#307,2.2);
#258=CURVE_STYLE('',#262,POSITIVE_LENGTH_MEASURE(0.18),#261);
#259=CURVE_STYLE('',#263,POSITIVE_LENGTH_MEASURE(0.18),#283);
#260=CURVE_STYLE('',#264,POSITIVE_LENGTH_MEASURE(0.18),#283);
#261=DRAUGHTING_PRE_DEFINED_COLOUR('blue');
#262=DRAUGHTING_PRE_DEFINED_CURVE_FONT('continuous');
#263=DRAUGHTING_PRE_DEFINED_CURVE_FONT('continuous');
#264=DRAUGHTING_PRE_DEFINED_CURVE_FONT('continuous');
#265=B_SPLINE_CURVE_WITH_KNOTS('CUTTING EDGE LINE',5,(#386,#387,#388,#389,#390,#391,
     #392,#393,#394,#395,#396,#397,#398,#399,#400,#401,#402,#403,#404,#405,#406,
     #407,#408,#409,#410,#411,#412,#413,#414,#415,#416,#417,#418,#419,#420,#421,
     #422,#423,#424,#425,#426,#427,#428,#429,#430,#431,#432,#433,#434,#435),.UNSPECIFIED.,
     .T.,.F.,(2,4,1,4,4,1,1,1,1,1,1,1,4,4,1,4,4,1,1,1,1,1,1,1,4,4,1,1),(-0.2451974782,
     0.0,9.33823650000054E-4,0.0018676473,0.2470651255,0.2480323000375,0.248999474575024,
     0.2499666491125,0.250933823650024,0.2519009981875,0.252868172725029,0.2538353472625,
     0.2548025218,0.5,0.50093382365,0.5018676473,0.7470651255,0.7480323000375,0.748999474575027,
     0.7499666491125,0.750933823650021,0.7519009981875,0.752868172725023,0.7538353472625,
     0.7548025218,1.0,1.00093382365,1.0018676473),.UNSPECIFIED.);
#266=PRESENTATION_LAYER_ASSIGNMENT('1','Layer 1',(#265,#286,#287,#31));
#269=STYLED_ITEM('',(#275),#265);
#270=STYLED_ITEM('',(#276),#286);
#271=STYLED_ITEM('',(#277),#287);
#272=STYLED_ITEM('',(#278),#31);
#273=PRESENTATION_STYLE_ASSIGNMENT((#279));
#274=PRESENTATION_STYLE_ASSIGNMENT((#280));
#275=PRESENTATION_STYLE_ASSIGNMENT((#258));
#276=PRESENTATION_STYLE_ASSIGNMENT((#259));
#277=PRESENTATION_STYLE_ASSIGNMENT((#260));
#278=PRESENTATION_STYLE_ASSIGNMENT((#26));
#279=POINT_STYLE('',#281,POSITIVE_LENGTH_MEASURE(3.0),#283);
#280=POINT_STYLE('',#282,POSITIVE_LENGTH_MEASURE(3.0),#283);
#281=PRE_DEFINED_POINT_MARKER_SYMBOL('plus');
#282=PRE_DEFINED_POINT_MARKER_SYMBOL('plus');
#283=COLOUR_RGB('Medium Maroon',0.6,0.4,0.4);
#284=COLOUR_RGB('IsoInsertColor',0.8,0.8,0.8);
#285=AXIS2_PLACEMENT_3D('',#383,#311,#312);
#286=AXIS2_PLACEMENT_3D('PCS',#436,#313,#314);
#287=AXIS2_PLACEMENT_3D('MCS',#437,#315,#316);
#288=AXIS2_PLACEMENT_3D('',#438,#317,#318);
#289=AXIS2_PLACEMENT_3D('',#448,#323,#324);
#290=AXIS2_PLACEMENT_3D('',#458,#330,#331);
#291=AXIS2_PLACEMENT_3D('',#466,#336,#337);
#292=AXIS2_PLACEMENT_3D('',#474,#342,#343);
#293=AXIS2_PLACEMENT_3D('',#480,#347,#348);
#294=AXIS2_PLACEMENT_3D('',#481,#349,#350);
#295=AXIS2_PLACEMENT_3D('',#483,#351,#352);
#296=AXIS2_PLACEMENT_3D('',#484,#353,#354);
#297=AXIS2_PLACEMENT_3D('',#485,#355,#356);
#298=AXIS2_PLACEMENT_3D('',#486,#357,#358);
#299=AXIS2_PLACEMENT_3D('',#487,#359,#360);
#300=AXIS2_PLACEMENT_3D('',#488,#361,#362);
#301=AXIS2_PLACEMENT_3D('',#489,#363,#364);
#302=AXIS2_PLACEMENT_3D('',#490,#365,#366);
#303=AXIS2_PLACEMENT_3D('',#491,#367,#368);
#304=AXIS2_PLACEMENT_3D('',#492,#369,#370);
#305=AXIS2_PLACEMENT_3D('',#494,#371,#372);
#306=AXIS2_PLACEMENT_3D('',#495,#373,#374);
#307=AXIS2_PLACEMENT_3D('',#497,#375,#376);
#308=AXIS2_PLACEMENT_3D('',#499,#377,#378);
#309=AXIS2_PLACEMENT_3D('',#500,#379,#380);
#310=AXIS2_PLACEMENT_3D('',#501,#381,#382);
#311=DIRECTION('',(0.0,0.0,1.0));
#312=DIRECTION('',(1.0,0.0,0.0));
#313=DIRECTION('',(0.0,0.0,1.0));
#314=DIRECTION('',(1.0,0.0,0.0));
#315=DIRECTION('',(0.0,0.0,1.0));
#316=DIRECTION('',(1.0,0.0,0.0));
#317=DIRECTION('',(0.0,0.0,1.0));
#318=DIRECTION('',(-0.953716950748226,-0.300705799504273,0.0));
#319=DIRECTION('',(1.0,1.33226762955019E-15,0.0));
#320=DIRECTION('',(-0.819152044288991,-0.573576436351048,0.0));
#321=DIRECTION('',(-1.0,-1.66533453693773E-16,0.0));
#322=DIRECTION('',(0.819152044288992,0.573576436351046,0.0));
#323=DIRECTION('',(0.0,0.0,1.0));
#324=DIRECTION('',(-0.953716950748227,-0.300705799504273,0.0));
#325=DIRECTION('',(-1.0,-1.33226762955019E-15,-7.96170798800703E-17));
#326=DIRECTION('',(1.94289029309402E-16,-0.0871557427476587,-0.996194698091745));
#327=DIRECTION('',(0.266431115352839,0.0840054079904278,0.960186207045386));
#328=DIRECTION('',(-0.0274697301251259,0.0871228532871695,0.995818769838144));
#329=DIRECTION('',(-1.94289029309402E-16,0.0871557427476587,0.996194698091745));
#330=DIRECTION('',(1.27675647831893E-15,-0.996194698091746,0.0871557427476587));
#331=DIRECTION('',(1.0,1.33226762955019E-15,0.0));
#332=DIRECTION('',(-0.266431115352839,-0.0840054079904263,0.960186207045386));
#333=DIRECTION('',(-0.0499904803327304,0.0713938048432702,0.996194698091745));
#334=DIRECTION('',(-0.819152044288992,-0.573576436351046,2.7948912416233E-16));
#335=DIRECTION('',(0.0499904803327304,-0.0713938048432702,-0.996194698091745));
#336=DIRECTION('',(0.57139380484327,-0.816034923451708,0.0871557427476586));
#337=DIRECTION('',(0.819152044288992,0.573576436351046,0.0));
#338=DIRECTION('',(0.0274697301251258,-0.0871228532871683,0.995818769838144));
#339=DIRECTION('',(-7.28583859910259E-17,-0.0871557427476575,0.996194698091746));
#340=DIRECTION('',(1.0,1.66533453693773E-16,7.9617079880071E-17));
#341=DIRECTION('',(7.28583859910259E-17,0.0871557427476575,-0.996194698091746));
#342=DIRECTION('',(-1.11022302462516E-16,0.996194698091746,0.0871557427476575));
#343=DIRECTION('',(-1.0,-1.66533453693773E-16,0.0));
#344=DIRECTION('',(0.0499904803327303,-0.0713938048432689,0.996194698091746));
#345=DIRECTION('',(0.819152044288991,0.573576436351048,-2.79489124162331E-16));
#346=DIRECTION('',(-0.0499904803327303,0.0713938048432689,-0.996194698091746));
#347=DIRECTION('',(-0.571393804843271,0.816034923451707,0.0871557427476576));
#348=DIRECTION('',(-0.819152044288991,-0.573576436351048,0.0));
#349=DIRECTION('',(0.0,0.0,1.0));
#350=DIRECTION('',(-0.953716950748227,-0.300705799504273,0.0));
#351=DIRECTION('',(-8.02264902071665E-17,6.05579448138538E-16,1.0));
#352=DIRECTION('',(-0.300705799504268,0.953716950748223,-6.01675955593646E-16));
#353=DIRECTION('',(-8.02264902071665E-17,6.05579448138538E-16,1.0));
#354=DIRECTION('',(-0.300705799504277,0.953716950748224,-6.01675955593646E-16));
#355=DIRECTION('',(-8.02264902071665E-17,6.05579448138538E-16,1.0));
#356=DIRECTION('',(-0.300705799504274,0.953716950748227,-6.01675955593648E-16));
#357=DIRECTION('',(-8.02264902071665E-17,6.05579448138538E-16,1.0));
#358=DIRECTION('',(-0.300705799504268,0.953716950748227,-6.01675955593648E-16));
#359=DIRECTION('',(-8.02264902071665E-17,6.05579448138538E-16,1.0));
#360=DIRECTION('',(-0.300705799504273,0.953716950748227,-6.01675955593648E-16));
#361=DIRECTION('',(-8.02264902071665E-17,6.05579448138538E-16,1.0));
#362=DIRECTION('',(-0.300705799504273,0.953716950748227,4.9457772456862E-17));
#363=DIRECTION('',(-8.02264902071665E-17,6.05579448138538E-16,1.0));
#364=DIRECTION('',(-0.300705799504273,0.953716950748227,0.0));
#365=DIRECTION('',(-8.02264902071665E-17,6.05579448138538E-16,1.0));
#366=DIRECTION('',(-0.300705799504273,0.953716950748227,9.8915544913724E-18));
#367=DIRECTION('',(-8.02264902071665E-17,6.05579448138538E-16,1.0));
#368=DIRECTION('',(-0.300705799504273,0.953716950748227,5.93493269482344E-17));
#369=DIRECTION('',(0.0,0.0,-1.0));
#370=DIRECTION('',(0.953716950748227,0.300705799504273,0.0));
#371=DIRECTION('',(0.0,0.0,1.0));
#372=DIRECTION('',(-0.953716950748227,-0.300705799504274,3.80594939976543E-16));
#373=DIRECTION('',(0.0,0.0,1.0));
#374=DIRECTION('',(0.953716950748227,0.300705799504273,0.0));
#375=DIRECTION('',(0.0,0.0,-1.0));
#376=DIRECTION('',(-0.953716950748226,-0.300705799504273,0.0));
#377=DIRECTION('',(0.0,0.0,1.0));
#378=DIRECTION('',(-0.953716950748227,-0.300705799504273,0.0));
#379=DIRECTION('',(0.0,0.0,1.0));
#380=DIRECTION('',(-0.953716950748226,-0.300705799504273,0.0));
#381=DIRECTION('',(0.0,0.0,-1.0));
#382=DIRECTION('',(0.953716950748227,0.300705799504274,0.0));
#383=CARTESIAN_POINT('',(0.0,0.0,0.0));
#386=CARTESIAN_POINT('',(13.360883568617,-1.77635683940025E-15,-2.2186712959341E-32));
#387=CARTESIAN_POINT('',(16.5556978862906,-3.5527136788005E-15,1.2112711564676E-16));
#388=CARTESIAN_POINT('',(16.5795664091263,0.00179435081056933,1.21955381486662E-16));
#389=CARTESIAN_POINT('',(16.604047725575,0.00724075954752745,1.20997359963085E-16));
#390=CARTESIAN_POINT('',(16.6272255777052,0.0168212289424963,1.10542202662259E-16));
#391=CARTESIAN_POINT('',(16.6478067243237,0.0290418050768828,7.8161143027725E-17));
#392=CARTESIAN_POINT('',(19.2648454037698,1.8615120162114,1.07568537100094E-17));
#393=CARTESIAN_POINT('',(21.8721081085783,3.6871370162114,-1.23259516440783E-32));
#394=CARTESIAN_POINT('',(24.4793708133869,5.5127620162114,9.86076131526265E-33));
#395=CARTESIAN_POINT('',(27.0866335181954,7.3383870162114,1.07568537100095E-17));
#396=CARTESIAN_POINT('',(29.703507989945,9.17074224787903,6.12365506072982E-17));
#397=CARTESIAN_POINT('',(29.7217366110971,9.18562359384699,7.05457592731542E-17));
#398=CARTESIAN_POINT('',(29.7483176259947,9.21445815225714,7.24208380741564E-17));
#399=CARTESIAN_POINT('',(29.7729652240735,9.26045835496516,5.419907996024E-17));
#400=CARTESIAN_POINT('',(29.783837367913,9.32771440640164,1.59501734378416E-17));
#401=CARTESIAN_POINT('',(29.7731496985447,9.38743804106427,-2.13578427307122E-17));
#402=CARTESIAN_POINT('',(29.74764845522,9.4424909738005,-5.71118597331902E-17));
#403=CARTESIAN_POINT('',(29.7001660300619,9.49134790030549,-8.86892111527882E-17));
#404=CARTESIAN_POINT('',(29.6535912673686,9.51489177892056,-9.81375080300313E-17));
#405=CARTESIAN_POINT('',(29.6152785514194,9.52326542258865,-8.70608281005795E-17));
#406=CARTESIAN_POINT('',(29.5918109497503,9.52500000000001,-7.1160441386236E-17));
#407=CARTESIAN_POINT('',(26.3971970926598,9.52500000000001,-1.20169671739992E-17));
#408=CARTESIAN_POINT('',(23.2143170364041,9.525,-5.17689969051289E-32));
#409=CARTESIAN_POINT('',(20.0314369801483,9.525,-9.86076131526265E-33));
#410=CARTESIAN_POINT('',(16.8485569238926,9.52499999999999,-1.20169671739993E-17));
#411=CARTESIAN_POINT('',(13.653742606219,9.52499999999999,-8.45200322411907E-17));
#412=CARTESIAN_POINT('',(13.6298740833833,9.52320564918942,-1.1509975417755E-16));
#413=CARTESIAN_POINT('',(13.6053927669345,9.51775924045245,-1.21417587054863E-16));
#414=CARTESIAN_POINT('',(13.5822149148043,9.50817877105749,-1.10542202662259E-16));
#415=CARTESIAN_POINT('',(13.5616337681859,9.4959581949231,-7.8161143027725E-17));
#416=CARTESIAN_POINT('',(10.9445950887398,7.66348798378859,-1.07568537100095E-17));
#417=CARTESIAN_POINT('',(8.33733238393125,5.83786298378859,-6.16297582203915E-33));
#418=CARTESIAN_POINT('',(5.73006967912268,4.0122379837886,2.95822839457879E-32));
#419=CARTESIAN_POINT('',(3.12280697431411,2.1866129837886,-1.07568537100096E-17));
#420=CARTESIAN_POINT('',(0.505932502564509,0.354257752120968,-6.12365506072989E-17));
#421=CARTESIAN_POINT('',(0.487703881412383,0.339376406152992,-7.05457592731669E-17));
#422=CARTESIAN_POINT('',(0.461122866514792,0.310541847742835,-7.24208380741515E-17));
#423=CARTESIAN_POINT('',(0.436475268436084,0.264541645034852,-5.41990799602466E-17));
#424=CARTESIAN_POINT('',(0.425603124596604,0.197285593598388,-1.59501734378509E-17));
#425=CARTESIAN_POINT('',(0.43629079396486,0.137561958935808,2.13578427306631E-17));
#426=CARTESIAN_POINT('',(0.46179203728947,0.0825090261996149,5.71118597331084E-17));
#427=CARTESIAN_POINT('',(0.509274462447552,0.0336520996945699,8.86892111527731E-17));
#428=CARTESIAN_POINT('',(0.555849225140836,0.0101082210794612,9.81375080300343E-17));
#429=CARTESIAN_POINT('',(0.594161941090093,0.00173457741135952,8.70608281006298E-17));
#430=CARTESIAN_POINT('',(0.617629542759246,-5.32907051820075E-15,7.11604413862366E-17));
#431=CARTESIAN_POINT('',(3.81224339984972,-4.44089209850063E-15,1.20169671739993E-17));
#432=CARTESIAN_POINT('',(6.99512345610549,-3.5527136788005E-15,-4.68386162474976E-32));
#433=CARTESIAN_POINT('',(10.1780035123613,-3.5527136788005E-15,-3.20474742746036E-32));
#434=CARTESIAN_POINT('',(13.360883568617,-1.77635683940025E-15,-2.2186712959341E-32));
#435=CARTESIAN_POINT('',(16.5556978862906,-3.5527136788005E-15,1.2112711564676E-16));
#436=CARTESIAN_POINT('',(0.0,0.0,0.0));
#437=CARTESIAN_POINT('',(15.1047202462548,4.7625,0.0));
#438=CARTESIAN_POINT('',(15.1047202462548,4.7625,-4.7625));
#439=CARTESIAN_POINT('',(13.0065429546087,4.1009472410906,-4.7625));
#440=CARTESIAN_POINT('',(15.1047202462548,9.10833523995778,-4.7625));
#441=CARTESIAN_POINT('',(13.7344836584285,9.10833523995777,-4.7625));
#442=CARTESIAN_POINT('',(28.8879487052318,9.10833523995779,-4.7625));
#443=CARTESIAN_POINT('',(17.5973889361586,1.20260017904543,-4.7625));
#444=CARTESIAN_POINT('',(16.4749568340811,0.416664760042207,-4.7625));
#445=CARTESIAN_POINT('',(15.1047202462548,0.416664760042207,-4.7625));
#446=CARTESIAN_POINT('',(1.3214917872778,0.416664760042205,-4.7625));
#447=CARTESIAN_POINT('',(12.612051556351,8.32239982095455,-4.7625));
#448=CARTESIAN_POINT('',(14.8598410645383,4.29209146865531,-4.7625));
#449=CARTESIAN_POINT('',(15.1047202462548,9.52499999999999,-5.81748951963656E-15));
#450=CARTESIAN_POINT('',(29.5800771489156,9.52500000000001,-4.65618244084001E-15));
#451=CARTESIAN_POINT('',(13.6656768676368,9.52499999999999,-5.93293891915894E-15));
#452=CARTESIAN_POINT('',(29.5800771489156,9.52500000000001,-4.30521429912137E-15));
#453=CARTESIAN_POINT('',(29.5800771489156,9.3265625,-2.26815100382927));
#454=CARTESIAN_POINT('',(29.1372237809387,9.18693136942591,-3.86414212938488));
#455=CARTESIAN_POINT('',(13.6042428585757,9.52140628382663,-0.0410763638228324));
#456=CARTESIAN_POINT('',(13.6656768676368,9.32656249999999,-2.26815100382918));
#457=CARTESIAN_POINT('',(13.6656768676368,9.52499999999999,-5.27234591393039E-15));
#458=CARTESIAN_POINT('',(15.1047202462548,9.52499999999999,-5.81748951963656E-15));
#459=CARTESIAN_POINT('',(1.07221671157087,0.338068630574092,-3.86414212938488));
#460=CARTESIAN_POINT('',(0.629363343593958,0.198437499999997,-2.26815100382923));
#461=CARTESIAN_POINT('',(0.515544269505544,0.360987983788597,-7.87659928631097E-16));
#462=CARTESIAN_POINT('',(0.515544269505544,0.360987983788597,-1.43839056375364E-15));
#463=CARTESIAN_POINT('',(12.3730624681329,8.66371161092632,-5.51506228827902E-15));
#464=CARTESIAN_POINT('',(13.5518577935484,9.48911298378859,-5.92033778451904E-15));
#465=CARTESIAN_POINT('',(13.5518577935484,9.48911298378859,-5.11772616847236E-15));
#466=CARTESIAN_POINT('',(12.3730624681329,8.66371161092631,-5.51506228827901E-15));
#467=CARTESIAN_POINT('',(16.6051976339339,0.00359371617336072,-0.0410763638228272));
#468=CARTESIAN_POINT('',(16.5437636248728,0.198437499999996,-2.26815100382922));
#469=CARTESIAN_POINT('',(16.5437636248728,-2.60208521396521E-15,2.2131802767803E-17));
#470=CARTESIAN_POINT('',(16.5437636248728,-2.60208521396521E-15,6.61041234053929E-17));
#471=CARTESIAN_POINT('',(15.1047202462548,-1.73472347597681E-15,-4.9345276116991E-17));
#472=CARTESIAN_POINT('',(0.629363343593956,-4.33680868994202E-15,-1.21065235491355E-15));
#473=CARTESIAN_POINT('',(0.629363343593956,-4.33680868994202E-15,-8.33963929774814E-16));
#474=CARTESIAN_POINT('',(15.1047202462548,-1.73472347597681E-15,-4.93452761169914E-17));
#475=CARTESIAN_POINT('',(29.693896223004,9.16401201621141,-4.20147565362013E-15));
#476=CARTESIAN_POINT('',(29.693896223004,9.16401201621141,-4.42844423199992E-15));
#477=CARTESIAN_POINT('',(17.8363780243767,0.861288389073681,-3.51772507474538E-16));
#478=CARTESIAN_POINT('',(16.6575826989612,0.0358870162114012,5.3502988765495E-17));
#479=CARTESIAN_POINT('',(16.6575826989612,0.0358870162114012,-1.00127498668585E-17));
#480=CARTESIAN_POINT('',(17.8363780243766,0.861288389073673,-3.51772507474534E-16));
#481=CARTESIAN_POINT('',(15.1047202462548,4.7625,-6.93889390390723E-15));
#482=CARTESIAN_POINT('',(12.1755452004305,3.83893465563708,-6.93889390390723E-15));
#483=CARTESIAN_POINT('',(29.5800771489156,9.3265625,-4.53601276910002E-15));
#484=CARTESIAN_POINT('',(13.6656768676368,9.32656249999999,-5.81276924741895E-15));
#485=CARTESIAN_POINT('',(0.629363343593956,0.198437499999995,-1.33082202665354E-15));
#486=CARTESIAN_POINT('',(16.5437636248728,0.198437500000001,-5.40655483346003E-17));
#487=CARTESIAN_POINT('',(15.1047202462548,4.7625,-2.93341739787678E-15));
#488=CARTESIAN_POINT('',(29.5800771489156,9.3265625,-4.33680868994202E-15));
#489=CARTESIAN_POINT('',(16.5437636248728,0.198437500000001,0.0));
#490=CARTESIAN_POINT('',(0.629363343593956,0.198437499999995,-8.67361737988404E-16));
#491=CARTESIAN_POINT('',(13.6656768676368,9.32656249999999,-5.20417042793042E-15));
#492=CARTESIAN_POINT('',(15.1047202462548,4.7625,-0.877554494186118));
#493=CARTESIAN_POINT('',(17.9753708442437,5.66761265684063,-0.877554494186118));
#494=CARTESIAN_POINT('',(15.1047202462548,4.7625,-1.02000000000516));
#495=CARTESIAN_POINT('',(15.1047202462548,4.7625,-1.12904556205543));
#496=CARTESIAN_POINT('',(17.8905730131205,5.64087600338793,-1.12904556205543));
#497=CARTESIAN_POINT('',(15.1047202462548,4.7625,-3.42000000000001));
#498=CARTESIAN_POINT('',(13.0065429546087,4.1009472410906,-3.42000000000001));
#499=CARTESIAN_POINT('',(15.1047202462548,4.7625,-3.42000000000001));
#500=CARTESIAN_POINT('',(15.1047202462548,4.7625,-33.3676978394524));
#501=CARTESIAN_POINT('',(15.1047202462548,4.7625,-0.842676257312353));
#502=MECHANICAL_DESIGN_GEOMETRIC_PRESENTATION_REPRESENTATION('',(#269,#270,#271,
     #272),#503);
#503=(GEOMETRIC_REPRESENTATION_CONTEXT(3)GLOBAL_UNCERTAINTY_ASSIGNED_CONTEXT((#504))
     GLOBAL_UNIT_ASSIGNED_CONTEXT((#510,#506,#505))REPRESENTATION_CONTEXT('VBGT160402',
     'TOP_LEVEL_ASSEMBLY_PART'));
#504=UNCERTAINTY_MEASURE_WITH_UNIT(LENGTH_MEASURE(2.0E-5),#510,'DISTANCE_ACCURACY_VALUE',
     'Maximum Tolerance applied to model');
#505=(NAMED_UNIT(*)SI_UNIT($,.STERADIAN.)SOLID_ANGLE_UNIT());
#506=(CONVERSION_BASED_UNIT('DEGREE',#508)NAMED_UNIT(#507)PLANE_ANGLE_UNIT());
#507=DIMENSIONAL_EXPONENTS(0.0,0.0,0.0,0.0,0.0,0.0,0.0);
#508=PLANE_ANGLE_MEASURE_WITH_UNIT(PLANE_ANGLE_MEASURE(0.0174532925),#509);
#509=(NAMED_UNIT(*)PLANE_ANGLE_UNIT()SI_UNIT($,.RADIAN.));
#510=(LENGTH_UNIT()NAMED_UNIT(*)SI_UNIT(.MILLI.,.METRE.));
#511=CONSTRUCTIVE_GEOMETRY_REPRESENTATION('supplemental geometry',(#286,#287),#503);
#512=CONSTRUCTIVE_GEOMETRY_REPRESENTATION_RELATIONSHIP('supplemental geometry','contains PCS and MCS coordinate systems',
     #24,#511);
ENDSEC;
END-ISO-10303-21;
