ISO-10303-21;
HEADER;
FILE_DESCRIPTION(
/* description */ (''),
/* implementation_level */ '2;1');
FILE_NAME(
/* name */ 'CCGT060201.stp',
/* time_stamp */ '2017-03-21T10:53:48',
/* author */ ('Sandvik Coromant R&D'),
/* organization */ ('Sandvik Machining Solutions'),
/* preprocessor_version */ 'ST-DEVELOPER v15',
/* originating_system */ 'SIEMENS PLM Software NX v8.5.3.3(64 bits)',
/* authorization */ '');
FILE_SCHEMA(('AUTOMOTIVE_DESIGN'));
ENDSEC;
DATA;
#10=GEOMETRICALLY_BOUNDED_WIREFRAME_SHAPE_REPRESENTATION('IsoTurningInsert-None',
     (#25),#495);
#11=SHAPE_REPRESENTATION_RELATIONSHIP('None','relationship between IsoTurningInsert-None and IsoTurningInsert-None',
     #24,#13);
#12=SHAPE_REPRESENTATION_RELATIONSHIP('None','relationship between IsoTurningInsert-None and IsoTurningInsert-None',
     #24,#10);
#13=ADVANCED_BREP_SHAPE_REPRESENTATION('IsoTurningInsert-None',(#31),#495);
#14=SHAPE_DEFINITION_REPRESENTATION(#15,#24);
#15=PRODUCT_DEFINITION_SHAPE('','',#16);
#16=PRODUCT_DEFINITION(' ','',#18,#17);
#17=PRODUCT_DEFINITION_CONTEXT('part definition',#23,'design');
#18=PRODUCT_DEFINITION_FORMATION_WITH_SPECIFIED_SOURCE(' ',' ',#20,.NOT_KNOWN.);
#19=PRODUCT_RELATED_PRODUCT_CATEGORY('part','',(#20));
#20=PRODUCT('IsoTurningInsert','IsoTurningInsert',' ',(#21));
#21=PRODUCT_CONTEXT(' ',#23,'mechanical');
#22=APPLICATION_PROTOCOL_DEFINITION('international standard','automotive_design',
     2010,#23);
#23=APPLICATION_CONTEXT('core data for automotive mechanical design processes');
#24=SHAPE_REPRESENTATION('IsoTurningInsert-None',(#285),#495);
#25=GEOMETRIC_CURVE_SET('geometric curve set',(#265));
#26=SURFACE_STYLE_USAGE(.BOTH.,#27);
#27=SURFACE_SIDE_STYLE('',(#28));
#28=SURFACE_STYLE_FILL_AREA(#29);
#29=FILL_AREA_STYLE('',(#30));
#30=FILL_AREA_STYLE_COLOUR('',#284);
#31=MANIFOLD_SOLID_BREP('CUT',#32);
#32=CLOSED_SHELL('',(#49,#50,#51,#52,#53,#54,#55,#56,#57,#58,#59,#60,#61,#62));
#33=CYLINDRICAL_SURFACE('',#309,1.4);
#34=TOROIDAL_SURFACE('',#308,3.9,2.5);
#35=TOROIDAL_SURFACE('',#310,1.38569981785225,0.5);
#36=CONICAL_SURFACE('',#300,0.0992187500000014,7.0);
#37=CONICAL_SURFACE('',#301,0.0992187500000014,7.0);
#38=CONICAL_SURFACE('',#302,0.0992187500000014,7.0);
#39=CONICAL_SURFACE('',#303,0.0992187500000014,7.0);
#40=CONICAL_SURFACE('',#305,1.87499999997636,4.00000000179048);
#41=FACE_OUTER_BOUND('',#123,.T.);
#42=FACE_OUTER_BOUND('',#124,.T.);
#43=FACE_OUTER_BOUND('',#125,.T.);
#44=FACE_OUTER_BOUND('',#126,.T.);
#45=FACE_OUTER_BOUND('',#129,.T.);
#46=FACE_OUTER_BOUND('',#130,.T.);
#47=FACE_OUTER_BOUND('',#131,.T.);
#48=FACE_OUTER_BOUND('',#132,.T.);
#49=ADVANCED_FACE('',(#109,#110),#63,.F.);
#50=ADVANCED_FACE('',(#41),#64,.F.);
#51=ADVANCED_FACE('',(#42),#65,.F.);
#52=ADVANCED_FACE('',(#43),#66,.F.);
#53=ADVANCED_FACE('',(#44),#67,.F.);
#54=ADVANCED_FACE('',(#111,#112),#68,.T.);
#55=ADVANCED_FACE('',(#45),#36,.T.);
#56=ADVANCED_FACE('',(#46),#37,.T.);
#57=ADVANCED_FACE('',(#47),#38,.T.);
#58=ADVANCED_FACE('',(#48),#39,.T.);
#59=ADVANCED_FACE('',(#113,#114),#40,.F.);
#60=ADVANCED_FACE('',(#115,#116),#34,.T.);
#61=ADVANCED_FACE('',(#117,#118),#33,.F.);
#62=ADVANCED_FACE('',(#119,#120),#35,.F.);
#63=PLANE('',#289);
#64=PLANE('',#290);
#65=PLANE('',#291);
#66=PLANE('',#292);
#67=PLANE('',#293);
#68=PLANE('',#299);
#69=LINE('',#432,#89);
#70=LINE('',#435,#90);
#71=LINE('',#437,#91);
#72=LINE('',#439,#92);
#73=LINE('',#441,#93);
#74=LINE('',#444,#94);
#75=LINE('',#446,#95);
#76=LINE('',#447,#96);
#77=LINE('',#449,#97);
#78=LINE('',#451,#98);
#79=LINE('',#453,#99);
#80=LINE('',#455,#100);
#81=LINE('',#457,#101);
#82=LINE('',#459,#102);
#83=LINE('',#461,#103);
#84=LINE('',#463,#104);
#85=LINE('',#465,#105);
#86=LINE('',#467,#106);
#87=LINE('',#469,#107);
#88=LINE('',#471,#108);
#89=VECTOR('',#319,1.0);
#90=VECTOR('',#320,1.0);
#91=VECTOR('',#321,1.0);
#92=VECTOR('',#322,1.0);
#93=VECTOR('',#325,1.0);
#94=VECTOR('',#326,1.0);
#95=VECTOR('',#327,1.0);
#96=VECTOR('',#328,1.0);
#97=VECTOR('',#329,1.0);
#98=VECTOR('',#332,1.0);
#99=VECTOR('',#333,1.0);
#100=VECTOR('',#334,1.0);
#101=VECTOR('',#335,1.0);
#102=VECTOR('',#338,1.0);
#103=VECTOR('',#339,1.0);
#104=VECTOR('',#340,1.0);
#105=VECTOR('',#341,1.0);
#106=VECTOR('',#344,1.0);
#107=VECTOR('',#345,1.0);
#108=VECTOR('',#346,1.0);
#109=FACE_BOUND('',#121,.T.);
#110=FACE_BOUND('',#122,.T.);
#111=FACE_BOUND('',#127,.T.);
#112=FACE_BOUND('',#128,.T.);
#113=FACE_BOUND('',#133,.T.);
#114=FACE_BOUND('',#134,.T.);
#115=FACE_BOUND('',#135,.T.);
#116=FACE_BOUND('',#136,.T.);
#117=FACE_BOUND('',#137,.T.);
#118=FACE_BOUND('',#138,.T.);
#119=FACE_BOUND('',#139,.T.);
#120=FACE_BOUND('',#140,.T.);
#121=EDGE_LOOP('',(#141));
#122=EDGE_LOOP('',(#142,#143,#144,#145));
#123=EDGE_LOOP('',(#146,#147,#148,#149,#150,#151));
#124=EDGE_LOOP('',(#152,#153,#154,#155,#156,#157));
#125=EDGE_LOOP('',(#158,#159,#160,#161,#162,#163));
#126=EDGE_LOOP('',(#164,#165,#166,#167,#168,#169));
#127=EDGE_LOOP('',(#170));
#128=EDGE_LOOP('',(#171,#172,#173,#174,#175,#176,#177,#178));
#129=EDGE_LOOP('',(#179,#180,#181));
#130=EDGE_LOOP('',(#182,#183,#184));
#131=EDGE_LOOP('',(#185,#186,#187));
#132=EDGE_LOOP('',(#188,#189,#190));
#133=EDGE_LOOP('',(#191));
#134=EDGE_LOOP('',(#192));
#135=EDGE_LOOP('',(#193));
#136=EDGE_LOOP('',(#194));
#137=EDGE_LOOP('',(#195));
#138=EDGE_LOOP('',(#196));
#139=EDGE_LOOP('',(#197));
#140=EDGE_LOOP('',(#198));
#141=ORIENTED_EDGE('',*,*,#220,.T.);
#142=ORIENTED_EDGE('',*,*,#221,.T.);
#143=ORIENTED_EDGE('',*,*,#222,.T.);
#144=ORIENTED_EDGE('',*,*,#223,.T.);
#145=ORIENTED_EDGE('',*,*,#224,.T.);
#146=ORIENTED_EDGE('',*,*,#225,.F.);
#147=ORIENTED_EDGE('',*,*,#226,.T.);
#148=ORIENTED_EDGE('',*,*,#227,.F.);
#149=ORIENTED_EDGE('',*,*,#221,.F.);
#150=ORIENTED_EDGE('',*,*,#228,.T.);
#151=ORIENTED_EDGE('',*,*,#229,.T.);
#152=ORIENTED_EDGE('',*,*,#224,.F.);
#153=ORIENTED_EDGE('',*,*,#230,.T.);
#154=ORIENTED_EDGE('',*,*,#231,.T.);
#155=ORIENTED_EDGE('',*,*,#232,.F.);
#156=ORIENTED_EDGE('',*,*,#233,.T.);
#157=ORIENTED_EDGE('',*,*,#228,.F.);
#158=ORIENTED_EDGE('',*,*,#223,.F.);
#159=ORIENTED_EDGE('',*,*,#234,.T.);
#160=ORIENTED_EDGE('',*,*,#235,.T.);
#161=ORIENTED_EDGE('',*,*,#236,.F.);
#162=ORIENTED_EDGE('',*,*,#237,.T.);
#163=ORIENTED_EDGE('',*,*,#230,.F.);
#164=ORIENTED_EDGE('',*,*,#222,.F.);
#165=ORIENTED_EDGE('',*,*,#227,.T.);
#166=ORIENTED_EDGE('',*,*,#238,.T.);
#167=ORIENTED_EDGE('',*,*,#239,.F.);
#168=ORIENTED_EDGE('',*,*,#240,.T.);
#169=ORIENTED_EDGE('',*,*,#234,.F.);
#170=ORIENTED_EDGE('',*,*,#241,.F.);
#171=ORIENTED_EDGE('',*,*,#239,.T.);
#172=ORIENTED_EDGE('',*,*,#242,.T.);
#173=ORIENTED_EDGE('',*,*,#225,.T.);
#174=ORIENTED_EDGE('',*,*,#243,.T.);
#175=ORIENTED_EDGE('',*,*,#232,.T.);
#176=ORIENTED_EDGE('',*,*,#244,.T.);
#177=ORIENTED_EDGE('',*,*,#236,.T.);
#178=ORIENTED_EDGE('',*,*,#245,.T.);
#179=ORIENTED_EDGE('',*,*,#238,.F.);
#180=ORIENTED_EDGE('',*,*,#226,.F.);
#181=ORIENTED_EDGE('',*,*,#242,.F.);
#182=ORIENTED_EDGE('',*,*,#235,.F.);
#183=ORIENTED_EDGE('',*,*,#240,.F.);
#184=ORIENTED_EDGE('',*,*,#245,.F.);
#185=ORIENTED_EDGE('',*,*,#231,.F.);
#186=ORIENTED_EDGE('',*,*,#237,.F.);
#187=ORIENTED_EDGE('',*,*,#244,.F.);
#188=ORIENTED_EDGE('',*,*,#229,.F.);
#189=ORIENTED_EDGE('',*,*,#233,.F.);
#190=ORIENTED_EDGE('',*,*,#243,.F.);
#191=ORIENTED_EDGE('',*,*,#246,.T.);
#192=ORIENTED_EDGE('',*,*,#241,.T.);
#193=ORIENTED_EDGE('',*,*,#247,.T.);
#194=ORIENTED_EDGE('',*,*,#248,.T.);
#195=ORIENTED_EDGE('',*,*,#248,.F.);
#196=ORIENTED_EDGE('',*,*,#220,.F.);
#197=ORIENTED_EDGE('',*,*,#247,.F.);
#198=ORIENTED_EDGE('',*,*,#246,.F.);
#199=VERTEX_POINT('',#431);
#200=VERTEX_POINT('',#433);
#201=VERTEX_POINT('',#434);
#202=VERTEX_POINT('',#436);
#203=VERTEX_POINT('',#438);
#204=VERTEX_POINT('',#442);
#205=VERTEX_POINT('',#443);
#206=VERTEX_POINT('',#445);
#207=VERTEX_POINT('',#448);
#208=VERTEX_POINT('',#452);
#209=VERTEX_POINT('',#454);
#210=VERTEX_POINT('',#456);
#211=VERTEX_POINT('',#460);
#212=VERTEX_POINT('',#462);
#213=VERTEX_POINT('',#464);
#214=VERTEX_POINT('',#468);
#215=VERTEX_POINT('',#470);
#216=VERTEX_POINT('',#474);
#217=VERTEX_POINT('',#485);
#218=VERTEX_POINT('',#488);
#219=VERTEX_POINT('',#490);
#220=EDGE_CURVE('',#199,#199,#249,.T.);
#221=EDGE_CURVE('',#200,#201,#69,.T.);
#222=EDGE_CURVE('',#201,#202,#70,.T.);
#223=EDGE_CURVE('',#202,#203,#71,.T.);
#224=EDGE_CURVE('',#203,#200,#72,.T.);
#225=EDGE_CURVE('',#204,#205,#73,.T.);
#226=EDGE_CURVE('',#204,#206,#74,.T.);
#227=EDGE_CURVE('INSERT_CORNER_EDGE3',#201,#206,#75,.T.);
#228=EDGE_CURVE('INSERT_CORNER_EDGE4',#200,#207,#76,.T.);
#229=EDGE_CURVE('',#207,#205,#77,.T.);
#230=EDGE_CURVE('INSERT_CORNER_EDGE1',#203,#208,#78,.T.);
#231=EDGE_CURVE('',#208,#209,#79,.T.);
#232=EDGE_CURVE('',#210,#209,#80,.T.);
#233=EDGE_CURVE('',#210,#207,#81,.T.);
#234=EDGE_CURVE('INSERT_CORNER_EDGE2',#202,#211,#82,.T.);
#235=EDGE_CURVE('',#211,#212,#83,.T.);
#236=EDGE_CURVE('',#213,#212,#84,.T.);
#237=EDGE_CURVE('',#213,#208,#85,.T.);
#238=EDGE_CURVE('',#206,#214,#86,.T.);
#239=EDGE_CURVE('',#215,#214,#87,.T.);
#240=EDGE_CURVE('',#215,#211,#88,.T.);
#241=EDGE_CURVE('',#216,#216,#250,.T.);
#242=EDGE_CURVE('',#214,#204,#251,.T.);
#243=EDGE_CURVE('',#205,#210,#252,.T.);
#244=EDGE_CURVE('',#209,#213,#253,.T.);
#245=EDGE_CURVE('',#212,#215,#254,.T.);
#246=EDGE_CURVE('',#217,#217,#255,.T.);
#247=EDGE_CURVE('',#218,#218,#256,.T.);
#248=EDGE_CURVE('',#219,#219,#257,.T.);
#249=CIRCLE('',#288,1.4);
#250=CIRCLE('',#294,1.92255023212159);
#251=CIRCLE('',#295,0.0992187500000014);
#252=CIRCLE('',#296,0.0992187500000014);
#253=CIRCLE('',#297,0.0992187500000014);
#254=CIRCLE('',#298,0.0992187500000014);
#255=CIRCLE('',#304,1.88448184298103);
#256=CIRCLE('',#306,1.80474984821024);
#257=CIRCLE('',#307,1.4);
#258=CURVE_STYLE('',#262,POSITIVE_LENGTH_MEASURE(0.18),#261);
#259=CURVE_STYLE('',#263,POSITIVE_LENGTH_MEASURE(0.18),#283);
#260=CURVE_STYLE('',#264,POSITIVE_LENGTH_MEASURE(0.18),#283);
#261=DRAUGHTING_PRE_DEFINED_COLOUR('blue');
#262=DRAUGHTING_PRE_DEFINED_CURVE_FONT('continuous');
#263=DRAUGHTING_PRE_DEFINED_CURVE_FONT('continuous');
#264=DRAUGHTING_PRE_DEFINED_CURVE_FONT('continuous');
#265=B_SPLINE_CURVE_WITH_KNOTS('CUTTING EDGE LINE',5,(#386,#387,#388,#389,#390,#391,
     #392,#393,#394,#395,#396,#397,#398,#399,#400,#401,#402,#403,#404,#405,#406,
     #407,#408,#409,#410,#411,#412,#413,#414,#415,#416,#417,#418,#419,#420,#421,
     #422,#423,#424,#425,#426,#427),.UNSPECIFIED.,.T.,.F.,(2,4,1,4,4,1,1,1,4,4,1,
     4,4,1,1,1,4,4,1,1),(-0.243914213,0.0,0.00270479425000003,0.00540958849999995,
     0.2493238014,0.2510142978,0.2527047942,0.2543952906,0.256085787,0.5,0.50270479425,
     0.5054095885,0.7493238014,0.7510142978,0.7527047942,0.7543952906,0.756085787,
     1.0,1.00270479425,1.0054095885),.UNSPECIFIED.);
#266=PRESENTATION_LAYER_ASSIGNMENT('1','Layer 1',(#265,#286,#287,#31));
#269=STYLED_ITEM('',(#275),#265);
#270=STYLED_ITEM('',(#276),#286);
#271=STYLED_ITEM('',(#277),#287);
#272=STYLED_ITEM('',(#278),#31);
#273=PRESENTATION_STYLE_ASSIGNMENT((#279));
#274=PRESENTATION_STYLE_ASSIGNMENT((#280));
#275=PRESENTATION_STYLE_ASSIGNMENT((#258));
#276=PRESENTATION_STYLE_ASSIGNMENT((#259));
#277=PRESENTATION_STYLE_ASSIGNMENT((#260));
#278=PRESENTATION_STYLE_ASSIGNMENT((#26));
#279=POINT_STYLE('',#281,POSITIVE_LENGTH_MEASURE(3.0),#283);
#280=POINT_STYLE('',#282,POSITIVE_LENGTH_MEASURE(3.0),#283);
#281=PRE_DEFINED_POINT_MARKER_SYMBOL('plus');
#282=PRE_DEFINED_POINT_MARKER_SYMBOL('plus');
#283=COLOUR_RGB('Medium Maroon',0.6,0.4,0.4);
#284=COLOUR_RGB('IsoInsertColor',0.8,0.8,0.8);
#285=AXIS2_PLACEMENT_3D('',#383,#311,#312);
#286=AXIS2_PLACEMENT_3D('PCS',#428,#313,#314);
#287=AXIS2_PLACEMENT_3D('MCS',#429,#315,#316);
#288=AXIS2_PLACEMENT_3D('',#430,#317,#318);
#289=AXIS2_PLACEMENT_3D('',#440,#323,#324);
#290=AXIS2_PLACEMENT_3D('',#450,#330,#331);
#291=AXIS2_PLACEMENT_3D('',#458,#336,#337);
#292=AXIS2_PLACEMENT_3D('',#466,#342,#343);
#293=AXIS2_PLACEMENT_3D('',#472,#347,#348);
#294=AXIS2_PLACEMENT_3D('',#473,#349,#350);
#295=AXIS2_PLACEMENT_3D('',#475,#351,#352);
#296=AXIS2_PLACEMENT_3D('',#476,#353,#354);
#297=AXIS2_PLACEMENT_3D('',#477,#355,#356);
#298=AXIS2_PLACEMENT_3D('',#478,#357,#358);
#299=AXIS2_PLACEMENT_3D('',#479,#359,#360);
#300=AXIS2_PLACEMENT_3D('',#480,#361,#362);
#301=AXIS2_PLACEMENT_3D('',#481,#363,#364);
#302=AXIS2_PLACEMENT_3D('',#482,#365,#366);
#303=AXIS2_PLACEMENT_3D('',#483,#367,#368);
#304=AXIS2_PLACEMENT_3D('',#484,#369,#370);
#305=AXIS2_PLACEMENT_3D('',#486,#371,#372);
#306=AXIS2_PLACEMENT_3D('',#487,#373,#374);
#307=AXIS2_PLACEMENT_3D('',#489,#375,#376);
#308=AXIS2_PLACEMENT_3D('',#491,#377,#378);
#309=AXIS2_PLACEMENT_3D('',#492,#379,#380);
#310=AXIS2_PLACEMENT_3D('',#493,#381,#382);
#311=DIRECTION('',(0.0,0.0,1.0));
#312=DIRECTION('',(1.0,0.0,0.0));
#313=DIRECTION('',(0.0,0.0,1.0));
#314=DIRECTION('',(1.0,0.0,0.0));
#315=DIRECTION('',(0.0,0.0,1.0));
#316=DIRECTION('',(1.0,0.0,0.0));
#317=DIRECTION('',(0.0,0.0,1.0));
#318=DIRECTION('',(-0.766044443118978,-0.642787609686539,0.0));
#319=DIRECTION('',(1.0,7.7715611723761E-16,0.0));
#320=DIRECTION('',(-0.173648177666929,-0.984807753012208,0.0));
#321=DIRECTION('',(-1.0,1.11022302462516E-16,0.0));
#322=DIRECTION('',(0.17364817766693,0.984807753012208,0.0));
#323=DIRECTION('',(0.0,0.0,1.0));
#324=DIRECTION('',(-0.766044443118978,-0.642787609686539,0.0));
#325=DIRECTION('',(-1.0,-7.21644966006352E-16,-2.17181600848858E-16));
#326=DIRECTION('',(3.05311331771918E-16,-0.121869343405148,-0.992546151641322));
#327=DIRECTION('',(0.143730206185748,0.120603962999497,0.982240455254526));
#328=DIRECTION('',(-0.101729998253829,0.121237090893603,0.987396868157345));
#329=DIRECTION('',(-3.05311331771918E-16,0.121869343405148,0.992546151641322));
#330=DIRECTION('',(7.7715611723761E-16,-0.992546151641322,0.121869343405148));
#331=DIRECTION('',(1.0,7.7715611723761E-16,0.0));
#332=DIRECTION('',(-0.143730206185749,-0.120603962999495,0.982240455254526));
#333=DIRECTION('',(-0.120017874239897,0.0211623893957699,0.992546151641322));
#334=DIRECTION('',(-0.17364817766693,-0.984807753012208,7.21360439164787E-16));
#335=DIRECTION('',(0.120017874239897,-0.0211623893957699,-0.992546151641322));
#336=DIRECTION('',(0.977467145358805,-0.17235383048284,0.121869343405148));
#337=DIRECTION('',(0.17364817766693,0.984807753012208,0.0));
#338=DIRECTION('',(0.101729998253828,-0.121237090893602,0.987396868157345));
#339=DIRECTION('',(-2.15105711021124E-16,-0.121869343405147,0.992546151641322));
#340=DIRECTION('',(1.0,-5.55111512312578E-17,2.10365688519714E-16));
#341=DIRECTION('',(2.15105711021124E-16,0.121869343405147,-0.992546151641322));
#342=DIRECTION('',(0.0,0.992546151641322,0.121869343405147));
#343=DIRECTION('',(-1.0,1.11022302462516E-16,0.0));
#344=DIRECTION('',(0.120017874239896,-0.0211623893957683,0.992546151641322));
#345=DIRECTION('',(0.17364817766693,0.984807753012208,-7.21360439164787E-16));
#346=DIRECTION('',(-0.120017874239896,0.0211623893957683,-0.992546151641322));
#347=DIRECTION('',(-0.977467145358805,0.172353830482839,0.121869343405147));
#348=DIRECTION('',(-0.173648177666929,-0.984807753012208,0.0));
#349=DIRECTION('',(0.0,0.0,1.0));
#350=DIRECTION('',(-0.766044443118978,-0.642787609686539,0.0));
#351=DIRECTION('',(-2.06618502467437E-16,7.72938635790475E-16,1.0));
#352=DIRECTION('',(-0.64278760968654,0.766044443118979,-7.24917160137311E-16));
#353=DIRECTION('',(-2.06618502467437E-16,7.72938635790475E-16,1.0));
#354=DIRECTION('',(-0.64278760968654,0.766044443118979,-7.24917160137311E-16));
#355=DIRECTION('',(-2.06618502467437E-16,7.72938635790475E-16,1.0));
#356=DIRECTION('',(-0.642787609686539,0.766044443118978,-7.24917160137313E-16));
#357=DIRECTION('',(-2.06618502467437E-16,7.72938635790475E-16,1.0));
#358=DIRECTION('',(-0.64278760968654,0.766044443118978,-7.24917160137313E-16));
#359=DIRECTION('',(-2.06618502467437E-16,7.72938635790475E-16,1.0));
#360=DIRECTION('',(-0.642787609686539,0.766044443118978,-7.24917160137313E-16));
#361=DIRECTION('',(-2.06618502467437E-16,7.72938635790475E-16,1.0));
#362=DIRECTION('',(-0.642787609686539,0.766044443118978,-8.64652871222683E-16));
#363=DIRECTION('',(-2.06618502467437E-16,7.72938635790475E-16,1.0));
#364=DIRECTION('',(-0.642787609686539,0.766044443118978,-9.03474020542885E-16));
#365=DIRECTION('',(-2.06618502467437E-16,7.72938635790475E-16,1.0));
#366=DIRECTION('',(-0.642787609686539,0.766044443118978,-8.92886434364648E-16));
#367=DIRECTION('',(-2.06618502467437E-16,7.72938635790475E-16,1.0));
#368=DIRECTION('',(-0.642787609686539,0.766044443118978,-8.54065285044446E-16));
#369=DIRECTION('',(0.0,0.0,-1.0));
#370=DIRECTION('',(0.766044443118978,0.642787609686539,0.0));
#371=DIRECTION('',(0.0,0.0,1.0));
#372=DIRECTION('',(-0.766044443118978,-0.642787609686539,0.0));
#373=DIRECTION('',(0.0,0.0,1.0));
#374=DIRECTION('',(0.766044443118978,0.642787609686539,0.0));
#375=DIRECTION('',(0.0,0.0,-1.0));
#376=DIRECTION('',(-0.766044443118978,-0.642787609686539,0.0));
#377=DIRECTION('',(0.0,0.0,1.0));
#378=DIRECTION('',(-0.766044443118978,-0.642787609686539,0.0));
#379=DIRECTION('',(0.0,0.0,1.0));
#380=DIRECTION('',(-0.766044443118978,-0.642787609686539,0.0));
#381=DIRECTION('',(0.0,0.0,-1.0));
#382=DIRECTION('',(0.766044443118978,0.642787609686539,0.0));
#383=CARTESIAN_POINT('',(0.0,0.0,0.0));
#386=CARTESIAN_POINT('',(5.11541251550792,-1.77635683940025E-15,0.0));
#387=CARTESIAN_POINT('',(6.37745988557331,-3.10862446895044E-15,7.93254896903671E-17));
#388=CARTESIAN_POINT('',(6.40297051883275,0.00409947974360181,8.05901607106267E-17));
#389=CARTESIAN_POINT('',(6.43320327361997,0.0175851726141136,7.36576466200541E-17));
#390=CARTESIAN_POINT('',(6.45173395128801,0.0450168579317531,5.06782693859652E-17));
#391=CARTESIAN_POINT('',(6.46020102569946,0.0694280601630366,2.85713924720784E-17));
#392=CARTESIAN_POINT('',(6.67935325164066,1.31230209487211,1.00518184839337E-17));
#393=CARTESIAN_POINT('',(6.89629054009354,2.5426145948721,6.70121232262247E-18));
#394=CARTESIAN_POINT('',(7.11322782854643,3.7729270948721,6.7012123226225E-18));
#395=CARTESIAN_POINT('',(7.33016511699931,5.0032395948721,1.00518184839338E-17));
#396=CARTESIAN_POINT('',(7.54842223530672,6.24103722193111,1.2317052239613E-17));
#397=CARTESIAN_POINT('',(7.54962841001839,6.25626023813063,3.46921770262444E-18));
#398=CARTESIAN_POINT('',(7.54716946691931,6.28375084206906,-1.1963074219333E-17));
#399=CARTESIAN_POINT('',(7.52939585600163,6.31791328575866,-2.94088889049462E-17));
#400=CARTESIAN_POINT('',(7.49883877174056,6.34134912168085,-3.92160499833526E-17));
#401=CARTESIAN_POINT('',(7.47219280283522,6.34854440118589,-4.01955944427978E-17));
#402=CARTESIAN_POINT('',(7.45699160841708,6.34999999999999,-3.92393478804344E-17));
#403=CARTESIAN_POINT('',(6.20009895777233,6.34999999999999,-2.30070015809511E-17));
#404=CARTESIAN_POINT('',(4.95080690433665,6.34999999999999,-1.53380010539674E-17));
#405=CARTESIAN_POINT('',(3.70151485090097,6.34999999999999,-1.53380010539674E-17));
#406=CARTESIAN_POINT('',(2.4522227974653,6.34999999999999,-2.30070015809511E-17));
#407=CARTESIAN_POINT('',(1.1901754273999,6.34999999999999,-4.68552822934211E-17));
#408=CARTESIAN_POINT('',(1.16466479414047,6.34590052025638,-5.95366167981162E-17));
#409=CARTESIAN_POINT('',(1.13443203935336,6.33241482738596,-6.54333897339657E-17));
#410=CARTESIAN_POINT('',(1.1159013616852,6.30498314206823,-4.87610192542196E-17));
#411=CARTESIAN_POINT('',(1.10743428727375,6.28057193983695,-2.85713924720786E-17));
#412=CARTESIAN_POINT('',(0.888282061332554,5.03769790512788,-1.00518184839338E-17));
#413=CARTESIAN_POINT('',(0.671344772879671,3.80738540512788,-6.7012123226225E-18));
#414=CARTESIAN_POINT('',(0.454407484426788,2.57707290512788,-6.70121232262249E-18));
#415=CARTESIAN_POINT('',(0.237470195973906,1.34676040512789,-1.00518184839337E-17));
#416=CARTESIAN_POINT('',(0.0192130776664867,0.108962778068872,-1.23170522396129E-17));
#417=CARTESIAN_POINT('',(0.0180069029548156,0.0937397618693572,-3.46921770262433E-18));
#418=CARTESIAN_POINT('',(0.0204658460539355,0.0662491579308928,1.19630742193511E-17));
#419=CARTESIAN_POINT('',(0.0382394569714739,0.0320867142414576,2.94088889048839E-17));
#420=CARTESIAN_POINT('',(0.0687965412326825,0.00865087831909772,3.92160499833706E-17));
#421=CARTESIAN_POINT('',(0.0954425101379912,0.00145559881409651,4.01955944427978E-17));
#422=CARTESIAN_POINT('',(0.110643704556133,-2.22044604925031E-15,3.92393478804344E-17));
#423=CARTESIAN_POINT('',(1.36753635520088,-2.66453525910038E-15,2.30070015809511E-17));
#424=CARTESIAN_POINT('',(2.61682840863656,-2.66453525910038E-15,1.15035007904756E-17));
#425=CARTESIAN_POINT('',(3.86612046207224,-1.77635683940025E-15,3.83450026349185E-18));
#426=CARTESIAN_POINT('',(5.11541251550792,-1.77635683940025E-15,0.0));
#427=CARTESIAN_POINT('',(6.37745988557331,-3.10862446895044E-15,7.93254896903671E-17));
#428=CARTESIAN_POINT('',(0.0,0.0,0.0));
#429=CARTESIAN_POINT('',(3.78381765648661,3.175,0.0));
#430=CARTESIAN_POINT('',(3.78381765648661,3.175,-2.38125));
#431=CARTESIAN_POINT('',(2.71135543612005,2.27509734643884,-2.38125));
#432=CARTESIAN_POINT('',(3.78381765648661,6.05761926434995,-2.38125));
#433=CARTESIAN_POINT('',(1.36501289494604,6.05761926434994,-2.38125));
#434=CARTESIAN_POINT('',(7.21918952085694,6.05761926434995,-2.38125));
#435=CARTESIAN_POINT('',(6.62264345700079,2.67443841783804,-2.38125));
#436=CARTESIAN_POINT('',(6.20262241802718,0.292380735650036,-2.38125));
#437=CARTESIAN_POINT('',(3.78381765648661,0.292380735650037,-2.38125));
#438=CARTESIAN_POINT('',(0.348445792116272,0.292380735650037,-2.38125));
#439=CARTESIAN_POINT('',(0.944991855972425,3.67556158216195,-2.38125));
#440=CARTESIAN_POINT('',(3.73759634394945,2.64668798019793,-2.38125));
#441=CARTESIAN_POINT('',(3.78381765648661,6.34999999999999,-5.38749756651153E-15));
#442=CARTESIAN_POINT('',(7.44939101120801,6.34999999999999,-4.63012228927446E-15));
#443=CARTESIAN_POINT('',(1.20293074402962,6.34999999999999,-5.9207565554012E-15));
#444=CARTESIAN_POINT('',(7.44939101120801,6.34999999999999,-4.73661379874114E-15));
#445=CARTESIAN_POINT('',(7.44939101120801,6.25078124999999,-0.808071872150621));
#446=CARTESIAN_POINT('',(7.48946779960135,6.28440966835961,-0.534190383204985));
#447=CARTESIAN_POINT('',(1.14724750625053,6.31714194867049,-0.267607352975612));
#448=CARTESIAN_POINT('',(1.20293074402962,6.25078124999998,-0.808071872150629));
#449=CARTESIAN_POINT('',(1.20293074402962,6.34999999999999,-5.99842757021272E-15));
#450=CARTESIAN_POINT('',(3.78381765648661,6.34999999999999,-5.38749756651153E-15));
#451=CARTESIAN_POINT('',(0.0781675133718629,0.0655903316403757,-0.534190383204982));
#452=CARTESIAN_POINT('',(0.118244301765204,0.0992187499999977,-0.808071872150616));
#453=CARTESIAN_POINT('',(0.0205329075210234,0.11644790512789,-1.27577910309115E-15));
#454=CARTESIAN_POINT('',(0.0205329075210234,0.11644790512789,-1.34690857336205E-15));
#455=CARTESIAN_POINT('',(0.657053040672852,3.7263329640925,-4.00561136949637E-15));
#456=CARTESIAN_POINT('',(1.10521934978544,6.26801040512787,-5.87757261174448E-15));
#457=CARTESIAN_POINT('',(1.10521934978544,6.26801040512787,-5.98371818488375E-15));
#458=CARTESIAN_POINT('',(0.657053040672851,3.72633296409249,-4.00561136949637E-15));
#459=CARTESIAN_POINT('',(6.42038780672268,0.0328580513294951,-0.267607352975607));
#460=CARTESIAN_POINT('',(6.3647045689436,0.0992187499999986,-0.808071872150621));
#461=CARTESIAN_POINT('',(6.3647045689436,-2.60208521396521E-15,1.19010866201273E-17));
#462=CARTESIAN_POINT('',(6.3647045689436,-2.60208521396521E-15,5.39217596476456E-17));
#463=CARTESIAN_POINT('',(3.78381765648661,-2.60208521396521E-15,-4.79337229242025E-16));
#464=CARTESIAN_POINT('',(0.118244301765204,-2.16840434497101E-15,-1.2367125064791E-15));
#465=CARTESIAN_POINT('',(0.118244301765204,-2.16840434497101E-15,-1.30284941801527E-15));
#466=CARTESIAN_POINT('',(3.78381765648661,-2.60208521396521E-15,-4.79337229242026E-16));
#467=CARTESIAN_POINT('',(7.54710240545219,6.2335520948721,-4.76455341519653E-15));
#468=CARTESIAN_POINT('',(7.54710240545219,6.2335520948721,-4.51992622239151E-15));
#469=CARTESIAN_POINT('',(6.91058227230036,2.6236670359075,-1.8612234262572E-15));
#470=CARTESIAN_POINT('',(6.46241596318778,0.0819895948721084,1.07378159909206E-17));
#471=CARTESIAN_POINT('',(6.46241596318778,0.0819895948721084,2.40947186387041E-17));
#472=CARTESIAN_POINT('',(6.91058227230036,2.62366703590749,-1.86122342625719E-15));
#473=CARTESIAN_POINT('',(3.78381765648661,3.175,0.0));
#474=CARTESIAN_POINT('',(2.31105873455277,1.93920853179226,0.0));
#475=CARTESIAN_POINT('',(7.44939101120801,6.25078124999999,-4.55343228400462E-15));
#476=CARTESIAN_POINT('',(1.20293074402962,6.25078124999999,-5.84406655013136E-15));
#477=CARTESIAN_POINT('',(0.118244301765205,0.0992187499999986,-1.31340251174894E-15));
#478=CARTESIAN_POINT('',(6.3647045689436,0.0992187499999986,-2.27682456221918E-17));
#479=CARTESIAN_POINT('',(3.78381765648661,3.175,-2.93341739787678E-15));
#480=CARTESIAN_POINT('',(7.44939101120801,6.25078124999999,-4.77048955893622E-15));
#481=CARTESIAN_POINT('',(6.3647045689436,0.0992187499999986,0.0));
#482=CARTESIAN_POINT('',(0.118244301765205,0.0992187499999986,-1.30104260698261E-15));
#483=CARTESIAN_POINT('',(1.20293074402962,6.25078124999999,-6.07153216591882E-15));
#484=CARTESIAN_POINT('',(3.78381765648661,3.175,-0.544403327785287));
#485=CARTESIAN_POINT('',(5.22741450046084,4.38632157934746,-0.544403327785287));
#486=CARTESIAN_POINT('',(3.78381765648661,3.175,-0.680000000032654));
#487=CARTESIAN_POINT('',(3.78381765648661,3.175,-0.782283357604651));
#488=CARTESIAN_POINT('',(5.16633624892789,4.3350708410132,-0.782283357604651));
#489=CARTESIAN_POINT('',(3.78381765648661,3.175,-2.14607469113958));
#490=CARTESIAN_POINT('',(2.71135543612005,2.27509734643884,-2.14607469113958));
#491=CARTESIAN_POINT('',(3.78381765648661,3.175,-2.14607469113958));
#492=CARTESIAN_POINT('',(3.78381765648661,3.175,-33.3676978394524));
#493=CARTESIAN_POINT('',(3.78381765648661,3.175,-0.509525090897639));
#494=MECHANICAL_DESIGN_GEOMETRIC_PRESENTATION_REPRESENTATION('',(#269,#270,#271,
     #272),#495);
#495=(GEOMETRIC_REPRESENTATION_CONTEXT(3)GLOBAL_UNCERTAINTY_ASSIGNED_CONTEXT((#496))
     GLOBAL_UNIT_ASSIGNED_CONTEXT((#502,#498,#497))REPRESENTATION_CONTEXT('CCGT060201',
     'TOP_LEVEL_ASSEMBLY_PART'));
#496=UNCERTAINTY_MEASURE_WITH_UNIT(LENGTH_MEASURE(2.0E-5),#502,'DISTANCE_ACCURACY_VALUE',
     'Maximum Tolerance applied to model');
#497=(NAMED_UNIT(*)SI_UNIT($,.STERADIAN.)SOLID_ANGLE_UNIT());
#498=(CONVERSION_BASED_UNIT('DEGREE',#500)NAMED_UNIT(#499)PLANE_ANGLE_UNIT());
#499=DIMENSIONAL_EXPONENTS(0.0,0.0,0.0,0.0,0.0,0.0,0.0);
#500=PLANE_ANGLE_MEASURE_WITH_UNIT(PLANE_ANGLE_MEASURE(0.0174532925),#501);
#501=(NAMED_UNIT(*)PLANE_ANGLE_UNIT()SI_UNIT($,.RADIAN.));
#502=(LENGTH_UNIT()NAMED_UNIT(*)SI_UNIT(.MILLI.,.METRE.));
#503=CONSTRUCTIVE_GEOMETRY_REPRESENTATION('supplemental geometry',(#286,#287),#495);
#504=CONSTRUCTIVE_GEOMETRY_REPRESENTATION_RELATIONSHIP('supplemental geometry','contains PCS and MCS coordinate systems',
     #24,#503);
ENDSEC;
END-ISO-10303-21;
