ISO-10303-21;
HEADER;
FILE_DESCRIPTION(
/* description */ (''),
/* implementation_level */ '2;1');
FILE_NAME(
/* name */ 'CNGQ120716.stp',
/* time_stamp */ '2017-03-21T10:53:55',
/* author */ ('Sandvik Coromant R&D'),
/* organization */ ('Sandvik Machining Solutions'),
/* preprocessor_version */ 'ST-DEVELOPER v15',
/* originating_system */ 'SIEMENS PLM Software NX v8.5.3.3(64 bits)',
/* authorization */ '');
FILE_SCHEMA(('AUTOMOTIVE_DESIGN'));
ENDSEC;
DATA;
#10=GEOMETRICALLY_BOUNDED_WIREFRAME_SHAPE_REPRESENTATION('IsoTurningInsert-None',
     (#25),#475);
#11=SHAPE_REPRESENTATION_RELATIONSHIP('None','relationship between IsoTurningInsert-None and IsoTurningInsert-None',
     #24,#13);
#12=SHAPE_REPRESENTATION_RELATIONSHIP('None','relationship between IsoTurningInsert-None and IsoTurningInsert-None',
     #24,#10);
#13=ADVANCED_BREP_SHAPE_REPRESENTATION('IsoTurningInsert-None',(#31),#475);
#14=SHAPE_DEFINITION_REPRESENTATION(#15,#24);
#15=PRODUCT_DEFINITION_SHAPE('','',#16);
#16=PRODUCT_DEFINITION(' ','',#18,#17);
#17=PRODUCT_DEFINITION_CONTEXT('part definition',#23,'design');
#18=PRODUCT_DEFINITION_FORMATION_WITH_SPECIFIED_SOURCE(' ',' ',#20,.NOT_KNOWN.);
#19=PRODUCT_RELATED_PRODUCT_CATEGORY('part','',(#20));
#20=PRODUCT('IsoTurningInsert','IsoTurningInsert',' ',(#21));
#21=PRODUCT_CONTEXT(' ',#23,'mechanical');
#22=APPLICATION_PROTOCOL_DEFINITION('international standard','automotive_design',
     2010,#23);
#23=APPLICATION_CONTEXT('core data for automotive mechanical design processes');
#24=SHAPE_REPRESENTATION('IsoTurningInsert-None',(#248),#475);
#25=GEOMETRIC_CURVE_SET('geometric curve set',(#228));
#26=SURFACE_STYLE_USAGE(.BOTH.,#27);
#27=SURFACE_SIDE_STYLE('',(#28));
#28=SURFACE_STYLE_FILL_AREA(#29);
#29=FILL_AREA_STYLE('',(#30));
#30=FILL_AREA_STYLE_COLOUR('',#247);
#31=MANIFOLD_SOLID_BREP('CUT',#32);
#32=CLOSED_SHELL('',(#46,#47,#48,#49,#50,#51,#52,#53,#54,#55,#56));
#33=CYLINDRICAL_SURFACE('',#267,1.5875);
#34=CYLINDRICAL_SURFACE('',#268,1.5875);
#35=CYLINDRICAL_SURFACE('',#269,1.5875);
#36=CYLINDRICAL_SURFACE('',#270,1.5875);
#37=CYLINDRICAL_SURFACE('',#271,2.578);
#38=FACE_OUTER_BOUND('',#103,.T.);
#39=FACE_OUTER_BOUND('',#104,.T.);
#40=FACE_OUTER_BOUND('',#105,.T.);
#41=FACE_OUTER_BOUND('',#106,.T.);
#42=FACE_OUTER_BOUND('',#109,.T.);
#43=FACE_OUTER_BOUND('',#110,.T.);
#44=FACE_OUTER_BOUND('',#111,.T.);
#45=FACE_OUTER_BOUND('',#112,.T.);
#46=ADVANCED_FACE('',(#95,#96),#57,.F.);
#47=ADVANCED_FACE('',(#38),#58,.T.);
#48=ADVANCED_FACE('',(#39),#59,.T.);
#49=ADVANCED_FACE('',(#40),#60,.T.);
#50=ADVANCED_FACE('',(#41),#61,.T.);
#51=ADVANCED_FACE('',(#97,#98),#62,.T.);
#52=ADVANCED_FACE('',(#42),#33,.T.);
#53=ADVANCED_FACE('',(#43),#34,.T.);
#54=ADVANCED_FACE('',(#44),#35,.T.);
#55=ADVANCED_FACE('',(#45),#36,.T.);
#56=ADVANCED_FACE('',(#99,#100),#37,.F.);
#57=PLANE('',#256);
#58=PLANE('',#257);
#59=PLANE('',#258);
#60=PLANE('',#259);
#61=PLANE('',#260);
#62=PLANE('',#266);
#63=LINE('',#421,#79);
#64=LINE('',#426,#80);
#65=LINE('',#430,#81);
#66=LINE('',#434,#82);
#67=LINE('',#438,#83);
#68=LINE('',#441,#84);
#69=LINE('',#442,#85);
#70=LINE('',#444,#86);
#71=LINE('',#446,#87);
#72=LINE('',#448,#88);
#73=LINE('',#450,#89);
#74=LINE('',#452,#90);
#75=LINE('',#454,#91);
#76=LINE('',#456,#92);
#77=LINE('',#458,#93);
#78=LINE('',#460,#94);
#79=VECTOR('',#280,1.0);
#80=VECTOR('',#283,1.0);
#81=VECTOR('',#286,1.0);
#82=VECTOR('',#289,1.0);
#83=VECTOR('',#294,1.0);
#84=VECTOR('',#295,1.0);
#85=VECTOR('',#296,1.0);
#86=VECTOR('',#299,1.0);
#87=VECTOR('',#300,1.0);
#88=VECTOR('',#301,1.0);
#89=VECTOR('',#304,1.0);
#90=VECTOR('',#305,1.0);
#91=VECTOR('',#306,1.0);
#92=VECTOR('',#309,1.0);
#93=VECTOR('',#310,1.0);
#94=VECTOR('',#311,1.0);
#95=FACE_BOUND('',#101,.T.);
#96=FACE_BOUND('',#102,.T.);
#97=FACE_BOUND('',#107,.T.);
#98=FACE_BOUND('',#108,.T.);
#99=FACE_BOUND('',#113,.T.);
#100=FACE_BOUND('',#114,.T.);
#101=EDGE_LOOP('',(#115));
#102=EDGE_LOOP('',(#116,#117,#118,#119,#120,#121,#122,#123));
#103=EDGE_LOOP('',(#124,#125,#126,#127));
#104=EDGE_LOOP('',(#128,#129,#130,#131));
#105=EDGE_LOOP('',(#132,#133,#134,#135));
#106=EDGE_LOOP('',(#136,#137,#138,#139));
#107=EDGE_LOOP('',(#140));
#108=EDGE_LOOP('',(#141,#142,#143,#144,#145,#146,#147,#148));
#109=EDGE_LOOP('',(#149,#150,#151,#152));
#110=EDGE_LOOP('',(#153,#154,#155,#156));
#111=EDGE_LOOP('',(#157,#158,#159,#160));
#112=EDGE_LOOP('',(#161,#162,#163,#164));
#113=EDGE_LOOP('',(#165));
#114=EDGE_LOOP('',(#166));
#115=ORIENTED_EDGE('',*,*,#185,.T.);
#116=ORIENTED_EDGE('',*,*,#186,.T.);
#117=ORIENTED_EDGE('',*,*,#187,.T.);
#118=ORIENTED_EDGE('',*,*,#188,.T.);
#119=ORIENTED_EDGE('',*,*,#189,.T.);
#120=ORIENTED_EDGE('',*,*,#190,.T.);
#121=ORIENTED_EDGE('',*,*,#191,.T.);
#122=ORIENTED_EDGE('',*,*,#192,.T.);
#123=ORIENTED_EDGE('',*,*,#193,.T.);
#124=ORIENTED_EDGE('',*,*,#194,.F.);
#125=ORIENTED_EDGE('',*,*,#195,.T.);
#126=ORIENTED_EDGE('',*,*,#186,.F.);
#127=ORIENTED_EDGE('',*,*,#196,.T.);
#128=ORIENTED_EDGE('',*,*,#192,.F.);
#129=ORIENTED_EDGE('',*,*,#197,.T.);
#130=ORIENTED_EDGE('',*,*,#198,.F.);
#131=ORIENTED_EDGE('',*,*,#199,.T.);
#132=ORIENTED_EDGE('',*,*,#190,.F.);
#133=ORIENTED_EDGE('',*,*,#200,.T.);
#134=ORIENTED_EDGE('',*,*,#201,.F.);
#135=ORIENTED_EDGE('',*,*,#202,.T.);
#136=ORIENTED_EDGE('',*,*,#188,.F.);
#137=ORIENTED_EDGE('',*,*,#203,.T.);
#138=ORIENTED_EDGE('',*,*,#204,.F.);
#139=ORIENTED_EDGE('',*,*,#205,.T.);
#140=ORIENTED_EDGE('',*,*,#206,.F.);
#141=ORIENTED_EDGE('',*,*,#204,.T.);
#142=ORIENTED_EDGE('',*,*,#207,.T.);
#143=ORIENTED_EDGE('',*,*,#194,.T.);
#144=ORIENTED_EDGE('',*,*,#208,.T.);
#145=ORIENTED_EDGE('',*,*,#198,.T.);
#146=ORIENTED_EDGE('',*,*,#209,.T.);
#147=ORIENTED_EDGE('',*,*,#201,.T.);
#148=ORIENTED_EDGE('',*,*,#210,.T.);
#149=ORIENTED_EDGE('',*,*,#187,.F.);
#150=ORIENTED_EDGE('',*,*,#195,.F.);
#151=ORIENTED_EDGE('',*,*,#207,.F.);
#152=ORIENTED_EDGE('',*,*,#203,.F.);
#153=ORIENTED_EDGE('',*,*,#189,.F.);
#154=ORIENTED_EDGE('',*,*,#205,.F.);
#155=ORIENTED_EDGE('',*,*,#210,.F.);
#156=ORIENTED_EDGE('',*,*,#200,.F.);
#157=ORIENTED_EDGE('',*,*,#191,.F.);
#158=ORIENTED_EDGE('',*,*,#202,.F.);
#159=ORIENTED_EDGE('',*,*,#209,.F.);
#160=ORIENTED_EDGE('',*,*,#197,.F.);
#161=ORIENTED_EDGE('',*,*,#193,.F.);
#162=ORIENTED_EDGE('',*,*,#199,.F.);
#163=ORIENTED_EDGE('',*,*,#208,.F.);
#164=ORIENTED_EDGE('',*,*,#196,.F.);
#165=ORIENTED_EDGE('',*,*,#185,.F.);
#166=ORIENTED_EDGE('',*,*,#206,.T.);
#167=VERTEX_POINT('',#420);
#168=VERTEX_POINT('',#422);
#169=VERTEX_POINT('',#423);
#170=VERTEX_POINT('',#425);
#171=VERTEX_POINT('',#427);
#172=VERTEX_POINT('',#429);
#173=VERTEX_POINT('',#431);
#174=VERTEX_POINT('',#433);
#175=VERTEX_POINT('',#435);
#176=VERTEX_POINT('',#439);
#177=VERTEX_POINT('',#440);
#178=VERTEX_POINT('',#445);
#179=VERTEX_POINT('',#447);
#180=VERTEX_POINT('',#451);
#181=VERTEX_POINT('',#453);
#182=VERTEX_POINT('',#457);
#183=VERTEX_POINT('',#459);
#184=VERTEX_POINT('',#463);
#185=EDGE_CURVE('',#167,#167,#211,.T.);
#186=EDGE_CURVE('',#168,#169,#63,.T.);
#187=EDGE_CURVE('',#169,#170,#212,.T.);
#188=EDGE_CURVE('',#170,#171,#64,.T.);
#189=EDGE_CURVE('',#171,#172,#213,.T.);
#190=EDGE_CURVE('',#172,#173,#65,.T.);
#191=EDGE_CURVE('',#173,#174,#214,.T.);
#192=EDGE_CURVE('',#174,#175,#66,.T.);
#193=EDGE_CURVE('',#175,#168,#215,.T.);
#194=EDGE_CURVE('',#176,#177,#67,.T.);
#195=EDGE_CURVE('',#176,#169,#68,.T.);
#196=EDGE_CURVE('',#168,#177,#69,.T.);
#197=EDGE_CURVE('',#174,#178,#70,.T.);
#198=EDGE_CURVE('',#179,#178,#71,.T.);
#199=EDGE_CURVE('',#179,#175,#72,.T.);
#200=EDGE_CURVE('',#172,#180,#73,.T.);
#201=EDGE_CURVE('',#181,#180,#74,.T.);
#202=EDGE_CURVE('',#181,#173,#75,.T.);
#203=EDGE_CURVE('',#170,#182,#76,.T.);
#204=EDGE_CURVE('',#183,#182,#77,.T.);
#205=EDGE_CURVE('',#183,#171,#78,.T.);
#206=EDGE_CURVE('',#184,#184,#216,.T.);
#207=EDGE_CURVE('',#182,#176,#217,.T.);
#208=EDGE_CURVE('',#177,#179,#218,.T.);
#209=EDGE_CURVE('',#178,#181,#219,.T.);
#210=EDGE_CURVE('',#180,#183,#220,.T.);
#211=CIRCLE('',#251,2.578);
#212=CIRCLE('',#252,1.5875);
#213=CIRCLE('',#253,1.5875);
#214=CIRCLE('',#254,1.5875);
#215=CIRCLE('',#255,1.5875);
#216=CIRCLE('',#261,2.578);
#217=CIRCLE('',#262,1.5875);
#218=CIRCLE('',#263,1.5875);
#219=CIRCLE('',#264,1.5875);
#220=CIRCLE('',#265,1.5875);
#221=CURVE_STYLE('',#225,POSITIVE_LENGTH_MEASURE(0.18),#224);
#222=CURVE_STYLE('',#226,POSITIVE_LENGTH_MEASURE(0.18),#246);
#223=CURVE_STYLE('',#227,POSITIVE_LENGTH_MEASURE(0.18),#246);
#224=DRAUGHTING_PRE_DEFINED_COLOUR('blue');
#225=DRAUGHTING_PRE_DEFINED_CURVE_FONT('continuous');
#226=DRAUGHTING_PRE_DEFINED_CURVE_FONT('continuous');
#227=DRAUGHTING_PRE_DEFINED_CURVE_FONT('continuous');
#228=B_SPLINE_CURVE_WITH_KNOTS('CUTTING EDGE LINE',5,(#339,#340,#341,#342,#343,#344,
     #345,#346,#347,#348,#349,#350,#351,#352,#353,#354,#355,#356,#357,#358,#359,
     #360,#361,#362,#363,#364,#365,#366,#367,#368,#369,#370,#371,#372,#373,#374,
     #375,#376,#377,#378,#379,#380,#381,#382,#383,#384,#385,#386,#387,#388,#389,
     #390,#391,#392,#393,#394,#395,#396,#397,#398,#399,#400,#401,#402,#403,#404,
     #405,#406,#407,#408,#409,#410,#411,#412,#413,#414,#415,#416),.UNSPECIFIED.,
     .T.,.F.,(2,4,1,1,1,1,1,1,1,4,4,1,1,1,1,1,1,1,1,1,1,1,1,1,1,1,4,4,1,1,1,1,1,
     1,1,4,4,1,1,1,1,1,1,1,1,1,1,1,1,1,1,1,4,4,1,1),(-0.1987562523,0.0,0.00569374975000003,
     0.0113874995,0.01708124925,0.022774999,0.0284687487500001,0.0341624985,0.03985624825,
     0.045549998,0.2443062502,0.24786484379375,0.2514234373875,0.25498203098125,
     0.258540624575,0.26209921816875,0.2656578117625,0.26921640535625,0.27277499895,
     0.27633359254375,0.2798921861375,0.28345077973125,0.287009373325,0.29056796691875,
     0.2941265605125,0.29768515410625,0.3012437477,0.5,0.50569374975,0.5113874995,
     0.51708124925,0.522774999,0.52846874875,0.5341624985,0.53985624825,0.545549998,
     0.7443062502,0.74786484379375,0.7514234373875,0.75498203098125,0.758540624575,
     0.76209921816875,0.7656578117625,0.76921640535625,0.77277499895,0.77633359254375,
     0.7798921861375,0.78345077973125,0.787009373325,0.79056796691875,0.7941265605125,
     0.79768515410625,0.8012437477,1.0,1.00569374975,1.0113874995),.UNSPECIFIED.);
#229=PRESENTATION_LAYER_ASSIGNMENT('1','Layer 1',(#228,#249,#250,#31));
#232=STYLED_ITEM('',(#238),#228);
#233=STYLED_ITEM('',(#239),#249);
#234=STYLED_ITEM('',(#240),#250);
#235=STYLED_ITEM('',(#241),#31);
#236=PRESENTATION_STYLE_ASSIGNMENT((#242));
#237=PRESENTATION_STYLE_ASSIGNMENT((#243));
#238=PRESENTATION_STYLE_ASSIGNMENT((#221));
#239=PRESENTATION_STYLE_ASSIGNMENT((#222));
#240=PRESENTATION_STYLE_ASSIGNMENT((#223));
#241=PRESENTATION_STYLE_ASSIGNMENT((#26));
#242=POINT_STYLE('',#244,POSITIVE_LENGTH_MEASURE(3.0),#246);
#243=POINT_STYLE('',#245,POSITIVE_LENGTH_MEASURE(3.0),#246);
#244=PRE_DEFINED_POINT_MARKER_SYMBOL('plus');
#245=PRE_DEFINED_POINT_MARKER_SYMBOL('plus');
#246=COLOUR_RGB('Medium Maroon',0.6,0.4,0.4);
#247=COLOUR_RGB('IsoInsertColor',0.8,0.8,0.8);
#248=AXIS2_PLACEMENT_3D('',#336,#272,#273);
#249=AXIS2_PLACEMENT_3D('PCS',#417,#274,#275);
#250=AXIS2_PLACEMENT_3D('MCS',#418,#276,#277);
#251=AXIS2_PLACEMENT_3D('',#419,#278,#279);
#252=AXIS2_PLACEMENT_3D('',#424,#281,#282);
#253=AXIS2_PLACEMENT_3D('',#428,#284,#285);
#254=AXIS2_PLACEMENT_3D('',#432,#287,#288);
#255=AXIS2_PLACEMENT_3D('',#436,#290,#291);
#256=AXIS2_PLACEMENT_3D('',#437,#292,#293);
#257=AXIS2_PLACEMENT_3D('',#443,#297,#298);
#258=AXIS2_PLACEMENT_3D('',#449,#302,#303);
#259=AXIS2_PLACEMENT_3D('',#455,#307,#308);
#260=AXIS2_PLACEMENT_3D('',#461,#312,#313);
#261=AXIS2_PLACEMENT_3D('',#462,#314,#315);
#262=AXIS2_PLACEMENT_3D('',#464,#316,#317);
#263=AXIS2_PLACEMENT_3D('',#465,#318,#319);
#264=AXIS2_PLACEMENT_3D('',#466,#320,#321);
#265=AXIS2_PLACEMENT_3D('',#467,#322,#323);
#266=AXIS2_PLACEMENT_3D('',#468,#324,#325);
#267=AXIS2_PLACEMENT_3D('',#469,#326,#327);
#268=AXIS2_PLACEMENT_3D('',#470,#328,#329);
#269=AXIS2_PLACEMENT_3D('',#471,#330,#331);
#270=AXIS2_PLACEMENT_3D('',#472,#332,#333);
#271=AXIS2_PLACEMENT_3D('',#473,#334,#335);
#272=DIRECTION('',(0.0,0.0,1.0));
#273=DIRECTION('',(1.0,0.0,0.0));
#274=DIRECTION('',(0.0,0.0,1.0));
#275=DIRECTION('',(1.0,0.0,0.0));
#276=DIRECTION('',(0.0,0.0,1.0));
#277=DIRECTION('',(1.0,0.0,0.0));
#278=DIRECTION('',(0.0,0.0,1.0));
#279=DIRECTION('',(-0.766044443118978,-0.64278760968654,0.0));
#280=DIRECTION('',(1.0,6.10622663543836E-16,0.0));
#281=DIRECTION('',(0.0,0.0,-1.0));
#282=DIRECTION('',(-0.766044443118977,-0.642787609686539,0.0));
#283=DIRECTION('',(-0.173648177666928,-0.984807753012209,0.0));
#284=DIRECTION('',(0.0,0.0,-1.0));
#285=DIRECTION('',(-0.766044443118978,-0.64278760968654,0.0));
#286=DIRECTION('',(-1.0,8.32667268468867E-16,0.0));
#287=DIRECTION('',(0.0,0.0,-1.0));
#288=DIRECTION('',(-0.766044443118978,-0.64278760968654,0.0));
#289=DIRECTION('',(0.17364817766693,0.984807753012208,0.0));
#290=DIRECTION('',(0.0,0.0,-1.0));
#291=DIRECTION('',(-0.766044443118978,-0.642787609686539,0.0));
#292=DIRECTION('',(0.0,0.0,1.0));
#293=DIRECTION('',(-0.766044443118978,-0.64278760968654,0.0));
#294=DIRECTION('',(-1.0,-6.10622663543836E-16,-1.03309251233719E-16));
#295=DIRECTION('',(1.03309251233719E-16,-3.86469317895239E-16,-1.0));
#296=DIRECTION('',(-1.03309251233719E-16,3.86469317895239E-16,1.0));
#297=DIRECTION('',(-6.66133814775094E-16,1.0,-3.86469317895239E-16));
#298=DIRECTION('',(-1.0,-6.10622663543836E-16,0.0));
#299=DIRECTION('',(-1.03309251233719E-16,3.86469317895239E-16,1.0));
#300=DIRECTION('',(-0.17364817766693,-0.984807753012208,3.626585173517E-16));
#301=DIRECTION('',(1.03309251233719E-16,-3.86469317895239E-16,-1.0));
#302=DIRECTION('',(-0.984807753012208,0.17364817766693,-1.68849444349542E-16));
#303=DIRECTION('',(-0.17364817766693,-0.984807753012208,0.0));
#304=DIRECTION('',(-1.03309251233719E-16,3.86469317895239E-16,1.0));
#305=DIRECTION('',(1.0,-8.32667268468867E-16,1.03309251233719E-16));
#306=DIRECTION('',(1.03309251233719E-16,-3.86469317895239E-16,-1.0));
#307=DIRECTION('',(-8.32667268468867E-16,-1.0,3.86469317895239E-16));
#308=DIRECTION('',(1.0,-8.32667268468867E-16,0.0));
#309=DIRECTION('',(-1.03309251233719E-16,3.86469317895239E-16,1.0));
#310=DIRECTION('',(0.173648177666928,0.984807753012209,-3.62658517351701E-16));
#311=DIRECTION('',(1.03309251233719E-16,-3.86469317895239E-16,-1.0));
#312=DIRECTION('',(0.984807753012209,-0.173648177666928,1.68849444349541E-16));
#313=DIRECTION('',(0.173648177666928,0.984807753012209,0.0));
#314=DIRECTION('',(0.0,0.0,1.0));
#315=DIRECTION('',(-0.766044443118978,-0.642787609686539,0.0));
#316=DIRECTION('',(-1.03309251233719E-16,3.86469317895239E-16,1.0));
#317=DIRECTION('',(-0.642787609686539,0.766044443118977,-3.62458580068658E-16));
#318=DIRECTION('',(-1.03309251233719E-16,3.86469317895239E-16,1.0));
#319=DIRECTION('',(-0.64278760968654,0.766044443118977,-3.62458580068658E-16));
#320=DIRECTION('',(-1.03309251233719E-16,3.86469317895239E-16,1.0));
#321=DIRECTION('',(-0.64278760968654,0.766044443118978,-3.62458580068658E-16));
#322=DIRECTION('',(-1.03309251233719E-16,3.86469317895239E-16,1.0));
#323=DIRECTION('',(-0.642787609686539,0.766044443118978,-3.62458580068658E-16));
#324=DIRECTION('',(-1.03309251233719E-16,3.86469317895239E-16,1.0));
#325=DIRECTION('',(-0.64278760968654,0.766044443118978,-3.62458580068658E-16));
#326=DIRECTION('',(-1.03309251233719E-16,3.86469317895239E-16,1.0));
#327=DIRECTION('',(-0.642787609686539,0.766044443118977,-3.62458580068658E-16));
#328=DIRECTION('',(-1.03309251233719E-16,3.86469317895239E-16,1.0));
#329=DIRECTION('',(-0.642787609686539,0.766044443118978,-3.62458580068658E-16));
#330=DIRECTION('',(-1.03309251233719E-16,3.86469317895239E-16,1.0));
#331=DIRECTION('',(-0.64278760968654,0.766044443118978,-3.62458580068658E-16));
#332=DIRECTION('',(-1.03309251233719E-16,3.86469317895239E-16,1.0));
#333=DIRECTION('',(-0.64278760968654,0.766044443118977,-3.62458580068658E-16));
#334=DIRECTION('',(0.0,0.0,1.0));
#335=DIRECTION('',(-0.766044443118978,-0.64278760968654,0.0));
#336=CARTESIAN_POINT('',(0.0,0.0,0.0));
#339=CARTESIAN_POINT('',(9.62945961081265,5.06261699229071E-14,0.0));
#340=CARTESIAN_POINT('',(11.6148685729738,4.9737991503207E-14,6.18791010999751E-16));
#341=CARTESIAN_POINT('',(11.7169111060116,0.00409947974365377,6.27329799771472E-16));
#342=CARTESIAN_POINT('',(11.8788546283068,0.0232577077308447,6.34698684817788E-16));
#343=CARTESIAN_POINT('',(12.0915327082286,0.0773864093849381,6.30221124815338E-16));
#344=CARTESIAN_POINT('',(12.3537493568732,0.195140457967931,5.99771791664649E-16));
#345=CARTESIAN_POINT('',(12.5927152464414,0.361342936216138,5.43246845995071E-16));
#346=CARTESIAN_POINT('',(12.7978887268383,0.567817639497028,4.63552416833E-16));
#347=CARTESIAN_POINT('',(12.9593872700224,0.805602852101664,3.64046554743757E-16));
#348=CARTESIAN_POINT('',(13.0496247960799,1.00565052370242,2.75618650237551E-16));
#349=CARTESIAN_POINT('',(13.0966131650673,1.16180696863181,2.04169493237003E-16));
#350=CARTESIAN_POINT('',(13.1183698644086,1.26158737911751,1.57660969783493E-16));
#351=CARTESIAN_POINT('',(13.4631325126115,3.21683351795379,8.04145478714691E-17));
#352=CARTESIAN_POINT('',(13.7990354108611,5.12183351795378,5.36096985809794E-17));
#353=CARTESIAN_POINT('',(14.1349383091107,7.02683351795377,5.36096985809793E-17));
#354=CARTESIAN_POINT('',(14.4708412073603,8.93183351795376,8.0414547871469E-17));
#355=CARTESIAN_POINT('',(14.8120234250281,10.8667740261898,1.25152289318562E-16));
#356=CARTESIAN_POINT('',(14.821148578867,10.9269078047434,1.07420436349238E-16));
#357=CARTESIAN_POINT('',(14.8310668725296,11.0220010116534,7.96454278578906E-17));
#358=CARTESIAN_POINT('',(14.8346422738346,11.150943916311,4.25644268036949E-17));
#359=CARTESIAN_POINT('',(14.82201709798,11.3191334503447,-4.78582940807514E-18));
#360=CARTESIAN_POINT('',(14.7903585512822,11.489886248105,-5.17492323542751E-17));
#361=CARTESIAN_POINT('',(14.7386797037158,11.6606046096894,-9.75249164548553E-17));
#362=CARTESIAN_POINT('',(14.6665656711588,11.8276389525018,-1.41044890662718E-16));
#363=CARTESIAN_POINT('',(14.5744521146103,11.9874213945993,-1.81314566736164E-16));
#364=CARTESIAN_POINT('',(14.4636112350312,12.1364108528063,-2.17396236312588E-16));
#365=CARTESIAN_POINT('',(14.3361325782218,12.2714395582758,-2.48507026158446E-16));
#366=CARTESIAN_POINT('',(14.194772941682,12.3898996328157,-2.7406341827271E-16));
#367=CARTESIAN_POINT('',(14.0427986961988,12.4899233004159,-2.93723503733453E-16));
#368=CARTESIAN_POINT('',(13.8836478678326,12.5704619625494,-3.07389712898387E-16));
#369=CARTESIAN_POINT('',(13.720986637692,12.6312904569491,-3.15213357283999E-16));
#370=CARTESIAN_POINT('',(13.5575446193779,12.6729296341015,-3.17503965513634E-16));
#371=CARTESIAN_POINT('',(13.4299397852588,12.691799251593,-3.15392160683127E-16));
#372=CARTESIAN_POINT('',(13.3345689642119,12.6985444011859,-3.11709870588106E-16));
#373=CARTESIAN_POINT('',(13.2737641865394,12.7,-3.08548711570377E-16));
#374=CARTESIAN_POINT('',(11.3089741020607,12.7,-1.84056012647607E-16));
#375=CARTESIAN_POINT('',(9.37458640641841,12.7,-1.22704008431738E-16));
#376=CARTESIAN_POINT('',(7.44019871077608,12.7,-1.22704008431738E-16));
#377=CARTESIAN_POINT('',(5.50581101513375,12.7,-1.84056012647607E-16));
#378=CARTESIAN_POINT('',(3.52040205297255,12.7,-3.2378058039635E-16));
#379=CARTESIAN_POINT('',(3.41835951993481,12.6959005202564,-3.55652086624205E-16));
#380=CARTESIAN_POINT('',(3.25641599763961,12.6767422922692,-3.99536698462479E-16));
#381=CARTESIAN_POINT('',(3.04373791771783,12.6226135906151,-4.4183841884686E-16));
#382=CARTESIAN_POINT('',(2.78152126907322,12.5048595420321,-4.66992937734322E-16));
#383=CARTESIAN_POINT('',(2.54255537950498,12.3386570637839,-4.58750173808009E-16));
#384=CARTESIAN_POINT('',(2.33738189910809,12.132182360503,-4.17920642541229E-16));
#385=CARTESIAN_POINT('',(2.17588335592401,11.8943971478984,-3.45950465377782E-16));
#386=CARTESIAN_POINT('',(2.08564582986647,11.6943494762976,-2.70180052415411E-16));
#387=CARTESIAN_POINT('',(2.03865746087914,11.5381930313682,-2.0321086817113E-16));
#388=CARTESIAN_POINT('',(2.0169007615378,11.4384126208825,-1.57660969783493E-16));
#389=CARTESIAN_POINT('',(1.67213811333492,9.48316648204626,-8.04145478714694E-17));
#390=CARTESIAN_POINT('',(1.3362352150853,7.57816648204627,-5.36096985809795E-17));
#391=CARTESIAN_POINT('',(1.00033231683568,5.67316648204628,-5.36096985809794E-17));
#392=CARTESIAN_POINT('',(0.664429418586054,3.76816648204629,-8.04145478714691E-17));
#393=CARTESIAN_POINT('',(0.32324720091829,1.83322597381024,-1.25152289318562E-16));
#394=CARTESIAN_POINT('',(0.314122047079405,1.77309219525663,-1.07420436349238E-16));
#395=CARTESIAN_POINT('',(0.304203753416818,1.67799898834664,-7.96454278578908E-17));
#396=CARTESIAN_POINT('',(0.300628352111809,1.54905608368901,-4.25644268036948E-17));
#397=CARTESIAN_POINT('',(0.313253527966399,1.38086654965535,4.78582940807502E-18));
#398=CARTESIAN_POINT('',(0.344912074664219,1.21011375189501,5.17492323542752E-17));
#399=CARTESIAN_POINT('',(0.396590922230624,1.03939539031068,9.75249164548552E-17));
#400=CARTESIAN_POINT('',(0.468704954787557,0.872361047498277,1.41044890662718E-16));
#401=CARTESIAN_POINT('',(0.56081851133607,0.712578605400751,1.81314566736164E-16));
#402=CARTESIAN_POINT('',(0.671659390915193,0.563589147193745,2.17396236312588E-16));
#403=CARTESIAN_POINT('',(0.799138047724615,0.428560441724296,2.48507026158446E-16));
#404=CARTESIAN_POINT('',(0.940497684264441,0.310100367184398,2.74063418272711E-16));
#405=CARTESIAN_POINT('',(1.09247192974761,0.210076699584182,2.93723503733453E-16));
#406=CARTESIAN_POINT('',(1.25162275811375,0.129538037450648,3.07389712898387E-16));
#407=CARTESIAN_POINT('',(1.41428398825436,0.068709543050927,3.15213357283999E-16));
#408=CARTESIAN_POINT('',(1.57772600656847,0.0270703658985783,3.17503965513634E-16));
#409=CARTESIAN_POINT('',(1.70533084068758,0.00820074840701501,3.15392160683127E-16));
#410=CARTESIAN_POINT('',(1.80070166173446,0.00145559881415647,3.11709870588106E-16));
#411=CARTESIAN_POINT('',(1.86150643940703,5.77315972805081E-14,3.08548711570377E-16));
#412=CARTESIAN_POINT('',(3.82629652388565,5.77315972805081E-14,1.84056012647607E-16));
#413=CARTESIAN_POINT('',(5.76068421952798,5.50670620214078E-14,9.20280063238036E-17));
#414=CARTESIAN_POINT('',(7.69507191517031,5.32907051820075E-14,3.06760021079345E-17));
#415=CARTESIAN_POINT('',(9.62945961081265,5.06261699229071E-14,0.0));
#416=CARTESIAN_POINT('',(11.6148685729738,4.9737991503207E-14,6.18791010999751E-16));
#417=CARTESIAN_POINT('',(0.0,0.0,0.0));
#418=CARTESIAN_POINT('',(7.56763531297323,6.35,0.0));
#419=CARTESIAN_POINT('',(7.56763531297323,6.35,-7.9375));
#420=CARTESIAN_POINT('',(5.5927727386125,4.6928935422281,-7.9375));
#421=CARTESIAN_POINT('',(7.5676353129732,12.7,-7.9375));
#422=CARTESIAN_POINT('',(3.57142331949142,12.7,-7.9375));
#423=CARTESIAN_POINT('',(13.2433617977031,12.7,-7.9375));
#424=CARTESIAN_POINT('',(13.2433617977031,11.1125,-7.9375));
#425=CARTESIAN_POINT('',(14.80674410561,10.8368335179538,-7.9375));
#426=CARTESIAN_POINT('',(13.8211645446007,5.24733407181504,-7.9375));
#427=CARTESIAN_POINT('',(13.1272296143619,1.3118335179538,-7.9375));
#428=CARTESIAN_POINT('',(11.563847306455,1.58750000000005,-7.9375));
#429=CARTESIAN_POINT('',(11.563847306455,4.59701721133854E-14,-7.9375));
#430=CARTESIAN_POINT('',(7.5676353129732,4.9439619065339E-14,-7.9375));
#431=CARTESIAN_POINT('',(1.89190882824331,5.3776427755281E-14,-7.9375));
#432=CARTESIAN_POINT('',(1.89190882824331,1.58750000000006,-7.9375));
#433=CARTESIAN_POINT('',(0.328526520336434,1.8631664820463,-7.9375));
#434=CARTESIAN_POINT('',(1.31410608134571,7.45266592818502,-7.9375));
#435=CARTESIAN_POINT('',(2.00804101158454,11.3881664820462,-7.9375));
#436=CARTESIAN_POINT('',(3.57142331949142,11.1125,-7.9375));
#437=CARTESIAN_POINT('',(7.52141400043606,5.82168798019793,-7.9375));
#438=CARTESIAN_POINT('',(7.56763531297322,12.7,-5.38749756651153E-15));
#439=CARTESIAN_POINT('',(13.2433617977031,12.7,-4.8011425131667E-15));
#440=CARTESIAN_POINT('',(3.57142331949142,12.7,-5.80034323532934E-15));
#441=CARTESIAN_POINT('',(13.2433617977031,12.7,-5.20417042793042E-15));
#442=CARTESIAN_POINT('',(3.57142331949142,12.7,-6.93889390390723E-15));
#443=CARTESIAN_POINT('',(7.5676353129732,12.7,-5.38749756651153E-15));
#444=CARTESIAN_POINT('',(0.328526520336434,1.86316648204631,-1.73472347597681E-15));
#445=CARTESIAN_POINT('',(0.328526520336434,1.86316648204631,-1.94726081765045E-15));
#446=CARTESIAN_POINT('',(1.3141060813457,7.452665928185,-4.00561136949636E-15));
#447=CARTESIAN_POINT('',(2.00804101158454,11.3881664820462,-5.45487168607555E-15));
#448=CARTESIAN_POINT('',(2.00804101158454,11.3881664820462,-5.20417042793042E-15));
#449=CARTESIAN_POINT('',(1.31410608134571,7.45266592818502,-4.00561136949636E-15));
#450=CARTESIAN_POINT('',(11.563847306455,4.9439619065339E-14,2.88889491658085E-31));
#451=CARTESIAN_POINT('',(11.563847306455,4.9439619065339E-14,-6.64915604242127E-17));
#452=CARTESIAN_POINT('',(7.56763531297322,5.29090660172926E-14,-4.79337229242022E-16));
#453=CARTESIAN_POINT('',(1.89190882824331,5.72458747072346E-14,-1.06569228258686E-15));
#454=CARTESIAN_POINT('',(1.89190882824331,5.72458747072346E-14,-1.73472347597681E-15));
#455=CARTESIAN_POINT('',(7.5676353129732,5.29090660172926E-14,-4.79337229242024E-16));
#456=CARTESIAN_POINT('',(14.80674410561,10.8368335179538,-5.20417042793042E-15));
#457=CARTESIAN_POINT('',(14.80674410561,10.8368335179538,-3.91957397810311E-15));
#458=CARTESIAN_POINT('',(13.8211645446007,5.24733407181502,-1.86122342625719E-15));
#459=CARTESIAN_POINT('',(13.1272296143619,1.3118335179538,-4.11963109678006E-16));
#460=CARTESIAN_POINT('',(13.1272296143619,1.3118335179538,-1.73472347597681E-15));
#461=CARTESIAN_POINT('',(13.8211645446007,5.24733407181504,-1.86122342625719E-15));
#462=CARTESIAN_POINT('',(7.56763531297323,6.35,0.0));
#463=CARTESIAN_POINT('',(5.5927727386125,4.6928935422281,0.0));
#464=CARTESIAN_POINT('',(13.2433617977031,11.1125,-4.18762247100801E-15));
#465=CARTESIAN_POINT('',(3.57142331949142,11.1125,-5.18682319317065E-15));
#466=CARTESIAN_POINT('',(1.89190882824331,1.58750000000006,-1.67921232474555E-15));
#467=CARTESIAN_POINT('',(11.563847306455,1.58750000000005,-6.80011602582903E-16));
#468=CARTESIAN_POINT('',(7.56763531297323,6.35,-2.93341739787677E-15));
#469=CARTESIAN_POINT('',(13.2433617977031,11.1125,-5.20417042793042E-15));
#470=CARTESIAN_POINT('',(11.563847306455,1.58750000000005,-1.73472347597681E-15));
#471=CARTESIAN_POINT('',(1.89190882824331,1.58750000000006,-1.73472347597681E-15));
#472=CARTESIAN_POINT('',(3.57142331949142,11.1125,-5.20417042793042E-15));
#473=CARTESIAN_POINT('',(7.56763531297323,6.35,-33.3676978394524));
#474=MECHANICAL_DESIGN_GEOMETRIC_PRESENTATION_REPRESENTATION('',(#232,#233,#234,
     #235),#475);
#475=(GEOMETRIC_REPRESENTATION_CONTEXT(3)GLOBAL_UNCERTAINTY_ASSIGNED_CONTEXT((#476))
     GLOBAL_UNIT_ASSIGNED_CONTEXT((#482,#478,#477))REPRESENTATION_CONTEXT('CNGQ120716',
     'TOP_LEVEL_ASSEMBLY_PART'));
#476=UNCERTAINTY_MEASURE_WITH_UNIT(LENGTH_MEASURE(2.0E-5),#482,'DISTANCE_ACCURACY_VALUE',
     'Maximum Tolerance applied to model');
#477=(NAMED_UNIT(*)SI_UNIT($,.STERADIAN.)SOLID_ANGLE_UNIT());
#478=(CONVERSION_BASED_UNIT('DEGREE',#480)NAMED_UNIT(#479)PLANE_ANGLE_UNIT());
#479=DIMENSIONAL_EXPONENTS(0.0,0.0,0.0,0.0,0.0,0.0,0.0);
#480=PLANE_ANGLE_MEASURE_WITH_UNIT(PLANE_ANGLE_MEASURE(0.0174532925),#481);
#481=(NAMED_UNIT(*)PLANE_ANGLE_UNIT()SI_UNIT($,.RADIAN.));
#482=(LENGTH_UNIT()NAMED_UNIT(*)SI_UNIT(.MILLI.,.METRE.));
#483=CONSTRUCTIVE_GEOMETRY_REPRESENTATION('supplemental geometry',(#249,#250),#475);
#484=CONSTRUCTIVE_GEOMETRY_REPRESENTATION_RELATIONSHIP('supplemental geometry','contains PCS and MCS coordinate systems',
     #24,#483);
ENDSEC;
END-ISO-10303-21;
