ISO-10303-21;
HEADER;
FILE_DESCRIPTION(
/* description */ (''),
/* implementation_level */ '2;1');
FILE_NAME(
/* name */ 'DPMT070202.stp',
/* time_stamp */ '2017-03-21T10:54:10',
/* author */ ('Sandvik Coromant R&D'),
/* organization */ ('Sandvik Machining Solutions'),
/* preprocessor_version */ 'ST-DEVELOPER v15',
/* originating_system */ 'SIEMENS PLM Software NX v8.5.3.3(64 bits)',
/* authorization */ '');
FILE_SCHEMA(('AUTOMOTIVE_DESIGN'));
ENDSEC;
DATA;
#10=GEOMETRICALLY_BOUNDED_WIREFRAME_SHAPE_REPRESENTATION('IsoTurningInsert-None',
     (#25),#503);
#11=SHAPE_REPRESENTATION_RELATIONSHIP('None','relationship between IsoTurningInsert-None and IsoTurningInsert-None',
     #24,#13);
#12=SHAPE_REPRESENTATION_RELATIONSHIP('None','relationship between IsoTurningInsert-None and IsoTurningInsert-None',
     #24,#10);
#13=ADVANCED_BREP_SHAPE_REPRESENTATION('IsoTurningInsert-None',(#31),#503);
#14=SHAPE_DEFINITION_REPRESENTATION(#15,#24);
#15=PRODUCT_DEFINITION_SHAPE('','',#16);
#16=PRODUCT_DEFINITION(' ','',#18,#17);
#17=PRODUCT_DEFINITION_CONTEXT('part definition',#23,'design');
#18=PRODUCT_DEFINITION_FORMATION_WITH_SPECIFIED_SOURCE(' ',' ',#20,.NOT_KNOWN.);
#19=PRODUCT_RELATED_PRODUCT_CATEGORY('part','',(#20));
#20=PRODUCT('IsoTurningInsert','IsoTurningInsert',' ',(#21));
#21=PRODUCT_CONTEXT(' ',#23,'mechanical');
#22=APPLICATION_PROTOCOL_DEFINITION('international standard','automotive_design',
     2010,#23);
#23=APPLICATION_CONTEXT('core data for automotive mechanical design processes');
#24=SHAPE_REPRESENTATION('IsoTurningInsert-None',(#285),#503);
#25=GEOMETRIC_CURVE_SET('geometric curve set',(#265));
#26=SURFACE_STYLE_USAGE(.BOTH.,#27);
#27=SURFACE_SIDE_STYLE('',(#28));
#28=SURFACE_STYLE_FILL_AREA(#29);
#29=FILL_AREA_STYLE('',(#30));
#30=FILL_AREA_STYLE_COLOUR('',#284);
#31=MANIFOLD_SOLID_BREP('CUT',#32);
#32=CLOSED_SHELL('',(#49,#50,#51,#52,#53,#54,#55,#56,#57,#58,#59,#60,#61,#62));
#33=CYLINDRICAL_SURFACE('',#309,1.4);
#34=TOROIDAL_SURFACE('',#308,3.9,2.5);
#35=TOROIDAL_SURFACE('',#310,1.38569981785225,0.5);
#36=CONICAL_SURFACE('',#300,0.198437500000002,11.0);
#37=CONICAL_SURFACE('',#301,0.198437500000002,11.0);
#38=CONICAL_SURFACE('',#302,0.198437500000002,11.0);
#39=CONICAL_SURFACE('',#303,0.198437500000002,11.0);
#40=CONICAL_SURFACE('',#305,1.87499999997636,4.00000000179039);
#41=FACE_OUTER_BOUND('',#123,.T.);
#42=FACE_OUTER_BOUND('',#124,.T.);
#43=FACE_OUTER_BOUND('',#125,.T.);
#44=FACE_OUTER_BOUND('',#126,.T.);
#45=FACE_OUTER_BOUND('',#129,.T.);
#46=FACE_OUTER_BOUND('',#130,.T.);
#47=FACE_OUTER_BOUND('',#131,.T.);
#48=FACE_OUTER_BOUND('',#132,.T.);
#49=ADVANCED_FACE('',(#109,#110),#63,.F.);
#50=ADVANCED_FACE('',(#41),#64,.F.);
#51=ADVANCED_FACE('',(#42),#65,.F.);
#52=ADVANCED_FACE('',(#43),#66,.F.);
#53=ADVANCED_FACE('',(#44),#67,.F.);
#54=ADVANCED_FACE('',(#111,#112),#68,.T.);
#55=ADVANCED_FACE('',(#45),#36,.T.);
#56=ADVANCED_FACE('',(#46),#37,.T.);
#57=ADVANCED_FACE('',(#47),#38,.T.);
#58=ADVANCED_FACE('',(#48),#39,.T.);
#59=ADVANCED_FACE('',(#113,#114),#40,.F.);
#60=ADVANCED_FACE('',(#115,#116),#34,.T.);
#61=ADVANCED_FACE('',(#117,#118),#33,.F.);
#62=ADVANCED_FACE('',(#119,#120),#35,.F.);
#63=PLANE('',#289);
#64=PLANE('',#290);
#65=PLANE('',#291);
#66=PLANE('',#292);
#67=PLANE('',#293);
#68=PLANE('',#299);
#69=LINE('',#440,#89);
#70=LINE('',#443,#90);
#71=LINE('',#445,#91);
#72=LINE('',#447,#92);
#73=LINE('',#449,#93);
#74=LINE('',#452,#94);
#75=LINE('',#454,#95);
#76=LINE('',#455,#96);
#77=LINE('',#457,#97);
#78=LINE('',#459,#98);
#79=LINE('',#461,#99);
#80=LINE('',#463,#100);
#81=LINE('',#465,#101);
#82=LINE('',#467,#102);
#83=LINE('',#469,#103);
#84=LINE('',#471,#104);
#85=LINE('',#473,#105);
#86=LINE('',#475,#106);
#87=LINE('',#477,#107);
#88=LINE('',#479,#108);
#89=VECTOR('',#319,1.0);
#90=VECTOR('',#320,1.0);
#91=VECTOR('',#321,1.0);
#92=VECTOR('',#322,1.0);
#93=VECTOR('',#325,1.0);
#94=VECTOR('',#326,1.0);
#95=VECTOR('',#327,1.0);
#96=VECTOR('',#328,1.0);
#97=VECTOR('',#329,1.0);
#98=VECTOR('',#332,1.0);
#99=VECTOR('',#333,1.0);
#100=VECTOR('',#334,1.0);
#101=VECTOR('',#335,1.0);
#102=VECTOR('',#338,1.0);
#103=VECTOR('',#339,1.0);
#104=VECTOR('',#340,1.0);
#105=VECTOR('',#341,1.0);
#106=VECTOR('',#344,1.0);
#107=VECTOR('',#345,1.0);
#108=VECTOR('',#346,1.0);
#109=FACE_BOUND('',#121,.T.);
#110=FACE_BOUND('',#122,.T.);
#111=FACE_BOUND('',#127,.T.);
#112=FACE_BOUND('',#128,.T.);
#113=FACE_BOUND('',#133,.T.);
#114=FACE_BOUND('',#134,.T.);
#115=FACE_BOUND('',#135,.T.);
#116=FACE_BOUND('',#136,.T.);
#117=FACE_BOUND('',#137,.T.);
#118=FACE_BOUND('',#138,.T.);
#119=FACE_BOUND('',#139,.T.);
#120=FACE_BOUND('',#140,.T.);
#121=EDGE_LOOP('',(#141));
#122=EDGE_LOOP('',(#142,#143,#144,#145));
#123=EDGE_LOOP('',(#146,#147,#148,#149,#150,#151));
#124=EDGE_LOOP('',(#152,#153,#154,#155,#156,#157));
#125=EDGE_LOOP('',(#158,#159,#160,#161,#162,#163));
#126=EDGE_LOOP('',(#164,#165,#166,#167,#168,#169));
#127=EDGE_LOOP('',(#170));
#128=EDGE_LOOP('',(#171,#172,#173,#174,#175,#176,#177,#178));
#129=EDGE_LOOP('',(#179,#180,#181));
#130=EDGE_LOOP('',(#182,#183,#184));
#131=EDGE_LOOP('',(#185,#186,#187));
#132=EDGE_LOOP('',(#188,#189,#190));
#133=EDGE_LOOP('',(#191));
#134=EDGE_LOOP('',(#192));
#135=EDGE_LOOP('',(#193));
#136=EDGE_LOOP('',(#194));
#137=EDGE_LOOP('',(#195));
#138=EDGE_LOOP('',(#196));
#139=EDGE_LOOP('',(#197));
#140=EDGE_LOOP('',(#198));
#141=ORIENTED_EDGE('',*,*,#220,.T.);
#142=ORIENTED_EDGE('',*,*,#221,.T.);
#143=ORIENTED_EDGE('',*,*,#222,.T.);
#144=ORIENTED_EDGE('',*,*,#223,.T.);
#145=ORIENTED_EDGE('',*,*,#224,.T.);
#146=ORIENTED_EDGE('',*,*,#225,.F.);
#147=ORIENTED_EDGE('',*,*,#226,.T.);
#148=ORIENTED_EDGE('',*,*,#227,.F.);
#149=ORIENTED_EDGE('',*,*,#221,.F.);
#150=ORIENTED_EDGE('',*,*,#228,.T.);
#151=ORIENTED_EDGE('',*,*,#229,.T.);
#152=ORIENTED_EDGE('',*,*,#224,.F.);
#153=ORIENTED_EDGE('',*,*,#230,.T.);
#154=ORIENTED_EDGE('',*,*,#231,.T.);
#155=ORIENTED_EDGE('',*,*,#232,.F.);
#156=ORIENTED_EDGE('',*,*,#233,.T.);
#157=ORIENTED_EDGE('',*,*,#228,.F.);
#158=ORIENTED_EDGE('',*,*,#223,.F.);
#159=ORIENTED_EDGE('',*,*,#234,.T.);
#160=ORIENTED_EDGE('',*,*,#235,.T.);
#161=ORIENTED_EDGE('',*,*,#236,.F.);
#162=ORIENTED_EDGE('',*,*,#237,.T.);
#163=ORIENTED_EDGE('',*,*,#230,.F.);
#164=ORIENTED_EDGE('',*,*,#222,.F.);
#165=ORIENTED_EDGE('',*,*,#227,.T.);
#166=ORIENTED_EDGE('',*,*,#238,.T.);
#167=ORIENTED_EDGE('',*,*,#239,.F.);
#168=ORIENTED_EDGE('',*,*,#240,.T.);
#169=ORIENTED_EDGE('',*,*,#234,.F.);
#170=ORIENTED_EDGE('',*,*,#241,.F.);
#171=ORIENTED_EDGE('',*,*,#239,.T.);
#172=ORIENTED_EDGE('',*,*,#242,.T.);
#173=ORIENTED_EDGE('',*,*,#225,.T.);
#174=ORIENTED_EDGE('',*,*,#243,.T.);
#175=ORIENTED_EDGE('',*,*,#232,.T.);
#176=ORIENTED_EDGE('',*,*,#244,.T.);
#177=ORIENTED_EDGE('',*,*,#236,.T.);
#178=ORIENTED_EDGE('',*,*,#245,.T.);
#179=ORIENTED_EDGE('',*,*,#238,.F.);
#180=ORIENTED_EDGE('',*,*,#226,.F.);
#181=ORIENTED_EDGE('',*,*,#242,.F.);
#182=ORIENTED_EDGE('',*,*,#235,.F.);
#183=ORIENTED_EDGE('',*,*,#240,.F.);
#184=ORIENTED_EDGE('',*,*,#245,.F.);
#185=ORIENTED_EDGE('',*,*,#231,.F.);
#186=ORIENTED_EDGE('',*,*,#237,.F.);
#187=ORIENTED_EDGE('',*,*,#244,.F.);
#188=ORIENTED_EDGE('',*,*,#229,.F.);
#189=ORIENTED_EDGE('',*,*,#233,.F.);
#190=ORIENTED_EDGE('',*,*,#243,.F.);
#191=ORIENTED_EDGE('',*,*,#246,.T.);
#192=ORIENTED_EDGE('',*,*,#241,.T.);
#193=ORIENTED_EDGE('',*,*,#247,.T.);
#194=ORIENTED_EDGE('',*,*,#248,.T.);
#195=ORIENTED_EDGE('',*,*,#248,.F.);
#196=ORIENTED_EDGE('',*,*,#220,.F.);
#197=ORIENTED_EDGE('',*,*,#247,.F.);
#198=ORIENTED_EDGE('',*,*,#246,.F.);
#199=VERTEX_POINT('',#439);
#200=VERTEX_POINT('',#441);
#201=VERTEX_POINT('',#442);
#202=VERTEX_POINT('',#444);
#203=VERTEX_POINT('',#446);
#204=VERTEX_POINT('',#450);
#205=VERTEX_POINT('',#451);
#206=VERTEX_POINT('',#453);
#207=VERTEX_POINT('',#456);
#208=VERTEX_POINT('',#460);
#209=VERTEX_POINT('',#462);
#210=VERTEX_POINT('',#464);
#211=VERTEX_POINT('',#468);
#212=VERTEX_POINT('',#470);
#213=VERTEX_POINT('',#472);
#214=VERTEX_POINT('',#476);
#215=VERTEX_POINT('',#478);
#216=VERTEX_POINT('',#482);
#217=VERTEX_POINT('',#493);
#218=VERTEX_POINT('',#496);
#219=VERTEX_POINT('',#498);
#220=EDGE_CURVE('',#199,#199,#249,.T.);
#221=EDGE_CURVE('',#200,#201,#69,.T.);
#222=EDGE_CURVE('',#201,#202,#70,.T.);
#223=EDGE_CURVE('',#202,#203,#71,.T.);
#224=EDGE_CURVE('',#203,#200,#72,.T.);
#225=EDGE_CURVE('',#204,#205,#73,.T.);
#226=EDGE_CURVE('',#204,#206,#74,.T.);
#227=EDGE_CURVE('INSERT_CORNER_EDGE3',#201,#206,#75,.T.);
#228=EDGE_CURVE('INSERT_CORNER_EDGE4',#200,#207,#76,.T.);
#229=EDGE_CURVE('',#207,#205,#77,.T.);
#230=EDGE_CURVE('INSERT_CORNER_EDGE1',#203,#208,#78,.T.);
#231=EDGE_CURVE('',#208,#209,#79,.T.);
#232=EDGE_CURVE('',#210,#209,#80,.T.);
#233=EDGE_CURVE('',#210,#207,#81,.T.);
#234=EDGE_CURVE('INSERT_CORNER_EDGE2',#202,#211,#82,.T.);
#235=EDGE_CURVE('',#211,#212,#83,.T.);
#236=EDGE_CURVE('',#213,#212,#84,.T.);
#237=EDGE_CURVE('',#213,#208,#85,.T.);
#238=EDGE_CURVE('',#206,#214,#86,.T.);
#239=EDGE_CURVE('',#215,#214,#87,.T.);
#240=EDGE_CURVE('',#215,#211,#88,.T.);
#241=EDGE_CURVE('',#216,#216,#250,.T.);
#242=EDGE_CURVE('',#214,#204,#251,.T.);
#243=EDGE_CURVE('',#205,#210,#252,.T.);
#244=EDGE_CURVE('',#209,#213,#253,.T.);
#245=EDGE_CURVE('',#212,#215,#254,.T.);
#246=EDGE_CURVE('',#217,#217,#255,.T.);
#247=EDGE_CURVE('',#218,#218,#256,.T.);
#248=EDGE_CURVE('',#219,#219,#257,.T.);
#249=CIRCLE('',#288,1.4);
#250=CIRCLE('',#294,1.92255023212159);
#251=CIRCLE('',#295,0.198437500000002);
#252=CIRCLE('',#296,0.198437500000002);
#253=CIRCLE('',#297,0.198437500000002);
#254=CIRCLE('',#298,0.198437500000002);
#255=CIRCLE('',#304,1.88448184298103);
#256=CIRCLE('',#306,1.80474984821024);
#257=CIRCLE('',#307,1.4);
#258=CURVE_STYLE('',#262,POSITIVE_LENGTH_MEASURE(0.18),#261);
#259=CURVE_STYLE('',#263,POSITIVE_LENGTH_MEASURE(0.18),#283);
#260=CURVE_STYLE('',#264,POSITIVE_LENGTH_MEASURE(0.18),#283);
#261=DRAUGHTING_PRE_DEFINED_COLOUR('blue');
#262=DRAUGHTING_PRE_DEFINED_CURVE_FONT('continuous');
#263=DRAUGHTING_PRE_DEFINED_CURVE_FONT('continuous');
#264=DRAUGHTING_PRE_DEFINED_CURVE_FONT('continuous');
#265=B_SPLINE_CURVE_WITH_KNOTS('CUTTING EDGE LINE',5,(#386,#387,#388,#389,#390,#391,
     #392,#393,#394,#395,#396,#397,#398,#399,#400,#401,#402,#403,#404,#405,#406,
     #407,#408,#409,#410,#411,#412,#413,#414,#415,#416,#417,#418,#419,#420,#421,
     #422,#423,#424,#425,#426,#427,#428,#429,#430,#431,#432,#433,#434,#435),.UNSPECIFIED.,
     .T.,.F.,(2,4,1,4,4,1,1,1,1,1,1,1,4,4,1,4,4,1,1,1,1,1,1,1,4,4,1,1),(-0.2397183136,
     0.0,0.00314162640000004,0.00628325279999997,0.2460015663,0.2477865813125,0.249571596325027,
     0.2513566113375,0.25314162635002,0.2549266413625,0.256711656375026,0.2584966713875,
     0.2602816864,0.5,0.5031416264,0.5062832528,0.7460015663,0.7477865813125,0.749571596325024,
     0.7513566113375,0.753141626350018,0.7549266413625,0.756711656375026,0.7584966713875,
     0.7602816864,1.0,1.0031416264,1.0062832528),.UNSPECIFIED.);
#266=PRESENTATION_LAYER_ASSIGNMENT('1','Layer 1',(#265,#286,#287,#31));
#269=STYLED_ITEM('',(#275),#265);
#270=STYLED_ITEM('',(#276),#286);
#271=STYLED_ITEM('',(#277),#287);
#272=STYLED_ITEM('',(#278),#31);
#273=PRESENTATION_STYLE_ASSIGNMENT((#279));
#274=PRESENTATION_STYLE_ASSIGNMENT((#280));
#275=PRESENTATION_STYLE_ASSIGNMENT((#258));
#276=PRESENTATION_STYLE_ASSIGNMENT((#259));
#277=PRESENTATION_STYLE_ASSIGNMENT((#260));
#278=PRESENTATION_STYLE_ASSIGNMENT((#26));
#279=POINT_STYLE('',#281,POSITIVE_LENGTH_MEASURE(3.0),#283);
#280=POINT_STYLE('',#282,POSITIVE_LENGTH_MEASURE(3.0),#283);
#281=PRE_DEFINED_POINT_MARKER_SYMBOL('plus');
#282=PRE_DEFINED_POINT_MARKER_SYMBOL('plus');
#283=COLOUR_RGB('Medium Maroon',0.6,0.4,0.4);
#284=COLOUR_RGB('IsoInsertColor',0.8,0.8,0.8);
#285=AXIS2_PLACEMENT_3D('',#383,#311,#312);
#286=AXIS2_PLACEMENT_3D('PCS',#436,#313,#314);
#287=AXIS2_PLACEMENT_3D('MCS',#437,#315,#316);
#288=AXIS2_PLACEMENT_3D('',#438,#317,#318);
#289=AXIS2_PLACEMENT_3D('',#448,#323,#324);
#290=AXIS2_PLACEMENT_3D('',#458,#330,#331);
#291=AXIS2_PLACEMENT_3D('',#466,#336,#337);
#292=AXIS2_PLACEMENT_3D('',#474,#342,#343);
#293=AXIS2_PLACEMENT_3D('',#480,#347,#348);
#294=AXIS2_PLACEMENT_3D('',#481,#349,#350);
#295=AXIS2_PLACEMENT_3D('',#483,#351,#352);
#296=AXIS2_PLACEMENT_3D('',#484,#353,#354);
#297=AXIS2_PLACEMENT_3D('',#485,#355,#356);
#298=AXIS2_PLACEMENT_3D('',#486,#357,#358);
#299=AXIS2_PLACEMENT_3D('',#487,#359,#360);
#300=AXIS2_PLACEMENT_3D('',#488,#361,#362);
#301=AXIS2_PLACEMENT_3D('',#489,#363,#364);
#302=AXIS2_PLACEMENT_3D('',#490,#365,#366);
#303=AXIS2_PLACEMENT_3D('',#491,#367,#368);
#304=AXIS2_PLACEMENT_3D('',#492,#369,#370);
#305=AXIS2_PLACEMENT_3D('',#494,#371,#372);
#306=AXIS2_PLACEMENT_3D('',#495,#373,#374);
#307=AXIS2_PLACEMENT_3D('',#497,#375,#376);
#308=AXIS2_PLACEMENT_3D('',#499,#377,#378);
#309=AXIS2_PLACEMENT_3D('',#500,#379,#380);
#310=AXIS2_PLACEMENT_3D('',#501,#381,#382);
#311=DIRECTION('',(0.0,0.0,1.0));
#312=DIRECTION('',(1.0,0.0,0.0));
#313=DIRECTION('',(0.0,0.0,1.0));
#314=DIRECTION('',(1.0,0.0,0.0));
#315=DIRECTION('',(0.0,0.0,1.0));
#316=DIRECTION('',(1.0,0.0,0.0));
#317=DIRECTION('',(0.0,0.0,1.0));
#318=DIRECTION('',(-0.887010833178222,-0.461748613235034,0.0));
#319=DIRECTION('',(1.0,7.7715611723761E-16,0.0));
#320=DIRECTION('',(-0.573576436351046,-0.819152044288992,0.0));
#321=DIRECTION('',(-1.0,-5.55111512312578E-17,0.0));
#322=DIRECTION('',(0.573576436351046,0.819152044288991,0.0));
#323=DIRECTION('',(0.0,0.0,1.0));
#324=DIRECTION('',(-0.887010833178222,-0.461748613235034,0.0));
#325=DIRECTION('',(-1.0,-8.32667268468867E-16,-1.65605754221584E-16));
#326=DIRECTION('',(3.05311331771918E-16,-0.190808995376546,-0.981627183447664));
#327=DIRECTION('',(0.344150366647522,0.179153341312003,0.921664041521162));
#328=DIRECTION('',(-0.098842471678713,0.189874621480462,0.976820246468148));
#329=DIRECTION('',(-3.05311331771918E-16,0.190808995376546,0.981627183447664));
#330=DIRECTION('',(7.21644966006352E-16,-0.981627183447664,0.190808995376546));
#331=DIRECTION('',(1.0,7.7715611723761E-16,0.0));
#332=DIRECTION('',(-0.344150366647522,-0.179153341312002,0.921664041521162));
#333=DIRECTION('',(-0.156301578631426,0.109443543591803,0.981627183447664));
#334=DIRECTION('',(-0.573576436351046,-0.819152044288991,6.02925749189197E-16));
#335=DIRECTION('',(0.156301578631426,-0.109443543591803,-0.981627183447664));
#336=DIRECTION('',(0.804101914050799,-0.563038221707226,0.190808995376545));
#337=DIRECTION('',(0.573576436351046,0.819152044288991,0.0));
#338=DIRECTION('',(0.0988424716787127,-0.18987462148046,0.976820246468149));
#339=DIRECTION('',(-1.66533453693773E-16,-0.190808995376544,0.981627183447664));
#340=DIRECTION('',(1.0,0.0,1.65605754221585E-16));
#341=DIRECTION('',(1.66533453693773E-16,0.190808995376544,-0.981627183447664));
#342=DIRECTION('',(-5.55111512312578E-17,0.981627183447664,0.190808995376544));
#343=DIRECTION('',(-1.0,-5.55111512312578E-17,0.0));
#344=DIRECTION('',(0.156301578631425,-0.109443543591801,0.981627183447664));
#345=DIRECTION('',(0.573576436351046,0.819152044288992,-6.02925749189198E-16));
#346=DIRECTION('',(-0.156301578631425,0.109443543591801,-0.981627183447664));
#347=DIRECTION('',(-0.804101914050799,0.563038221707226,0.190808995376544));
#348=DIRECTION('',(-0.573576436351046,-0.819152044288992,0.0));
#349=DIRECTION('',(0.0,0.0,1.0));
#350=DIRECTION('',(-0.887010833178222,-0.461748613235034,0.0));
#351=DIRECTION('',(-1.7186295311592E-16,8.56845954402635E-16,1.0));
#352=DIRECTION('',(-0.461748613235035,0.887010833178221,-8.39389124187824E-16));
#353=DIRECTION('',(-1.7186295311592E-16,8.56845954402635E-16,1.0));
#354=DIRECTION('',(-0.461748613235035,0.887010833178221,-8.39389124187825E-16));
#355=DIRECTION('',(-1.7186295311592E-16,8.56845954402635E-16,1.0));
#356=DIRECTION('',(-0.461748613235034,0.887010833178222,-8.39389124187824E-16));
#357=DIRECTION('',(-1.7186295311592E-16,8.56845954402635E-16,1.0));
#358=DIRECTION('',(-0.461748613235035,0.887010833178222,-8.39389124187824E-16));
#359=DIRECTION('',(-1.7186295311592E-16,8.56845954402635E-16,1.0));
#360=DIRECTION('',(-0.461748613235034,0.887010833178222,-8.39389124187824E-16));
#361=DIRECTION('',(-1.7186295311592E-16,8.56845954402635E-16,1.0));
#362=DIRECTION('',(-0.461748613235034,0.887010833178222,-5.46060732426277E-16));
#363=DIRECTION('',(-1.7186295311592E-16,8.56845954402635E-16,1.0));
#364=DIRECTION('',(-0.461748613235034,0.887010833178222,-5.68348925586533E-16));
#365=DIRECTION('',(-1.7186295311592E-16,8.56845954402635E-16,1.0));
#366=DIRECTION('',(-0.461748613235034,0.887010833178222,-5.63891286954482E-16));
#367=DIRECTION('',(-1.7186295311592E-16,8.56845954402635E-16,1.0));
#368=DIRECTION('',(-0.461748613235034,0.887010833178222,-5.41603093794225E-16));
#369=DIRECTION('',(0.0,0.0,-1.0));
#370=DIRECTION('',(0.887010833178222,0.461748613235034,0.0));
#371=DIRECTION('',(0.0,0.0,1.0));
#372=DIRECTION('',(-0.887010833178222,-0.461748613235034,-9.66395375416718E-17));
#373=DIRECTION('',(0.0,0.0,1.0));
#374=DIRECTION('',(0.887010833178221,0.461748613235034,0.0));
#375=DIRECTION('',(0.0,0.0,-1.0));
#376=DIRECTION('',(-0.887010833178222,-0.461748613235034,0.0));
#377=DIRECTION('',(0.0,0.0,1.0));
#378=DIRECTION('',(-0.887010833178222,-0.461748613235034,0.0));
#379=DIRECTION('',(0.0,0.0,1.0));
#380=DIRECTION('',(-0.887010833178222,-0.461748613235034,0.0));
#381=DIRECTION('',(0.0,0.0,-1.0));
#382=DIRECTION('',(0.887010833178222,0.461748613235034,0.0));
#383=CARTESIAN_POINT('',(0.0,0.0,0.0));
#386=CARTESIAN_POINT('',(6.19513386979727,-8.88178419700125E-16,-2.46519032881566E-32));
#387=CARTESIAN_POINT('',(7.66694426262914,-8.88178419700125E-16,1.73179869074902E-16));
#388=CARTESIAN_POINT('',(7.70359555880467,0.00423092129557778,1.75853621275642E-16));
#389=CARTESIAN_POINT('',(7.74288097341861,0.0173611933507107,1.72435918522715E-16));
#390=CARTESIAN_POINT('',(7.77616985072946,0.0420107063887514,1.47475446717621E-16));
#391=CARTESIAN_POINT('',(7.80065793840597,0.0696069338175782,9.74617481801513E-17));
#392=CARTESIAN_POINT('',(8.64485369851091,1.27524342591159,1.2546181934084E-17));
#393=CARTESIAN_POINT('',(9.47853829869184,2.46586842591159,1.4791141972894E-32));
#394=CARTESIAN_POINT('',(10.3122228988728,3.65649342591159,-6.90253292068385E-32));
#395=CARTESIAN_POINT('',(11.1459074990537,4.84711842591159,1.2546181934084E-17));
#396=CARTESIAN_POINT('',(11.9854967284252,6.04617611032064,6.90663670935935E-17));
#397=CARTESIAN_POINT('',(11.9962123240149,6.06380727006975,7.56672371644484E-17));
#398=CARTESIAN_POINT('',(12.0098996947833,6.09440111268452,7.15668035146447E-17));
#399=CARTESIAN_POINT('',(12.01896425363,6.13792121380306,4.4967069165683E-17));
#400=CARTESIAN_POINT('',(12.0145980520074,6.19528560428004,-3.21232125531151E-18));
#401=CARTESIAN_POINT('',(11.9958528644087,6.24464574447825,-4.89714375311804E-17));
#402=CARTESIAN_POINT('',(11.9661712025603,6.28831271653311,-9.20044236345147E-17));
#403=CARTESIAN_POINT('',(11.9216853951987,6.32479216218089,-1.28491357307957E-16));
#404=CARTESIAN_POINT('',(11.8808365980396,6.34232901478013,-1.38192425546417E-16));
#405=CARTESIAN_POINT('',(11.8479248359708,6.34866488425549,-1.22490270826385E-16));
#406=CARTESIAN_POINT('',(11.8273360222877,6.35,-1.00248994285687E-16));
#407=CARTESIAN_POINT('',(10.3635568707019,6.35,-1.70030369076776E-17));
#408=CARTESIAN_POINT('',(8.91007212595783,6.35,3.94430452610506E-32));
#409=CARTESIAN_POINT('',(7.45658738121372,6.34999999999999,3.94430452610506E-32));
#410=CARTESIAN_POINT('',(6.00310263646962,6.34999999999999,-1.70030369076774E-17));
#411=CARTESIAN_POINT('',(4.53129224363775,6.34999999999999,-1.20249599378231E-16));
#412=CARTESIAN_POINT('',(4.49464094746222,6.34576907870441,-1.64361829285464E-16));
#413=CARTESIAN_POINT('',(4.45535553284829,6.33263880664928,-1.73901213692608E-16));
#414=CARTESIAN_POINT('',(4.42206665553743,6.30798929361125,-1.47475446717622E-16));
#415=CARTESIAN_POINT('',(4.39757856786092,6.28039306618242,-9.74617481801515E-17));
#416=CARTESIAN_POINT('',(3.55338280775598,5.07475657408841,-1.2546181934084E-17));
#417=CARTESIAN_POINT('',(2.71969820757505,3.88413157408841,4.93038065763132E-33));
#418=CARTESIAN_POINT('',(1.88601360739411,2.69350657408841,5.91645678915759E-32));
#419=CARTESIAN_POINT('',(1.05232900721318,1.50288157408841,-1.25461819340841E-17));
#420=CARTESIAN_POINT('',(0.212739777841678,0.303823889679359,-6.90663670935944E-17));
#421=CARTESIAN_POINT('',(0.202024182251961,0.286192729930273,-7.56672371644443E-17));
#422=CARTESIAN_POINT('',(0.188336811483619,0.255598887315494,-7.15668035146539E-17));
#423=CARTESIAN_POINT('',(0.179272252636903,0.212078786196975,-4.49670691657072E-17));
#424=CARTESIAN_POINT('',(0.18363845425949,0.154714395719994,3.21232125527446E-18));
#425=CARTESIAN_POINT('',(0.202383641858127,0.10535425552178,4.89714375311514E-17));
#426=CARTESIAN_POINT('',(0.232065303706566,0.061687283466906,9.20044236344983E-17));
#427=CARTESIAN_POINT('',(0.276551111068127,0.0252078378191105,1.28491357307953E-16));
#428=CARTESIAN_POINT('',(0.317399908227268,0.00767098521987375,1.38192425546416E-16));
#429=CARTESIAN_POINT('',(0.350311670296124,0.00133511574450562,1.22490270826385E-16));
#430=CARTESIAN_POINT('',(0.370900483979218,-4.44089209850063E-16,1.00248994285687E-16));
#431=CARTESIAN_POINT('',(1.83467963556495,-8.88178419700125E-16,1.70030369076775E-17));
#432=CARTESIAN_POINT('',(3.28816438030905,-8.88178419700125E-16,5.42341872339446E-32));
#433=CARTESIAN_POINT('',(4.74164912505316,-1.33226762955019E-15,-2.46519032881566E-32));
#434=CARTESIAN_POINT('',(6.19513386979727,-8.88178419700125E-16,-2.46519032881566E-32));
#435=CARTESIAN_POINT('',(7.66694426262914,-8.88178419700125E-16,1.73179869074902E-16));
#436=CARTESIAN_POINT('',(0.0,0.0,0.0));
#437=CARTESIAN_POINT('',(6.09911825313345,3.175,0.0));
#438=CARTESIAN_POINT('',(6.09911825313345,3.175,-2.38125000000001));
#439=CARTESIAN_POINT('',(4.85730308668394,2.52855194147095,-2.38125000000001));
#440=CARTESIAN_POINT('',(6.09911825313344,5.8871318888658,-2.38125));
#441=CARTESIAN_POINT('',(4.68727175503924,5.8871318888658,-2.38125));
#442=CARTESIAN_POINT('',(11.3090751376332,5.8871318888658,-2.38125));
#443=CARTESIAN_POINT('',(8.32076663427924,1.61938505627032,-2.38125));
#444=CARTESIAN_POINT('',(7.51096475122765,0.462868111134189,-2.38125));
#445=CARTESIAN_POINT('',(6.09911825313345,0.462868111134189,-2.38125));
#446=CARTESIAN_POINT('',(0.889161368633682,0.462868111134189,-2.38125));
#447=CARTESIAN_POINT('',(3.87746987198766,4.73061494372968,-2.38125));
#448=CARTESIAN_POINT('',(5.93964492065476,2.66921520759503,-2.38125));
#449=CARTESIAN_POINT('',(6.09911825313345,6.34999999999999,-5.65390330310514E-15));
#450=CARTESIAN_POINT('',(11.817041615446,6.35,-4.67120410836759E-15));
#451=CARTESIAN_POINT('',(4.54961789172552,6.34999999999999,-5.92020501107089E-15));
#452=CARTESIAN_POINT('',(11.817041615446,6.35,-4.64747966778397E-15));
#453=CARTESIAN_POINT('',(11.817041615446,6.1515625,-1.02087243754412));
#454=CARTESIAN_POINT('',(11.4758601432346,5.97395466730799,-1.93458552648755));
#455=CARTESIAN_POINT('',(4.46246545337619,6.318980776391,-0.159580071389936));
#456=CARTESIAN_POINT('',(4.54961789172552,6.15156249999999,-1.02087243754414));
#457=CARTESIAN_POINT('',(4.54961789172552,6.34999999999999,-5.91539677675104E-15));
#458=CARTESIAN_POINT('',(6.09911825313344,6.34999999999999,-5.65390330310514E-15));
#459=CARTESIAN_POINT('',(0.722376363032262,0.376045332692002,-1.93458552648755));
#460=CARTESIAN_POINT('',(0.381194890820843,0.198437500000002,-1.02087243754413));
#461=CARTESIAN_POINT('',(0.218644407032243,0.312256574088416,-1.72454848412182E-15));
#462=CARTESIAN_POINT('',(0.218644407032243,0.312256574088416,-1.49112287580358E-15));
#463=CARTESIAN_POINT('',(3.4983105125159,4.99610518541457,-4.94080650733019E-15));
#464=CARTESIAN_POINT('',(4.38706740793692,6.2653815740884,-5.87563646133496E-15));
#465=CARTESIAN_POINT('',(4.38706740793692,6.2653815740884,-6.02393380064901E-15));
#466=CARTESIAN_POINT('',(3.4983105125159,4.99610518541457,-4.94080650733019E-15));
#467=CARTESIAN_POINT('',(7.7357710528907,0.0310192236089931,-0.159580071389931));
#468=CARTESIAN_POINT('',(7.64861861454137,0.198437500000002,-1.02087243754413));
#469=CARTESIAN_POINT('',(7.64861861454137,-8.67361737988404E-16,-1.91907061230076E-18));
#470=CARTESIAN_POINT('',(7.64861861454137,-8.67361737988404E-16,5.33702153173362E-17));
#471=CARTESIAN_POINT('',(6.09911825313345,-4.33680868994202E-16,-2.12931492648414E-16));
#472=CARTESIAN_POINT('',(0.381194890820841,-8.67361737988404E-16,-1.19563068738597E-15));
#473=CARTESIAN_POINT('',(0.381194890820841,-8.67361737988404E-16,-1.196729574096E-15));
#474=CARTESIAN_POINT('',(6.09911825313345,-8.67361737988404E-16,-2.12931492648415E-16));
#475=CARTESIAN_POINT('',(11.9795920992346,6.03774342591159,-4.11966075775815E-15));
#476=CARTESIAN_POINT('',(11.9795920992346,6.03774342591159,-4.37571191994998E-15));
#477=CARTESIAN_POINT('',(8.69992599375099,1.35389481458543,-9.26028288423374E-16));
#478=CARTESIAN_POINT('',(7.81116909832997,0.0846184259115901,8.80166558140051E-18));
#479=CARTESIAN_POINT('',(7.81116909832997,0.0846184259115901,1.59790199961522E-16));
#480=CARTESIAN_POINT('',(8.69992599375099,1.35389481458543,-9.26028288423371E-16));
#481=CARTESIAN_POINT('',(6.09911825313345,3.175,-6.93889390390723E-15));
#482=CARTESIAN_POINT('',(4.3937953699123,2.28726509644316,-6.93889390390723E-15));
#483=CARTESIAN_POINT('',(11.817041615446,6.1515625,-4.50117373929082E-15));
#484=CARTESIAN_POINT('',(4.54961789172552,6.15156249999999,-5.75017464199412E-15));
#485=CARTESIAN_POINT('',(0.381194890820841,0.198437500000002,-1.36566105646274E-15));
#486=CARTESIAN_POINT('',(7.64861861454138,0.198437500000002,-1.16660153759438E-16));
#487=CARTESIAN_POINT('',(6.09911825313345,3.175,-2.93341739787678E-15));
#488=CARTESIAN_POINT('',(11.817041615446,6.1515625,-4.77048955893622E-15));
#489=CARTESIAN_POINT('',(7.64861861454138,0.198437500000002,-4.33680868994202E-16));
#490=CARTESIAN_POINT('',(0.381194890820841,0.198437500000002,-1.30104260698261E-15));
#491=CARTESIAN_POINT('',(4.54961789172552,6.15156249999999,-5.63785129692462E-15));
#492=CARTESIAN_POINT('',(6.09911825313345,3.175,-0.544403327785277));
#493=CARTESIAN_POINT('',(7.77067406278529,4.04515687766309,-0.544403327785277));
#494=CARTESIAN_POINT('',(6.09911825313345,3.175,-0.680000000032648));
#495=CARTESIAN_POINT('',(6.09911825313345,3.175,-0.782283357604645));
#496=CARTESIAN_POINT('',(7.69995091967269,4.00834073964721,-0.782283357604645));
#497=CARTESIAN_POINT('',(6.09911825313345,3.175,-2.14607469113957));
#498=CARTESIAN_POINT('',(4.85730308668394,2.52855194147095,-2.14607469113957));
#499=CARTESIAN_POINT('',(6.09911825313345,3.175,-2.14607469113958));
#500=CARTESIAN_POINT('',(6.09911825313345,3.175,-33.3676978394524));
#501=CARTESIAN_POINT('',(6.09911825313345,3.175,-0.509525090897633));
#502=MECHANICAL_DESIGN_GEOMETRIC_PRESENTATION_REPRESENTATION('',(#269,#270,#271,
     #272),#503);
#503=(GEOMETRIC_REPRESENTATION_CONTEXT(3)GLOBAL_UNCERTAINTY_ASSIGNED_CONTEXT((#504))
     GLOBAL_UNIT_ASSIGNED_CONTEXT((#510,#506,#505))REPRESENTATION_CONTEXT('DPMT070202',
     'TOP_LEVEL_ASSEMBLY_PART'));
#504=UNCERTAINTY_MEASURE_WITH_UNIT(LENGTH_MEASURE(2.0E-5),#510,'DISTANCE_ACCURACY_VALUE',
     'Maximum Tolerance applied to model');
#505=(NAMED_UNIT(*)SI_UNIT($,.STERADIAN.)SOLID_ANGLE_UNIT());
#506=(CONVERSION_BASED_UNIT('DEGREE',#508)NAMED_UNIT(#507)PLANE_ANGLE_UNIT());
#507=DIMENSIONAL_EXPONENTS(0.0,0.0,0.0,0.0,0.0,0.0,0.0);
#508=PLANE_ANGLE_MEASURE_WITH_UNIT(PLANE_ANGLE_MEASURE(0.0174532925),#509);
#509=(NAMED_UNIT(*)PLANE_ANGLE_UNIT()SI_UNIT($,.RADIAN.));
#510=(LENGTH_UNIT()NAMED_UNIT(*)SI_UNIT(.MILLI.,.METRE.));
#511=CONSTRUCTIVE_GEOMETRY_REPRESENTATION('supplemental geometry',(#286,#287),#503);
#512=CONSTRUCTIVE_GEOMETRY_REPRESENTATION_RELATIONSHIP('supplemental geometry','contains PCS and MCS coordinate systems',
     #24,#511);
ENDSEC;
END-ISO-10303-21;
