ISO-10303-21;
HEADER;
FILE_DESCRIPTION(
/* description */ (''),
/* implementation_level */ '2;1');
FILE_NAME(
/* name */ 'DCGT11T302.stp',
/* time_stamp */ '2017-03-21T10:54:02',
/* author */ ('Sandvik Coromant R&D'),
/* organization */ ('Sandvik Machining Solutions'),
/* preprocessor_version */ 'ST-DEVELOPER v15',
/* originating_system */ 'SIEMENS PLM Software NX v8.5.3.3(64 bits)',
/* authorization */ '');
FILE_SCHEMA(('AUTOMOTIVE_DESIGN'));
ENDSEC;
DATA;
#10=GEOMETRICALLY_BOUNDED_WIREFRAME_SHAPE_REPRESENTATION('IsoTurningInsert-None',
     (#25),#503);
#11=SHAPE_REPRESENTATION_RELATIONSHIP('None','relationship between IsoTurningInsert-None and IsoTurningInsert-None',
     #24,#13);
#12=SHAPE_REPRESENTATION_RELATIONSHIP('None','relationship between IsoTurningInsert-None and IsoTurningInsert-None',
     #24,#10);
#13=ADVANCED_BREP_SHAPE_REPRESENTATION('IsoTurningInsert-None',(#31),#503);
#14=SHAPE_DEFINITION_REPRESENTATION(#15,#24);
#15=PRODUCT_DEFINITION_SHAPE('','',#16);
#16=PRODUCT_DEFINITION(' ','',#18,#17);
#17=PRODUCT_DEFINITION_CONTEXT('part definition',#23,'design');
#18=PRODUCT_DEFINITION_FORMATION_WITH_SPECIFIED_SOURCE(' ',' ',#20,.NOT_KNOWN.);
#19=PRODUCT_RELATED_PRODUCT_CATEGORY('part','',(#20));
#20=PRODUCT('IsoTurningInsert','IsoTurningInsert',' ',(#21));
#21=PRODUCT_CONTEXT(' ',#23,'mechanical');
#22=APPLICATION_PROTOCOL_DEFINITION('international standard','automotive_design',
     2010,#23);
#23=APPLICATION_CONTEXT('core data for automotive mechanical design processes');
#24=SHAPE_REPRESENTATION('IsoTurningInsert-None',(#285),#503);
#25=GEOMETRIC_CURVE_SET('geometric curve set',(#265));
#26=SURFACE_STYLE_USAGE(.BOTH.,#27);
#27=SURFACE_SIDE_STYLE('',(#28));
#28=SURFACE_STYLE_FILL_AREA(#29);
#29=FILL_AREA_STYLE('',(#30));
#30=FILL_AREA_STYLE_COLOUR('',#284);
#31=MANIFOLD_SOLID_BREP('CUT',#32);
#32=CLOSED_SHELL('',(#49,#50,#51,#52,#53,#54,#55,#56,#57,#58,#59,#60,#61,#62));
#33=CYLINDRICAL_SURFACE('',#309,2.2);
#34=TOROIDAL_SURFACE('',#308,6.19999999999999,4.0);
#35=TOROIDAL_SURFACE('',#310,2.70678285826048,0.3);
#36=CONICAL_SURFACE('',#300,0.198437500000001,7.0);
#37=CONICAL_SURFACE('',#301,0.198437500000001,7.0);
#38=CONICAL_SURFACE('',#302,0.198437500000001,7.0);
#39=CONICAL_SURFACE('',#303,0.198437500000001,7.0);
#40=CONICAL_SURFACE('',#305,2.99999999999613,4.00000000019618);
#41=FACE_OUTER_BOUND('',#123,.T.);
#42=FACE_OUTER_BOUND('',#124,.T.);
#43=FACE_OUTER_BOUND('',#125,.T.);
#44=FACE_OUTER_BOUND('',#126,.T.);
#45=FACE_OUTER_BOUND('',#129,.T.);
#46=FACE_OUTER_BOUND('',#130,.T.);
#47=FACE_OUTER_BOUND('',#131,.T.);
#48=FACE_OUTER_BOUND('',#132,.T.);
#49=ADVANCED_FACE('',(#109,#110),#63,.F.);
#50=ADVANCED_FACE('',(#41),#64,.F.);
#51=ADVANCED_FACE('',(#42),#65,.F.);
#52=ADVANCED_FACE('',(#43),#66,.F.);
#53=ADVANCED_FACE('',(#44),#67,.F.);
#54=ADVANCED_FACE('',(#111,#112),#68,.T.);
#55=ADVANCED_FACE('',(#45),#36,.T.);
#56=ADVANCED_FACE('',(#46),#37,.T.);
#57=ADVANCED_FACE('',(#47),#38,.T.);
#58=ADVANCED_FACE('',(#48),#39,.T.);
#59=ADVANCED_FACE('',(#113,#114),#40,.F.);
#60=ADVANCED_FACE('',(#115,#116),#34,.T.);
#61=ADVANCED_FACE('',(#117,#118),#33,.F.);
#62=ADVANCED_FACE('',(#119,#120),#35,.F.);
#63=PLANE('',#289);
#64=PLANE('',#290);
#65=PLANE('',#291);
#66=PLANE('',#292);
#67=PLANE('',#293);
#68=PLANE('',#299);
#69=LINE('',#440,#89);
#70=LINE('',#443,#90);
#71=LINE('',#445,#91);
#72=LINE('',#447,#92);
#73=LINE('',#449,#93);
#74=LINE('',#452,#94);
#75=LINE('',#454,#95);
#76=LINE('',#455,#96);
#77=LINE('',#457,#97);
#78=LINE('',#459,#98);
#79=LINE('',#461,#99);
#80=LINE('',#463,#100);
#81=LINE('',#465,#101);
#82=LINE('',#467,#102);
#83=LINE('',#469,#103);
#84=LINE('',#471,#104);
#85=LINE('',#473,#105);
#86=LINE('',#475,#106);
#87=LINE('',#477,#107);
#88=LINE('',#479,#108);
#89=VECTOR('',#319,1.0);
#90=VECTOR('',#320,1.0);
#91=VECTOR('',#321,1.0);
#92=VECTOR('',#322,1.0);
#93=VECTOR('',#325,1.0);
#94=VECTOR('',#326,1.0);
#95=VECTOR('',#327,1.0);
#96=VECTOR('',#328,1.0);
#97=VECTOR('',#329,1.0);
#98=VECTOR('',#332,1.0);
#99=VECTOR('',#333,1.0);
#100=VECTOR('',#334,1.0);
#101=VECTOR('',#335,1.0);
#102=VECTOR('',#338,1.0);
#103=VECTOR('',#339,1.0);
#104=VECTOR('',#340,1.0);
#105=VECTOR('',#341,1.0);
#106=VECTOR('',#344,1.0);
#107=VECTOR('',#345,1.0);
#108=VECTOR('',#346,1.0);
#109=FACE_BOUND('',#121,.T.);
#110=FACE_BOUND('',#122,.T.);
#111=FACE_BOUND('',#127,.T.);
#112=FACE_BOUND('',#128,.T.);
#113=FACE_BOUND('',#133,.T.);
#114=FACE_BOUND('',#134,.T.);
#115=FACE_BOUND('',#135,.T.);
#116=FACE_BOUND('',#136,.T.);
#117=FACE_BOUND('',#137,.T.);
#118=FACE_BOUND('',#138,.T.);
#119=FACE_BOUND('',#139,.T.);
#120=FACE_BOUND('',#140,.T.);
#121=EDGE_LOOP('',(#141));
#122=EDGE_LOOP('',(#142,#143,#144,#145));
#123=EDGE_LOOP('',(#146,#147,#148,#149,#150,#151));
#124=EDGE_LOOP('',(#152,#153,#154,#155,#156,#157));
#125=EDGE_LOOP('',(#158,#159,#160,#161,#162,#163));
#126=EDGE_LOOP('',(#164,#165,#166,#167,#168,#169));
#127=EDGE_LOOP('',(#170));
#128=EDGE_LOOP('',(#171,#172,#173,#174,#175,#176,#177,#178));
#129=EDGE_LOOP('',(#179,#180,#181));
#130=EDGE_LOOP('',(#182,#183,#184));
#131=EDGE_LOOP('',(#185,#186,#187));
#132=EDGE_LOOP('',(#188,#189,#190));
#133=EDGE_LOOP('',(#191));
#134=EDGE_LOOP('',(#192));
#135=EDGE_LOOP('',(#193));
#136=EDGE_LOOP('',(#194));
#137=EDGE_LOOP('',(#195));
#138=EDGE_LOOP('',(#196));
#139=EDGE_LOOP('',(#197));
#140=EDGE_LOOP('',(#198));
#141=ORIENTED_EDGE('',*,*,#220,.T.);
#142=ORIENTED_EDGE('',*,*,#221,.T.);
#143=ORIENTED_EDGE('',*,*,#222,.T.);
#144=ORIENTED_EDGE('',*,*,#223,.T.);
#145=ORIENTED_EDGE('',*,*,#224,.T.);
#146=ORIENTED_EDGE('',*,*,#225,.F.);
#147=ORIENTED_EDGE('',*,*,#226,.T.);
#148=ORIENTED_EDGE('',*,*,#227,.F.);
#149=ORIENTED_EDGE('',*,*,#221,.F.);
#150=ORIENTED_EDGE('',*,*,#228,.T.);
#151=ORIENTED_EDGE('',*,*,#229,.T.);
#152=ORIENTED_EDGE('',*,*,#224,.F.);
#153=ORIENTED_EDGE('',*,*,#230,.T.);
#154=ORIENTED_EDGE('',*,*,#231,.T.);
#155=ORIENTED_EDGE('',*,*,#232,.F.);
#156=ORIENTED_EDGE('',*,*,#233,.T.);
#157=ORIENTED_EDGE('',*,*,#228,.F.);
#158=ORIENTED_EDGE('',*,*,#223,.F.);
#159=ORIENTED_EDGE('',*,*,#234,.T.);
#160=ORIENTED_EDGE('',*,*,#235,.T.);
#161=ORIENTED_EDGE('',*,*,#236,.F.);
#162=ORIENTED_EDGE('',*,*,#237,.T.);
#163=ORIENTED_EDGE('',*,*,#230,.F.);
#164=ORIENTED_EDGE('',*,*,#222,.F.);
#165=ORIENTED_EDGE('',*,*,#227,.T.);
#166=ORIENTED_EDGE('',*,*,#238,.T.);
#167=ORIENTED_EDGE('',*,*,#239,.F.);
#168=ORIENTED_EDGE('',*,*,#240,.T.);
#169=ORIENTED_EDGE('',*,*,#234,.F.);
#170=ORIENTED_EDGE('',*,*,#241,.F.);
#171=ORIENTED_EDGE('',*,*,#239,.T.);
#172=ORIENTED_EDGE('',*,*,#242,.T.);
#173=ORIENTED_EDGE('',*,*,#225,.T.);
#174=ORIENTED_EDGE('',*,*,#243,.T.);
#175=ORIENTED_EDGE('',*,*,#232,.T.);
#176=ORIENTED_EDGE('',*,*,#244,.T.);
#177=ORIENTED_EDGE('',*,*,#236,.T.);
#178=ORIENTED_EDGE('',*,*,#245,.T.);
#179=ORIENTED_EDGE('',*,*,#238,.F.);
#180=ORIENTED_EDGE('',*,*,#226,.F.);
#181=ORIENTED_EDGE('',*,*,#242,.F.);
#182=ORIENTED_EDGE('',*,*,#235,.F.);
#183=ORIENTED_EDGE('',*,*,#240,.F.);
#184=ORIENTED_EDGE('',*,*,#245,.F.);
#185=ORIENTED_EDGE('',*,*,#231,.F.);
#186=ORIENTED_EDGE('',*,*,#237,.F.);
#187=ORIENTED_EDGE('',*,*,#244,.F.);
#188=ORIENTED_EDGE('',*,*,#229,.F.);
#189=ORIENTED_EDGE('',*,*,#233,.F.);
#190=ORIENTED_EDGE('',*,*,#243,.F.);
#191=ORIENTED_EDGE('',*,*,#246,.T.);
#192=ORIENTED_EDGE('',*,*,#241,.T.);
#193=ORIENTED_EDGE('',*,*,#247,.T.);
#194=ORIENTED_EDGE('',*,*,#248,.T.);
#195=ORIENTED_EDGE('',*,*,#248,.F.);
#196=ORIENTED_EDGE('',*,*,#220,.F.);
#197=ORIENTED_EDGE('',*,*,#247,.F.);
#198=ORIENTED_EDGE('',*,*,#246,.F.);
#199=VERTEX_POINT('',#439);
#200=VERTEX_POINT('',#441);
#201=VERTEX_POINT('',#442);
#202=VERTEX_POINT('',#444);
#203=VERTEX_POINT('',#446);
#204=VERTEX_POINT('',#450);
#205=VERTEX_POINT('',#451);
#206=VERTEX_POINT('',#453);
#207=VERTEX_POINT('',#456);
#208=VERTEX_POINT('',#460);
#209=VERTEX_POINT('',#462);
#210=VERTEX_POINT('',#464);
#211=VERTEX_POINT('',#468);
#212=VERTEX_POINT('',#470);
#213=VERTEX_POINT('',#472);
#214=VERTEX_POINT('',#476);
#215=VERTEX_POINT('',#478);
#216=VERTEX_POINT('',#482);
#217=VERTEX_POINT('',#493);
#218=VERTEX_POINT('',#496);
#219=VERTEX_POINT('',#498);
#220=EDGE_CURVE('',#199,#199,#249,.T.);
#221=EDGE_CURVE('',#200,#201,#69,.T.);
#222=EDGE_CURVE('',#201,#202,#70,.T.);
#223=EDGE_CURVE('',#202,#203,#71,.T.);
#224=EDGE_CURVE('',#203,#200,#72,.T.);
#225=EDGE_CURVE('',#204,#205,#73,.T.);
#226=EDGE_CURVE('',#204,#206,#74,.T.);
#227=EDGE_CURVE('INSERT_CORNER_EDGE3',#201,#206,#75,.T.);
#228=EDGE_CURVE('INSERT_CORNER_EDGE4',#200,#207,#76,.T.);
#229=EDGE_CURVE('',#207,#205,#77,.T.);
#230=EDGE_CURVE('INSERT_CORNER_EDGE1',#203,#208,#78,.T.);
#231=EDGE_CURVE('',#208,#209,#79,.T.);
#232=EDGE_CURVE('',#210,#209,#80,.T.);
#233=EDGE_CURVE('',#210,#207,#81,.T.);
#234=EDGE_CURVE('INSERT_CORNER_EDGE2',#202,#211,#82,.T.);
#235=EDGE_CURVE('',#211,#212,#83,.T.);
#236=EDGE_CURVE('',#213,#212,#84,.T.);
#237=EDGE_CURVE('',#213,#208,#85,.T.);
#238=EDGE_CURVE('',#206,#214,#86,.T.);
#239=EDGE_CURVE('',#215,#214,#87,.T.);
#240=EDGE_CURVE('',#215,#211,#88,.T.);
#241=EDGE_CURVE('',#216,#216,#250,.T.);
#242=EDGE_CURVE('',#214,#204,#251,.T.);
#243=EDGE_CURVE('',#205,#210,#252,.T.);
#244=EDGE_CURVE('',#209,#213,#253,.T.);
#245=EDGE_CURVE('',#212,#215,#254,.T.);
#246=EDGE_CURVE('',#217,#217,#255,.T.);
#247=EDGE_CURVE('',#218,#218,#256,.T.);
#248=EDGE_CURVE('',#219,#219,#257,.T.);
#249=CIRCLE('',#288,2.2);
#250=CIRCLE('',#294,3.07132534818238);
#251=CIRCLE('',#295,0.198437500000001);
#252=CIRCLE('',#296,0.198437500000001);
#253=CIRCLE('',#297,0.198437500000001);
#254=CIRCLE('',#298,0.198437500000001);
#255=CIRCLE('',#304,3.00605207333835);
#256=CIRCLE('',#306,2.95049568210277);
#257=CIRCLE('',#307,2.19999999999999);
#258=CURVE_STYLE('',#262,POSITIVE_LENGTH_MEASURE(0.18),#261);
#259=CURVE_STYLE('',#263,POSITIVE_LENGTH_MEASURE(0.18),#283);
#260=CURVE_STYLE('',#264,POSITIVE_LENGTH_MEASURE(0.18),#283);
#261=DRAUGHTING_PRE_DEFINED_COLOUR('blue');
#262=DRAUGHTING_PRE_DEFINED_CURVE_FONT('continuous');
#263=DRAUGHTING_PRE_DEFINED_CURVE_FONT('continuous');
#264=DRAUGHTING_PRE_DEFINED_CURVE_FONT('continuous');
#265=B_SPLINE_CURVE_WITH_KNOTS('CUTTING EDGE LINE',5,(#386,#387,#388,#389,#390,#391,
     #392,#393,#394,#395,#396,#397,#398,#399,#400,#401,#402,#403,#404,#405,#406,
     #407,#408,#409,#410,#411,#412,#413,#414,#415,#416,#417,#418,#419,#420,#421,
     #422,#423,#424,#425,#426,#427,#428,#429,#430,#431,#432,#433,#434,#435),.UNSPECIFIED.,
     .T.,.F.,(2,4,1,4,4,1,1,1,1,1,1,1,4,4,1,4,4,1,1,1,1,1,1,1,4,4,1,1),(-0.2431972392,
     0.0,0.00207862135,0.0041572427,0.2473544818,0.248535516675,0.249716551550016,
     0.250897586425,0.252078621300012,0.253259656175,0.254440691050017,0.255621725925,
     0.2568027608,0.5,0.50207862135,0.5041572427,0.7473544818,0.748535516675,0.749716551550018,
     0.750897586425,0.752078621300018,0.753259656175,0.754440691050022,0.755621725925,
     0.7568027608,1.0,1.00207862135,1.0041572427),.UNSPECIFIED.);
#266=PRESENTATION_LAYER_ASSIGNMENT('1','Layer 1',(#265,#286,#287,#31));
#269=STYLED_ITEM('',(#275),#265);
#270=STYLED_ITEM('',(#276),#286);
#271=STYLED_ITEM('',(#277),#287);
#272=STYLED_ITEM('',(#278),#31);
#273=PRESENTATION_STYLE_ASSIGNMENT((#279));
#274=PRESENTATION_STYLE_ASSIGNMENT((#280));
#275=PRESENTATION_STYLE_ASSIGNMENT((#258));
#276=PRESENTATION_STYLE_ASSIGNMENT((#259));
#277=PRESENTATION_STYLE_ASSIGNMENT((#260));
#278=PRESENTATION_STYLE_ASSIGNMENT((#26));
#279=POINT_STYLE('',#281,POSITIVE_LENGTH_MEASURE(3.0),#283);
#280=POINT_STYLE('',#282,POSITIVE_LENGTH_MEASURE(3.0),#283);
#281=PRE_DEFINED_POINT_MARKER_SYMBOL('plus');
#282=PRE_DEFINED_POINT_MARKER_SYMBOL('plus');
#283=COLOUR_RGB('Medium Maroon',0.6,0.4,0.4);
#284=COLOUR_RGB('IsoInsertColor',0.8,0.8,0.8);
#285=AXIS2_PLACEMENT_3D('',#383,#311,#312);
#286=AXIS2_PLACEMENT_3D('PCS',#436,#313,#314);
#287=AXIS2_PLACEMENT_3D('MCS',#437,#315,#316);
#288=AXIS2_PLACEMENT_3D('',#438,#317,#318);
#289=AXIS2_PLACEMENT_3D('',#448,#323,#324);
#290=AXIS2_PLACEMENT_3D('',#458,#330,#331);
#291=AXIS2_PLACEMENT_3D('',#466,#336,#337);
#292=AXIS2_PLACEMENT_3D('',#474,#342,#343);
#293=AXIS2_PLACEMENT_3D('',#480,#347,#348);
#294=AXIS2_PLACEMENT_3D('',#481,#349,#350);
#295=AXIS2_PLACEMENT_3D('',#483,#351,#352);
#296=AXIS2_PLACEMENT_3D('',#484,#353,#354);
#297=AXIS2_PLACEMENT_3D('',#485,#355,#356);
#298=AXIS2_PLACEMENT_3D('',#486,#357,#358);
#299=AXIS2_PLACEMENT_3D('',#487,#359,#360);
#300=AXIS2_PLACEMENT_3D('',#488,#361,#362);
#301=AXIS2_PLACEMENT_3D('',#489,#363,#364);
#302=AXIS2_PLACEMENT_3D('',#490,#365,#366);
#303=AXIS2_PLACEMENT_3D('',#491,#367,#368);
#304=AXIS2_PLACEMENT_3D('',#492,#369,#370);
#305=AXIS2_PLACEMENT_3D('',#494,#371,#372);
#306=AXIS2_PLACEMENT_3D('',#495,#373,#374);
#307=AXIS2_PLACEMENT_3D('',#497,#375,#376);
#308=AXIS2_PLACEMENT_3D('',#499,#377,#378);
#309=AXIS2_PLACEMENT_3D('',#500,#379,#380);
#310=AXIS2_PLACEMENT_3D('',#501,#381,#382);
#311=DIRECTION('',(0.0,0.0,1.0));
#312=DIRECTION('',(1.0,0.0,0.0));
#313=DIRECTION('',(0.0,0.0,1.0));
#314=DIRECTION('',(1.0,0.0,0.0));
#315=DIRECTION('',(0.0,0.0,1.0));
#316=DIRECTION('',(1.0,0.0,0.0));
#317=DIRECTION('',(0.0,0.0,1.0));
#318=DIRECTION('',(-0.887010833178222,-0.461748613235034,0.0));
#319=DIRECTION('',(1.0,6.10622663543836E-16,0.0));
#320=DIRECTION('',(-0.573576436351046,-0.819152044288992,0.0));
#321=DIRECTION('',(-1.0,1.66533453693773E-16,0.0));
#322=DIRECTION('',(0.573576436351046,0.819152044288991,0.0));
#323=DIRECTION('',(0.0,0.0,1.0));
#324=DIRECTION('',(-0.887010833178222,-0.461748613235034,0.0));
#325=DIRECTION('',(-1.0,-6.10622663543836E-16,-1.19689526338967E-16));
#326=DIRECTION('',(1.87350135405495E-16,-0.121869343405148,-0.992546151641322));
#327=DIRECTION('',(0.227945648159466,0.11866099374848,0.966416240575346));
#328=DIRECTION('',(-0.0633138803303044,0.121624832503706,0.990554770154566));
#329=DIRECTION('',(-1.87350135405495E-16,0.121869343405148,0.992546151641322));
#330=DIRECTION('',(6.10622663543836E-16,-0.992546151641322,0.121869343405148));
#331=DIRECTION('',(1.0,6.10622663543836E-16,0.0));
#332=DIRECTION('',(-0.227945648159467,-0.118660993748479,0.966416240575346));
#333=DIRECTION('',(-0.0998295217864837,0.0699013836907669,0.992546151641322));
#334=DIRECTION('',(-0.573576436351046,-0.819152044288991,4.03049328176126E-16));
#335=DIRECTION('',(0.0998295217864837,-0.0699013836907669,-0.992546151641322));
#336=DIRECTION('',(0.81304620916816,-0.569301084572375,0.121869343405148));
#337=DIRECTION('',(0.573576436351046,0.819152044288991,0.0));
#338=DIRECTION('',(0.0633138803303042,-0.121624832503705,0.990554770154566));
#339=DIRECTION('',(-1.2490009027033E-16,-0.121869343405147,0.992546151641322));
#340=DIRECTION('',(1.0,-1.66533453693773E-16,1.19689526338968E-16));
#341=DIRECTION('',(1.2490009027033E-16,0.121869343405147,-0.992546151641322));
#342=DIRECTION('',(1.11022302462516E-16,0.992546151641322,0.121869343405147));
#343=DIRECTION('',(-1.0,1.66533453693773E-16,0.0));
#344=DIRECTION('',(0.0998295217864836,-0.0699013836907657,0.992546151641322));
#345=DIRECTION('',(0.573576436351046,0.819152044288992,-4.03049328176126E-16));
#346=DIRECTION('',(-0.0998295217864836,0.0699013836907657,-0.992546151641322));
#347=DIRECTION('',(-0.813046209168161,0.569301084572374,0.121869343405147));
#348=DIRECTION('',(-0.573576436351046,-0.819152044288992,0.0));
#349=DIRECTION('',(0.0,0.0,1.0));
#350=DIRECTION('',(-0.887010833178222,-0.461748613235034,0.0));
#351=DIRECTION('',(-1.1457530207728E-16,5.71230636268423E-16,1.0));
#352=DIRECTION('',(-0.461748613235039,0.887010833178219,-5.59592749458549E-16));
#353=DIRECTION('',(-1.1457530207728E-16,5.71230636268423E-16,1.0));
#354=DIRECTION('',(-0.461748613235034,0.887010833178219,-5.59592749458549E-16));
#355=DIRECTION('',(-1.1457530207728E-16,5.71230636268423E-16,1.0));
#356=DIRECTION('',(-0.461748613235034,0.887010833178222,-5.59592749458549E-16));
#357=DIRECTION('',(-1.1457530207728E-16,5.71230636268423E-16,1.0));
#358=DIRECTION('',(-0.46174861323503,0.887010833178222,-5.59592749458549E-16));
#359=DIRECTION('',(-1.1457530207728E-16,5.71230636268423E-16,1.0));
#360=DIRECTION('',(-0.461748613235034,0.887010833178222,-5.59592749458549E-16));
#361=DIRECTION('',(-1.1457530207728E-16,5.71230636268423E-16,1.0));
#362=DIRECTION('',(-0.461748613235034,0.887010833178222,-8.67481645089359E-16));
#363=DIRECTION('',(-1.1457530207728E-16,5.71230636268423E-16,1.0));
#364=DIRECTION('',(-0.461748613235034,0.887010833178222,-9.02745126597057E-16));
#365=DIRECTION('',(-1.1457530207728E-16,5.71230636268423E-16,1.0));
#366=DIRECTION('',(-0.461748613235034,0.887010833178222,-8.95692430295517E-16));
#367=DIRECTION('',(-1.1457530207728E-16,5.71230636268423E-16,1.0));
#368=DIRECTION('',(-0.461748613235034,0.887010833178222,-8.6042894878782E-16));
#369=DIRECTION('',(0.0,0.0,-1.0));
#370=DIRECTION('',(0.887010833178222,0.461748613235034,0.0));
#371=DIRECTION('',(0.0,0.0,1.0));
#372=DIRECTION('',(-0.887010833178222,-0.461748613235034,5.70892409964812E-16));
#373=DIRECTION('',(0.0,0.0,1.0));
#374=DIRECTION('',(0.887010833178222,0.461748613235034,0.0));
#375=DIRECTION('',(0.0,0.0,-1.0));
#376=DIRECTION('',(-0.887010833178222,-0.461748613235034,0.0));
#377=DIRECTION('',(0.0,0.0,1.0));
#378=DIRECTION('',(-0.887010833178222,-0.461748613235034,0.0));
#379=DIRECTION('',(0.0,0.0,1.0));
#380=DIRECTION('',(-0.887010833178222,-0.461748613235034,0.0));
#381=DIRECTION('',(0.0,0.0,-1.0));
#382=DIRECTION('',(0.887010833178222,0.461748613235034,0.0));
#383=CARTESIAN_POINT('',(0.0,0.0,0.0));
#386=CARTESIAN_POINT('',(9.29590132525136,-5.32907051820075E-15,0.0));
#387=CARTESIAN_POINT('',(11.5429035819468,-4.44089209850063E-15,1.15453246049933E-16));
#388=CARTESIAN_POINT('',(11.5795548781223,0.0042309212955729,1.17235747517093E-16));
#389=CARTESIAN_POINT('',(11.6188402927362,0.0173611933507027,1.14957279015147E-16));
#390=CARTESIAN_POINT('',(11.6521291700471,0.0420107063887478,9.83169644784132E-17));
#391=CARTESIAN_POINT('',(11.6766172577236,0.0696069338175729,6.4974498786767E-17));
#392=CARTESIAN_POINT('',(12.9654448045917,1.91024342591158,8.36412128938927E-18));
#393=CARTESIAN_POINT('',(14.2437611915358,3.73586842591158,3.69778549322349E-33));
#394=CARTESIAN_POINT('',(15.5220775784799,5.56149342591159,2.46519032881566E-32));
#395=CARTESIAN_POINT('',(16.800393965424,7.38711842591158,8.36412128938918E-18));
#396=CARTESIAN_POINT('',(18.0846149815587,9.22117611032064,4.60442447290616E-17));
#397=CARTESIAN_POINT('',(18.0953305771484,9.23880727006973,5.04448247762945E-17));
#398=CARTESIAN_POINT('',(18.1090179479167,9.2694011126845,4.77112023431005E-17));
#399=CARTESIAN_POINT('',(18.1180825067634,9.31292121380303,2.99780461104701E-17));
#400=CARTESIAN_POINT('',(18.1137163051408,9.37028560428,-2.14154750351673E-18));
#401=CARTESIAN_POINT('',(18.0949711175422,9.41964574447822,-3.26476250207675E-17));
#402=CARTESIAN_POINT('',(18.0652894556938,9.46331271653309,-6.1336282422998E-17));
#403=CARTESIAN_POINT('',(18.0208036483322,9.4997921621809,-8.56609048719676E-17));
#404=CARTESIAN_POINT('',(17.9799548511731,9.51732901478012,-9.21282836976099E-17));
#405=CARTESIAN_POINT('',(17.9470430891042,9.52366488425549,-8.1660180550923E-17));
#406=CARTESIAN_POINT('',(17.9264542754211,9.525,-6.68326628571242E-17));
#407=CARTESIAN_POINT('',(15.6874832599719,9.525,-1.13353579384516E-17));
#408=CARTESIAN_POINT('',(13.4588066513642,9.52499999999999,-2.46519032881566E-32));
#409=CARTESIAN_POINT('',(11.2301300427566,9.52499999999999,-3.94430452610506E-32));
#410=CARTESIAN_POINT('',(9.00145343414897,9.52499999999999,-1.13353579384516E-17));
#411=CARTESIAN_POINT('',(6.75445117745358,9.52499999999999,-8.01663995854864E-17));
#412=CARTESIAN_POINT('',(6.71779988127805,9.52076907870441,-1.09574552856975E-16));
#413=CARTESIAN_POINT('',(6.67851446666412,9.50763880664928,-1.15934142461738E-16));
#414=CARTESIAN_POINT('',(6.64522558935326,9.48298929361124,-9.83169644784137E-17));
#415=CARTESIAN_POINT('',(6.62073750167675,9.45539306618241,-6.4974498786767E-17));
#416=CARTESIAN_POINT('',(5.33190995480864,7.6147565740884,-8.36412128938924E-18));
#417=CARTESIAN_POINT('',(4.05359356786454,5.7891315740884,2.46519032881566E-33));
#418=CARTESIAN_POINT('',(2.77527718092045,3.96350657408841,5.91645678915759E-32));
#419=CARTESIAN_POINT('',(1.49696079397634,2.13788157408841,-8.36412128938929E-18));
#420=CARTESIAN_POINT('',(0.212739777841675,0.303823889679353,-4.60442447290618E-17));
#421=CARTESIAN_POINT('',(0.202024182251943,0.28619272993025,-5.04448247762982E-17));
#422=CARTESIAN_POINT('',(0.188336811483612,0.255598887315471,-4.77112023430959E-17));
#423=CARTESIAN_POINT('',(0.179272252636892,0.212078786196895,-2.99780461104396E-17));
#424=CARTESIAN_POINT('',(0.1836384542595,0.15471439571991,2.1415475035662E-18));
#425=CARTESIAN_POINT('',(0.202383641858175,0.105354255521682,3.2647625020826E-17));
#426=CARTESIAN_POINT('',(0.23206530370663,0.0616872834668278,6.13362824230543E-17));
#427=CARTESIAN_POINT('',(0.276551111068217,0.0252078378190674,8.56609048719807E-17));
#428=CARTESIAN_POINT('',(0.317399908227307,0.0076709852198622,9.21282836976084E-17));
#429=CARTESIAN_POINT('',(0.350311670296152,0.0013351157444994,8.16601805508961E-17));
#430=CARTESIAN_POINT('',(0.370900483979211,-3.5527136788005E-15,6.68326628571242E-17));
#431=CARTESIAN_POINT('',(2.60987149942847,-2.66453525910038E-15,1.13353579384516E-17));
#432=CARTESIAN_POINT('',(4.8385481080361,-2.66453525910038E-15,-3.20474742746036E-32));
#433=CARTESIAN_POINT('',(7.06722471664373,-5.32907051820075E-15,0.0));
#434=CARTESIAN_POINT('',(9.29590132525136,-5.32907051820075E-15,0.0));
#435=CARTESIAN_POINT('',(11.5429035819468,-4.44089209850063E-15,1.15453246049933E-16));
#436=CARTESIAN_POINT('',(0.0,0.0,0.0));
#437=CARTESIAN_POINT('',(9.14867737970017,4.7625,0.0));
#438=CARTESIAN_POINT('',(9.14867737970017,4.7625,-3.96875));
#439=CARTESIAN_POINT('',(7.19725354670809,3.74665305088292,-3.96875));
#440=CARTESIAN_POINT('',(9.14867737970017,9.03769877391659,-3.96875));
#441=CARTESIAN_POINT('',(6.92314976343997,9.03769877391658,-3.96875));
#442=CARTESIAN_POINT('',(17.361257813643,9.03769877391659,-3.96875));
#443=CARTESIAN_POINT('',(12.6507151950957,2.31034672256455,-3.96875));
#444=CARTESIAN_POINT('',(11.3742049959604,0.487301226083396,-3.96875));
#445=CARTESIAN_POINT('',(9.14867737970017,0.487301226083396,-3.96875));
#446=CARTESIAN_POINT('',(0.936096945757345,0.487301226083397,-3.96875));
#447=CARTESIAN_POINT('',(5.6466395643046,7.21465327743544,-3.96875));
#448=CARTESIAN_POINT('',(8.98920404722148,4.25671520759503,-3.96875));
#449=CARTESIAN_POINT('',(9.14867737970017,9.52499999999999,-5.65390330310514E-15));
#450=CARTESIAN_POINT('',(17.9161598685795,9.525,-4.64936634848454E-15));
#451=CARTESIAN_POINT('',(6.77277682554135,9.52499999999999,-5.92612282680347E-15));
#452=CARTESIAN_POINT('',(17.9161598685795,9.525,-4.37390289319729E-15));
#453=CARTESIAN_POINT('',(17.9161598685795,9.3265625,-1.61614374430121));
#454=CARTESIAN_POINT('',(17.8219966323067,9.27754422182307,-2.01536558307689));
#455=CARTESIAN_POINT('',(6.67941504250489,9.50590881655518,-0.155485211694563));
#456=CARTESIAN_POINT('',(6.77277682554135,9.32656249999999,-1.61614374430123));
#457=CARTESIAN_POINT('',(6.77277682554135,9.52499999999999,-5.28381845343265E-15));
#458=CARTESIAN_POINT('',(9.14867737970017,9.52499999999999,-5.65390330310514E-15));
#459=CARTESIAN_POINT('',(0.475358127093603,0.24745577817692,-2.01536558307689));
#460=CARTESIAN_POINT('',(0.381194890820839,0.198437499999999,-1.61614374430123));
#461=CARTESIAN_POINT('',(0.218644407032238,0.312256574088411,-1.09159677491852E-15));
#462=CARTESIAN_POINT('',(0.218644407032238,0.312256574088411,-1.41446323954743E-15));
#463=CARTESIAN_POINT('',(5.24746576877385,7.49415777812186,-4.94080650733019E-15));
#464=CARTESIAN_POINT('',(6.61022634175275,9.4403815740884,-5.89641046031284E-15));
#465=CARTESIAN_POINT('',(6.61022634175275,9.4403815740884,-5.28882744598346E-15));
#466=CARTESIAN_POINT('',(5.24746576877385,7.49415777812185,-4.94080650733019E-15));
#467=CARTESIAN_POINT('',(11.6179397168954,0.0190911834448068,-0.155485211694558));
#468=CARTESIAN_POINT('',(11.524577933859,0.198437499999995,-1.61614374430122));
#469=CARTESIAN_POINT('',(11.524577933859,-5.20417042793042E-15,-9.91346140618639E-17));
#470=CARTESIAN_POINT('',(11.524577933859,-5.20417042793042E-15,5.92880310499104E-17));
#471=CARTESIAN_POINT('',(9.14867737970017,-4.33680868994202E-15,-2.12931492648413E-16));
#472=CARTESIAN_POINT('',(0.381194890820839,-1.73472347597681E-15,-1.21746844726902E-15));
#473=CARTESIAN_POINT('',(0.381194890820839,-1.73472347597681E-15,-1.0025304128127E-15));
#474=CARTESIAN_POINT('',(9.14867737970017,-4.33680868994202E-15,-2.12931492648414E-16));
#475=CARTESIAN_POINT('',(18.0787103523681,9.21274342591159,-4.18417887395147E-15));
#476=CARTESIAN_POINT('',(18.0787103523681,9.21274342591159,-4.45237155620613E-15));
#477=CARTESIAN_POINT('',(13.0498889906265,2.03084222187815,-9.26028288423373E-16));
#478=CARTESIAN_POINT('',(11.6871284176476,0.0846184259115854,2.9575664559287E-17));
#479=CARTESIAN_POINT('',(11.6871284176476,0.0846184259115854,1.82270949919243E-16));
#480=CARTESIAN_POINT('',(13.0498889906265,2.03084222187814,-9.2602828842337E-16));
#481=CARTESIAN_POINT('',(9.14867737970017,4.7625,0.0));
#482=CARTESIAN_POINT('',(6.42437852364753,3.34431977968318,0.0));
#483=CARTESIAN_POINT('',(17.9161598685795,9.3265625,-4.53601276910002E-15));
#484=CARTESIAN_POINT('',(6.77277682554134,9.32656249999999,-5.81276924741895E-15));
#485=CARTESIAN_POINT('',(0.381194890820839,0.1984375,-1.33082202665354E-15));
#486=CARTESIAN_POINT('',(11.524577933859,0.198437499999996,-5.40655483346053E-17));
#487=CARTESIAN_POINT('',(9.14867737970017,4.7625,-2.93341739787678E-15));
#488=CARTESIAN_POINT('',(17.9161598685795,9.3265625,-4.33680868994202E-15));
#489=CARTESIAN_POINT('',(11.524577933859,0.198437499999996,0.0));
#490=CARTESIAN_POINT('',(0.381194890820839,0.1984375,-8.67361737988404E-16));
#491=CARTESIAN_POINT('',(6.77277682554134,9.32656249999999,-5.20417042793042E-15));
#492=CARTESIAN_POINT('',(9.14867737970017,4.7625,-0.933451318981114));
#493=CARTESIAN_POINT('',(11.8150781338491,6.15054037617628,-0.933451318981114));
#494=CARTESIAN_POINT('',(9.14867737970017,4.7625,-1.02000000000517));
#495=CARTESIAN_POINT('',(9.14867737970017,4.7625,-1.08746453661102));
#496=CARTESIAN_POINT('',(11.7657990129709,6.12488728956691,-1.08746453661102));
#497=CARTESIAN_POINT('',(9.14867737970017,4.7625,-3.42000000000001));
#498=CARTESIAN_POINT('',(7.19725354670809,3.74665305088292,-3.42000000000001));
#499=CARTESIAN_POINT('',(9.14867737970017,4.7625,-3.42000000000001));
#500=CARTESIAN_POINT('',(9.14867737970017,4.7625,-33.3676978394524));
#501=CARTESIAN_POINT('',(9.14867737970017,4.7625,-0.912524376856848));
#502=MECHANICAL_DESIGN_GEOMETRIC_PRESENTATION_REPRESENTATION('',(#269,#270,#271,
     #272),#503);
#503=(GEOMETRIC_REPRESENTATION_CONTEXT(3)GLOBAL_UNCERTAINTY_ASSIGNED_CONTEXT((#504))
     GLOBAL_UNIT_ASSIGNED_CONTEXT((#510,#506,#505))REPRESENTATION_CONTEXT('DCGT11T302',
     'TOP_LEVEL_ASSEMBLY_PART'));
#504=UNCERTAINTY_MEASURE_WITH_UNIT(LENGTH_MEASURE(2.0E-5),#510,'DISTANCE_ACCURACY_VALUE',
     'Maximum Tolerance applied to model');
#505=(NAMED_UNIT(*)SI_UNIT($,.STERADIAN.)SOLID_ANGLE_UNIT());
#506=(CONVERSION_BASED_UNIT('DEGREE',#508)NAMED_UNIT(#507)PLANE_ANGLE_UNIT());
#507=DIMENSIONAL_EXPONENTS(0.0,0.0,0.0,0.0,0.0,0.0,0.0);
#508=PLANE_ANGLE_MEASURE_WITH_UNIT(PLANE_ANGLE_MEASURE(0.0174532925),#509);
#509=(NAMED_UNIT(*)PLANE_ANGLE_UNIT()SI_UNIT($,.RADIAN.));
#510=(LENGTH_UNIT()NAMED_UNIT(*)SI_UNIT(.MILLI.,.METRE.));
#511=CONSTRUCTIVE_GEOMETRY_REPRESENTATION('supplemental geometry',(#286,#287),#503);
#512=CONSTRUCTIVE_GEOMETRY_REPRESENTATION_RELATIONSHIP('supplemental geometry','contains PCS and MCS coordinate systems',
     #24,#511);
ENDSEC;
END-ISO-10303-21;
