ISO-10303-21;
HEADER;
FILE_DESCRIPTION(
/* description */ (''),
/* implementation_level */ '2;1');
FILE_NAME(
/* name */ 'CPMT09T308.stp',
/* time_stamp */ '2017-03-21T10:54:00',
/* author */ ('Sandvik Coromant R&D'),
/* organization */ ('Sandvik Machining Solutions'),
/* preprocessor_version */ 'ST-DEVELOPER v15',
/* originating_system */ 'SIEMENS PLM Software NX v8.5.3.3(64 bits)',
/* authorization */ '');
FILE_SCHEMA(('AUTOMOTIVE_DESIGN'));
ENDSEC;
DATA;
#10=GEOMETRICALLY_BOUNDED_WIREFRAME_SHAPE_REPRESENTATION('IsoTurningInsert-None',
     (#25),#519);
#11=SHAPE_REPRESENTATION_RELATIONSHIP('None','relationship between IsoTurningInsert-None and IsoTurningInsert-None',
     #24,#13);
#12=SHAPE_REPRESENTATION_RELATIONSHIP('None','relationship between IsoTurningInsert-None and IsoTurningInsert-None',
     #24,#10);
#13=ADVANCED_BREP_SHAPE_REPRESENTATION('IsoTurningInsert-None',(#31),#519);
#14=SHAPE_DEFINITION_REPRESENTATION(#15,#24);
#15=PRODUCT_DEFINITION_SHAPE('','',#16);
#16=PRODUCT_DEFINITION(' ','',#18,#17);
#17=PRODUCT_DEFINITION_CONTEXT('part definition',#23,'design');
#18=PRODUCT_DEFINITION_FORMATION_WITH_SPECIFIED_SOURCE(' ',' ',#20,.NOT_KNOWN.);
#19=PRODUCT_RELATED_PRODUCT_CATEGORY('part','',(#20));
#20=PRODUCT('IsoTurningInsert','IsoTurningInsert',' ',(#21));
#21=PRODUCT_CONTEXT(' ',#23,'mechanical');
#22=APPLICATION_PROTOCOL_DEFINITION('international standard','automotive_design',
     2010,#23);
#23=APPLICATION_CONTEXT('core data for automotive mechanical design processes');
#24=SHAPE_REPRESENTATION('IsoTurningInsert-None',(#281),#519);
#25=GEOMETRIC_CURVE_SET('geometric curve set',(#261));
#26=SURFACE_STYLE_USAGE(.BOTH.,#27);
#27=SURFACE_SIDE_STYLE('',(#28));
#28=SURFACE_STYLE_FILL_AREA(#29);
#29=FILL_AREA_STYLE('',(#30));
#30=FILL_AREA_STYLE_COLOUR('',#280);
#31=MANIFOLD_SOLID_BREP('CUT',#32);
#32=CLOSED_SHELL('',(#49,#50,#51,#52,#53,#54,#55,#56,#57,#58,#59,#60,#61,#62));
#33=CYLINDRICAL_SURFACE('',#309,2.2);
#34=TOROIDAL_SURFACE('',#308,6.19999999999999,4.0);
#35=TOROIDAL_SURFACE('',#310,2.51117873496443,0.5);
#36=CONICAL_SURFACE('',#300,0.793750000000002,11.0);
#37=CONICAL_SURFACE('',#301,0.793750000000002,11.0);
#38=CONICAL_SURFACE('',#302,0.793750000000002,11.0);
#39=CONICAL_SURFACE('',#303,0.793750000000002,11.0);
#40=CONICAL_SURFACE('',#305,2.99999999999613,4.00000000019594);
#41=FACE_OUTER_BOUND('',#115,.T.);
#42=FACE_OUTER_BOUND('',#116,.T.);
#43=FACE_OUTER_BOUND('',#117,.T.);
#44=FACE_OUTER_BOUND('',#118,.T.);
#45=FACE_OUTER_BOUND('',#121,.T.);
#46=FACE_OUTER_BOUND('',#122,.T.);
#47=FACE_OUTER_BOUND('',#123,.T.);
#48=FACE_OUTER_BOUND('',#124,.T.);
#49=ADVANCED_FACE('',(#101,#102),#63,.F.);
#50=ADVANCED_FACE('',(#41),#64,.F.);
#51=ADVANCED_FACE('',(#42),#65,.F.);
#52=ADVANCED_FACE('',(#43),#66,.F.);
#53=ADVANCED_FACE('',(#44),#67,.F.);
#54=ADVANCED_FACE('',(#103,#104),#68,.T.);
#55=ADVANCED_FACE('',(#45),#36,.T.);
#56=ADVANCED_FACE('',(#46),#37,.T.);
#57=ADVANCED_FACE('',(#47),#38,.T.);
#58=ADVANCED_FACE('',(#48),#39,.T.);
#59=ADVANCED_FACE('',(#105,#106),#40,.F.);
#60=ADVANCED_FACE('',(#107,#108),#34,.T.);
#61=ADVANCED_FACE('',(#109,#110),#33,.F.);
#62=ADVANCED_FACE('',(#111,#112),#35,.F.);
#63=PLANE('',#289);
#64=PLANE('',#290);
#65=PLANE('',#291);
#66=PLANE('',#292);
#67=PLANE('',#293);
#68=PLANE('',#299);
#69=LINE('',#456,#85);
#70=LINE('',#461,#86);
#71=LINE('',#465,#87);
#72=LINE('',#469,#88);
#73=LINE('',#473,#89);
#74=LINE('',#476,#90);
#75=LINE('',#477,#91);
#76=LINE('',#479,#92);
#77=LINE('',#481,#93);
#78=LINE('',#483,#94);
#79=LINE('',#485,#95);
#80=LINE('',#487,#96);
#81=LINE('',#489,#97);
#82=LINE('',#491,#98);
#83=LINE('',#493,#99);
#84=LINE('',#495,#100);
#85=VECTOR('',#319,1.0);
#86=VECTOR('',#322,1.0);
#87=VECTOR('',#325,1.0);
#88=VECTOR('',#328,1.0);
#89=VECTOR('',#333,1.0);
#90=VECTOR('',#334,1.0);
#91=VECTOR('',#335,1.0);
#92=VECTOR('',#338,1.0);
#93=VECTOR('',#339,1.0);
#94=VECTOR('',#340,1.0);
#95=VECTOR('',#343,1.0);
#96=VECTOR('',#344,1.0);
#97=VECTOR('',#345,1.0);
#98=VECTOR('',#348,1.0);
#99=VECTOR('',#349,1.0);
#100=VECTOR('',#350,1.0);
#101=FACE_BOUND('',#113,.T.);
#102=FACE_BOUND('',#114,.T.);
#103=FACE_BOUND('',#119,.T.);
#104=FACE_BOUND('',#120,.T.);
#105=FACE_BOUND('',#125,.T.);
#106=FACE_BOUND('',#126,.T.);
#107=FACE_BOUND('',#127,.T.);
#108=FACE_BOUND('',#128,.T.);
#109=FACE_BOUND('',#129,.T.);
#110=FACE_BOUND('',#130,.T.);
#111=FACE_BOUND('',#131,.T.);
#112=FACE_BOUND('',#132,.T.);
#113=EDGE_LOOP('',(#133));
#114=EDGE_LOOP('',(#134,#135,#136,#137,#138,#139,#140,#141));
#115=EDGE_LOOP('',(#142,#143,#144,#145));
#116=EDGE_LOOP('',(#146,#147,#148,#149));
#117=EDGE_LOOP('',(#150,#151,#152,#153));
#118=EDGE_LOOP('',(#154,#155,#156,#157));
#119=EDGE_LOOP('',(#158));
#120=EDGE_LOOP('',(#159,#160,#161,#162,#163,#164,#165,#166));
#121=EDGE_LOOP('',(#167,#168,#169,#170));
#122=EDGE_LOOP('',(#171,#172,#173,#174));
#123=EDGE_LOOP('',(#175,#176,#177,#178));
#124=EDGE_LOOP('',(#179,#180,#181,#182));
#125=EDGE_LOOP('',(#183));
#126=EDGE_LOOP('',(#184));
#127=EDGE_LOOP('',(#185));
#128=EDGE_LOOP('',(#186));
#129=EDGE_LOOP('',(#187));
#130=EDGE_LOOP('',(#188));
#131=EDGE_LOOP('',(#189));
#132=EDGE_LOOP('',(#190));
#133=ORIENTED_EDGE('',*,*,#212,.T.);
#134=ORIENTED_EDGE('',*,*,#213,.T.);
#135=ORIENTED_EDGE('',*,*,#214,.T.);
#136=ORIENTED_EDGE('',*,*,#215,.T.);
#137=ORIENTED_EDGE('',*,*,#216,.T.);
#138=ORIENTED_EDGE('',*,*,#217,.T.);
#139=ORIENTED_EDGE('',*,*,#218,.T.);
#140=ORIENTED_EDGE('',*,*,#219,.T.);
#141=ORIENTED_EDGE('',*,*,#220,.T.);
#142=ORIENTED_EDGE('',*,*,#221,.F.);
#143=ORIENTED_EDGE('',*,*,#222,.T.);
#144=ORIENTED_EDGE('',*,*,#213,.F.);
#145=ORIENTED_EDGE('',*,*,#223,.T.);
#146=ORIENTED_EDGE('',*,*,#219,.F.);
#147=ORIENTED_EDGE('',*,*,#224,.T.);
#148=ORIENTED_EDGE('',*,*,#225,.F.);
#149=ORIENTED_EDGE('',*,*,#226,.T.);
#150=ORIENTED_EDGE('',*,*,#217,.F.);
#151=ORIENTED_EDGE('',*,*,#227,.T.);
#152=ORIENTED_EDGE('',*,*,#228,.F.);
#153=ORIENTED_EDGE('',*,*,#229,.T.);
#154=ORIENTED_EDGE('',*,*,#215,.F.);
#155=ORIENTED_EDGE('',*,*,#230,.T.);
#156=ORIENTED_EDGE('',*,*,#231,.F.);
#157=ORIENTED_EDGE('',*,*,#232,.T.);
#158=ORIENTED_EDGE('',*,*,#233,.F.);
#159=ORIENTED_EDGE('',*,*,#231,.T.);
#160=ORIENTED_EDGE('',*,*,#234,.T.);
#161=ORIENTED_EDGE('',*,*,#221,.T.);
#162=ORIENTED_EDGE('',*,*,#235,.T.);
#163=ORIENTED_EDGE('',*,*,#225,.T.);
#164=ORIENTED_EDGE('',*,*,#236,.T.);
#165=ORIENTED_EDGE('',*,*,#228,.T.);
#166=ORIENTED_EDGE('',*,*,#237,.T.);
#167=ORIENTED_EDGE('',*,*,#214,.F.);
#168=ORIENTED_EDGE('',*,*,#222,.F.);
#169=ORIENTED_EDGE('',*,*,#234,.F.);
#170=ORIENTED_EDGE('',*,*,#230,.F.);
#171=ORIENTED_EDGE('',*,*,#216,.F.);
#172=ORIENTED_EDGE('',*,*,#232,.F.);
#173=ORIENTED_EDGE('',*,*,#237,.F.);
#174=ORIENTED_EDGE('',*,*,#227,.F.);
#175=ORIENTED_EDGE('',*,*,#218,.F.);
#176=ORIENTED_EDGE('',*,*,#229,.F.);
#177=ORIENTED_EDGE('',*,*,#236,.F.);
#178=ORIENTED_EDGE('',*,*,#224,.F.);
#179=ORIENTED_EDGE('',*,*,#220,.F.);
#180=ORIENTED_EDGE('',*,*,#226,.F.);
#181=ORIENTED_EDGE('',*,*,#235,.F.);
#182=ORIENTED_EDGE('',*,*,#223,.F.);
#183=ORIENTED_EDGE('',*,*,#238,.T.);
#184=ORIENTED_EDGE('',*,*,#233,.T.);
#185=ORIENTED_EDGE('',*,*,#239,.T.);
#186=ORIENTED_EDGE('',*,*,#240,.T.);
#187=ORIENTED_EDGE('',*,*,#240,.F.);
#188=ORIENTED_EDGE('',*,*,#212,.F.);
#189=ORIENTED_EDGE('',*,*,#239,.F.);
#190=ORIENTED_EDGE('',*,*,#238,.F.);
#191=VERTEX_POINT('',#455);
#192=VERTEX_POINT('',#457);
#193=VERTEX_POINT('',#458);
#194=VERTEX_POINT('',#460);
#195=VERTEX_POINT('',#462);
#196=VERTEX_POINT('',#464);
#197=VERTEX_POINT('',#466);
#198=VERTEX_POINT('',#468);
#199=VERTEX_POINT('',#470);
#200=VERTEX_POINT('',#474);
#201=VERTEX_POINT('',#475);
#202=VERTEX_POINT('',#480);
#203=VERTEX_POINT('',#482);
#204=VERTEX_POINT('',#486);
#205=VERTEX_POINT('',#488);
#206=VERTEX_POINT('',#492);
#207=VERTEX_POINT('',#494);
#208=VERTEX_POINT('',#498);
#209=VERTEX_POINT('',#509);
#210=VERTEX_POINT('',#512);
#211=VERTEX_POINT('',#514);
#212=EDGE_CURVE('',#191,#191,#241,.T.);
#213=EDGE_CURVE('',#192,#193,#69,.T.);
#214=EDGE_CURVE('',#193,#194,#242,.T.);
#215=EDGE_CURVE('',#194,#195,#70,.T.);
#216=EDGE_CURVE('',#195,#196,#243,.T.);
#217=EDGE_CURVE('',#196,#197,#71,.T.);
#218=EDGE_CURVE('',#197,#198,#244,.T.);
#219=EDGE_CURVE('',#198,#199,#72,.T.);
#220=EDGE_CURVE('',#199,#192,#245,.T.);
#221=EDGE_CURVE('',#200,#201,#73,.T.);
#222=EDGE_CURVE('',#200,#193,#74,.T.);
#223=EDGE_CURVE('',#192,#201,#75,.T.);
#224=EDGE_CURVE('',#198,#202,#76,.T.);
#225=EDGE_CURVE('',#203,#202,#77,.T.);
#226=EDGE_CURVE('',#203,#199,#78,.T.);
#227=EDGE_CURVE('',#196,#204,#79,.T.);
#228=EDGE_CURVE('',#205,#204,#80,.T.);
#229=EDGE_CURVE('',#205,#197,#81,.T.);
#230=EDGE_CURVE('',#194,#206,#82,.T.);
#231=EDGE_CURVE('',#207,#206,#83,.T.);
#232=EDGE_CURVE('',#207,#195,#84,.T.);
#233=EDGE_CURVE('',#208,#208,#246,.T.);
#234=EDGE_CURVE('',#206,#200,#247,.T.);
#235=EDGE_CURVE('',#201,#203,#248,.T.);
#236=EDGE_CURVE('',#202,#205,#249,.T.);
#237=EDGE_CURVE('',#204,#207,#250,.T.);
#238=EDGE_CURVE('',#209,#209,#251,.T.);
#239=EDGE_CURVE('',#210,#210,#252,.T.);
#240=EDGE_CURVE('',#211,#211,#253,.T.);
#241=CIRCLE('',#284,2.2);
#242=CIRCLE('',#285,0.0223031481096823);
#243=CIRCLE('',#286,0.0223031481096815);
#244=CIRCLE('',#287,0.0223031481096817);
#245=CIRCLE('',#288,0.0223031481096826);
#246=CIRCLE('',#294,3.07132534818238);
#247=CIRCLE('',#295,0.793750000000002);
#248=CIRCLE('',#296,0.793750000000002);
#249=CIRCLE('',#297,0.793750000000002);
#250=CIRCLE('',#298,0.793750000000002);
#251=CIRCLE('',#304,3.00996076009423);
#252=CIRCLE('',#306,2.92104776441283);
#253=CIRCLE('',#307,2.2);
#254=CURVE_STYLE('',#258,POSITIVE_LENGTH_MEASURE(0.18),#257);
#255=CURVE_STYLE('',#259,POSITIVE_LENGTH_MEASURE(0.18),#279);
#256=CURVE_STYLE('',#260,POSITIVE_LENGTH_MEASURE(0.18),#279);
#257=DRAUGHTING_PRE_DEFINED_COLOUR('blue');
#258=DRAUGHTING_PRE_DEFINED_CURVE_FONT('continuous');
#259=DRAUGHTING_PRE_DEFINED_CURVE_FONT('continuous');
#260=DRAUGHTING_PRE_DEFINED_CURVE_FONT('continuous');
#261=B_SPLINE_CURVE_WITH_KNOTS('CUTTING EDGE LINE',5,(#390,#391,#392,#393,#394,#395,
     #396,#397,#398,#399,#400,#401,#402,#403,#404,#405,#406,#407,#408,#409,#410,
     #411,#412,#413,#414,#415,#416,#417,#418,#419,#420,#421,#422,#423,#424,#425,
     #426,#427,#428,#429,#430,#431,#432,#433,#434,#435,#436,#437,#438,#439,#440,
     #441,#442,#443,#444,#445,#446,#447,#448,#449,#450,#451),.UNSPECIFIED.,.T.,.F.,
     (1,1,4,4,1,1,1,1,1,1,1,4,4,1,1,1,1,1,1,1,4,4,1,1,1,1,1,1,1,4,4,1,1,1,1,1,1,
     1,4,2),(-0.00744272902500009,-0.00372136451250005,0.0,0.2165077194,0.22115942505,
     0.2258111307,0.23046283635,0.235114542,0.23976624765,0.2444179533,0.24906965895,
     0.2537213646,0.4702290839,0.4739504484125,0.477671812925,0.4813931774375,0.48511454195,
     0.4888359064625,0.492557270975,0.4962786354875,0.5,0.7165077194,0.72115942505,
     0.7258111307,0.73046283635,0.735114542,0.73976624765,0.7444179533,0.74906965895,
     0.7537213646,0.9702290839,0.9739504484125,0.977671812925,0.9813931774375,0.98511454195,
     0.9888359064625,0.992557270975,0.9962786354875,1.0,1.2165077194),.UNSPECIFIED.);
#262=PRESENTATION_LAYER_ASSIGNMENT('1','Layer 1',(#261,#282,#283,#31));
#265=STYLED_ITEM('',(#271),#261);
#266=STYLED_ITEM('',(#272),#282);
#267=STYLED_ITEM('',(#273),#283);
#268=STYLED_ITEM('',(#274),#31);
#269=PRESENTATION_STYLE_ASSIGNMENT((#275));
#270=PRESENTATION_STYLE_ASSIGNMENT((#276));
#271=PRESENTATION_STYLE_ASSIGNMENT((#254));
#272=PRESENTATION_STYLE_ASSIGNMENT((#255));
#273=PRESENTATION_STYLE_ASSIGNMENT((#256));
#274=PRESENTATION_STYLE_ASSIGNMENT((#26));
#275=POINT_STYLE('',#277,POSITIVE_LENGTH_MEASURE(3.0),#279);
#276=POINT_STYLE('',#278,POSITIVE_LENGTH_MEASURE(3.0),#279);
#277=PRE_DEFINED_POINT_MARKER_SYMBOL('plus');
#278=PRE_DEFINED_POINT_MARKER_SYMBOL('plus');
#279=COLOUR_RGB('Medium Maroon',0.6,0.4,0.4);
#280=COLOUR_RGB('IsoInsertColor',0.8,0.8,0.8);
#281=AXIS2_PLACEMENT_3D('',#387,#311,#312);
#282=AXIS2_PLACEMENT_3D('PCS',#452,#313,#314);
#283=AXIS2_PLACEMENT_3D('MCS',#453,#315,#316);
#284=AXIS2_PLACEMENT_3D('',#454,#317,#318);
#285=AXIS2_PLACEMENT_3D('',#459,#320,#321);
#286=AXIS2_PLACEMENT_3D('',#463,#323,#324);
#287=AXIS2_PLACEMENT_3D('',#467,#326,#327);
#288=AXIS2_PLACEMENT_3D('',#471,#329,#330);
#289=AXIS2_PLACEMENT_3D('',#472,#331,#332);
#290=AXIS2_PLACEMENT_3D('',#478,#336,#337);
#291=AXIS2_PLACEMENT_3D('',#484,#341,#342);
#292=AXIS2_PLACEMENT_3D('',#490,#346,#347);
#293=AXIS2_PLACEMENT_3D('',#496,#351,#352);
#294=AXIS2_PLACEMENT_3D('',#497,#353,#354);
#295=AXIS2_PLACEMENT_3D('',#499,#355,#356);
#296=AXIS2_PLACEMENT_3D('',#500,#357,#358);
#297=AXIS2_PLACEMENT_3D('',#501,#359,#360);
#298=AXIS2_PLACEMENT_3D('',#502,#361,#362);
#299=AXIS2_PLACEMENT_3D('',#503,#363,#364);
#300=AXIS2_PLACEMENT_3D('',#504,#365,#366);
#301=AXIS2_PLACEMENT_3D('',#505,#367,#368);
#302=AXIS2_PLACEMENT_3D('',#506,#369,#370);
#303=AXIS2_PLACEMENT_3D('',#507,#371,#372);
#304=AXIS2_PLACEMENT_3D('',#508,#373,#374);
#305=AXIS2_PLACEMENT_3D('',#510,#375,#376);
#306=AXIS2_PLACEMENT_3D('',#511,#377,#378);
#307=AXIS2_PLACEMENT_3D('',#513,#379,#380);
#308=AXIS2_PLACEMENT_3D('',#515,#381,#382);
#309=AXIS2_PLACEMENT_3D('',#516,#383,#384);
#310=AXIS2_PLACEMENT_3D('',#517,#385,#386);
#311=DIRECTION('',(0.0,0.0,1.0));
#312=DIRECTION('',(1.0,0.0,0.0));
#313=DIRECTION('',(0.0,0.0,1.0));
#314=DIRECTION('',(1.0,0.0,0.0));
#315=DIRECTION('',(0.0,0.0,1.0));
#316=DIRECTION('',(1.0,0.0,0.0));
#317=DIRECTION('',(0.0,0.0,1.0));
#318=DIRECTION('',(-0.766044443118978,-0.642787609686539,0.0));
#319=DIRECTION('',(1.0,1.0547118733939E-15,0.0));
#320=DIRECTION('',(0.0,0.0,-1.0));
#321=DIRECTION('',(-0.766044443119,-0.64278760968654,0.0));
#322=DIRECTION('',(-0.173648177666932,-0.984807753012208,0.0));
#323=DIRECTION('',(0.0,0.0,-1.0));
#324=DIRECTION('',(-0.766044443118952,-0.642787609686541,0.0));
#325=DIRECTION('',(-1.0,-1.94289029309402E-15,0.0));
#326=DIRECTION('',(0.0,0.0,-1.0));
#327=DIRECTION('',(-0.766044443118979,-0.642787609686539,0.0));
#328=DIRECTION('',(0.173648177666931,0.984807753012208,0.0));
#329=DIRECTION('',(0.0,0.0,-1.0));
#330=DIRECTION('',(-0.766044443118973,-0.642787609686533,0.0));
#331=DIRECTION('',(0.0,0.0,1.0));
#332=DIRECTION('',(-0.766044443118978,-0.642787609686539,0.0));
#333=DIRECTION('',(-1.0,-1.0547118733939E-15,-1.54311163477182E-16));
#334=DIRECTION('',(3.19189119579733E-16,-0.190808995376545,-0.981627183447664));
#335=DIRECTION('',(-3.19189119579733E-16,0.190808995376545,0.981627183447664));
#336=DIRECTION('',(9.99200722162641E-16,-0.981627183447664,0.190808995376545));
#337=DIRECTION('',(1.0,1.0547118733939E-15,0.0));
#338=DIRECTION('',(-0.187910177991292,0.0331336343295953,0.981627183447664));
#339=DIRECTION('',(-0.173648177666931,-0.984807753012208,4.76730034311136E-16));
#340=DIRECTION('',(0.187910177991292,-0.0331336343295953,-0.981627183447664));
#341=DIRECTION('',(0.966714060826797,-0.170457771554009,0.190808995376545));
#342=DIRECTION('',(0.173648177666931,0.984807753012208,0.0));
#343=DIRECTION('',(2.22044604925031E-16,-0.190808995376544,0.981627183447664));
#344=DIRECTION('',(1.0,1.94289029309402E-15,1.54311163477181E-16));
#345=DIRECTION('',(-2.22044604925031E-16,0.190808995376544,-0.981627183447664));
#346=DIRECTION('',(-1.94289029309402E-15,0.981627183447664,0.190808995376544));
#347=DIRECTION('',(-1.0,-1.94289029309402E-15,0.0));
#348=DIRECTION('',(0.187910177991292,-0.0331336343295945,0.981627183447664));
#349=DIRECTION('',(0.173648177666932,0.984807753012208,-4.76730034311136E-16));
#350=DIRECTION('',(-0.187910177991292,0.0331336343295945,-0.981627183447664));
#351=DIRECTION('',(-0.966714060826797,0.17045777155401,0.190808995376545));
#352=DIRECTION('',(-0.173648177666932,-0.984807753012208,0.0));
#353=DIRECTION('',(0.0,0.0,1.0));
#354=DIRECTION('',(-0.766044443118978,-0.642787609686539,0.0));
#355=DIRECTION('',(-1.37745668311624E-16,5.15292423860314E-16,1.0));
#356=DIRECTION('',(-0.64278760968654,0.766044443118977,-4.83278106758207E-16));
#357=DIRECTION('',(-1.37745668311624E-16,5.15292423860314E-16,1.0));
#358=DIRECTION('',(-0.642787609686539,0.766044443118977,-4.83278106758207E-16));
#359=DIRECTION('',(-1.37745668311624E-16,5.15292423860314E-16,1.0));
#360=DIRECTION('',(-0.642787609686539,0.766044443118978,-4.83278106758207E-16));
#361=DIRECTION('',(-1.37745668311624E-16,5.15292423860314E-16,1.0));
#362=DIRECTION('',(-0.64278760968654,0.766044443118978,-4.83278106758207E-16));
#363=DIRECTION('',(-1.37745668311624E-16,5.15292423860314E-16,1.0));
#364=DIRECTION('',(-0.642787609686539,0.766044443118978,-4.83278106758207E-16));
#365=DIRECTION('',(-1.37745668311624E-16,5.15292423860314E-16,1.0));
#366=DIRECTION('',(-0.642787609686539,0.766044443118978,-5.46617179782557E-16));
#367=DIRECTION('',(-1.37745668311624E-16,5.15292423860314E-16,1.0));
#368=DIRECTION('',(-0.642787609686539,0.766044443118978,-5.68837390342824E-16));
#369=DIRECTION('',(-1.37745668311624E-16,5.15292423860314E-16,1.0));
#370=DIRECTION('',(-0.642787609686539,0.766044443118978,-5.6439334823077E-16));
#371=DIRECTION('',(-1.37745668311624E-16,5.15292423860314E-16,1.0));
#372=DIRECTION('',(-0.642787609686539,0.766044443118978,-5.42173137670504E-16));
#373=DIRECTION('',(0.0,0.0,-1.0));
#374=DIRECTION('',(0.766044443118978,0.642787609686539,0.0));
#375=DIRECTION('',(0.0,0.0,1.0));
#376=DIRECTION('',(-0.766044443118978,-0.642787609686539,4.75743674970704E-16));
#377=DIRECTION('',(0.0,0.0,1.0));
#378=DIRECTION('',(0.766044443118978,0.642787609686539,0.0));
#379=DIRECTION('',(0.0,0.0,-1.0));
#380=DIRECTION('',(-0.766044443118978,-0.642787609686539,0.0));
#381=DIRECTION('',(0.0,0.0,1.0));
#382=DIRECTION('',(-0.766044443118978,-0.642787609686539,0.0));
#383=DIRECTION('',(0.0,0.0,1.0));
#384=DIRECTION('',(-0.766044443118978,-0.642787609686539,0.0));
#385=DIRECTION('',(0.0,0.0,-1.0));
#386=DIRECTION('',(0.766044443118978,0.642787609686539,0.0));
#387=CARTESIAN_POINT('',(0.0,0.0,0.0));
#390=CARTESIAN_POINT('',(9.0314137792242,-2.75335310107039E-14,4.12527340666499E-16));
#391=CARTESIAN_POINT('',(7.39391339959614,-3.10862446895044E-14,0.0));
#392=CARTESIAN_POINT('',(5.78192365322752,-3.46389583683049E-14,2.04506680719563E-17));
#393=CARTESIAN_POINT('',(4.1699339068589,-3.73034936274053E-14,6.13520042158688E-17));
#394=CARTESIAN_POINT('',(2.55794416049027,-4.08562073062058E-14,1.22704008431738E-16));
#395=CARTESIAN_POINT('',(0.915552025285364,-4.52970994047064E-14,2.06891601374272E-16));
#396=CARTESIAN_POINT('',(0.854747247612796,0.00291119762815395,2.10551517445465E-16));
#397=CARTESIAN_POINT('',(0.755439015779534,0.0167828484630386,2.13053053608715E-16));
#398=CARTESIAN_POINT('',(0.625135123126566,0.0572610639371032,2.07842012358266E-16));
#399=CARTESIAN_POINT('',(0.465948842030706,0.147921859234568,1.85764009683819E-16));
#400=CARTESIAN_POINT('',(0.329588135876686,0.276557283254499,1.4741721739889E-16));
#401=CARTESIAN_POINT('',(0.226585761118894,0.433183670845685,9.57817707392106E-17));
#402=CARTESIAN_POINT('',(0.164944714637478,0.605694636530988,3.48455622002127E-17));
#403=CARTESIAN_POINT('',(0.147708487712833,0.741047888616738,-1.54072142914173E-17));
#404=CARTESIAN_POINT('',(0.151292271908581,0.841256192151926,-5.38938325619501E-17));
#405=CARTESIAN_POINT('',(0.158983940750064,0.901642732787019,-7.752022145645E-17));
#406=CARTESIAN_POINT('',(0.444182342042894,2.51908324102309,-5.36096985809793E-17));
#407=CARTESIAN_POINT('',(0.724101423917584,4.10658324102309,-3.57397990539862E-17));
#408=CARTESIAN_POINT('',(1.00402050579227,5.6940832410231,-3.57397990539863E-17));
#409=CARTESIAN_POINT('',(1.28393958766696,7.2815832410231,-5.36096985809795E-17));
#410=CARTESIAN_POINT('',(1.56828854451828,8.89420631044125,-1.05107313188995E-16));
#411=CARTESIAN_POINT('',(1.57916689418895,8.9440965156841,-1.35473912114086E-16));
#412=CARTESIAN_POINT('',(1.60266107868262,9.0221747381488,-1.80120034943607E-16));
#413=CARTESIAN_POINT('',(1.64777984171139,9.12219857394917,-2.30633643585187E-16));
#414=CARTESIAN_POINT('',(1.72852911330343,9.24109118025149,-2.78613761694151E-16));
#415=CARTESIAN_POINT('',(1.83111585350187,9.34432853189194,-3.05833449205338E-16));
#416=CARTESIAN_POINT('',(1.950598798286,9.42742977101604,-3.11328625156214E-16));
#417=CARTESIAN_POINT('',(2.0817071226083,9.48630679530753,-2.94558945897905E-16));
#418=CARTESIAN_POINT('',(2.18804616256919,9.51337114613458,-2.66357798974984E-16));
#419=CARTESIAN_POINT('',(2.26901792371679,9.52295026012818,-2.37101391082803E-16));
#420=CARTESIAN_POINT('',(2.32003919023566,9.52499999999998,-2.15853720264232E-16));
#421=CARTESIAN_POINT('',(3.95753956986372,9.52499999999998,-1.22704008431738E-16));
#422=CARTESIAN_POINT('',(5.56952931623234,9.52499999999998,-8.18026722878251E-17));
#423=CARTESIAN_POINT('',(7.18151906260097,9.52499999999998,-8.1802672287825E-17));
#424=CARTESIAN_POINT('',(8.79350880896959,9.52499999999999,-1.22704008431738E-16));
#425=CARTESIAN_POINT('',(10.4359009441745,9.52499999999999,-2.06891601374272E-16));
#426=CARTESIAN_POINT('',(10.4967057218471,9.52208880237179,-2.10551517445465E-16));
#427=CARTESIAN_POINT('',(10.5960139536803,9.5082171515369,-2.13053053608715E-16));
#428=CARTESIAN_POINT('',(10.7263178463333,9.46773893606284,-2.07842012358266E-16));
#429=CARTESIAN_POINT('',(10.8855041274292,9.37707814076538,-1.85764009683818E-16));
#430=CARTESIAN_POINT('',(11.0218648335832,9.24844271674544,-1.4741721739889E-16));
#431=CARTESIAN_POINT('',(11.124867208341,9.09181632915426,-9.57817707392097E-17));
#432=CARTESIAN_POINT('',(11.1865082548224,8.91930536346896,-3.48455622002122E-17));
#433=CARTESIAN_POINT('',(11.203744481747,8.7839521113832,1.5407214291418E-17));
#434=CARTESIAN_POINT('',(11.2001606975513,8.68374380784802,5.38938325619507E-17));
#435=CARTESIAN_POINT('',(11.1924690287098,8.62335726721292,7.75202214564506E-17));
#436=CARTESIAN_POINT('',(10.907270627417,7.00591675897686,5.36096985809796E-17));
#437=CARTESIAN_POINT('',(10.6273515455423,5.41841675897686,3.57397990539864E-17));
#438=CARTESIAN_POINT('',(10.3474324636676,3.83091675897685,3.57397990539863E-17));
#439=CARTESIAN_POINT('',(10.0675133817929,2.24341675897685,5.36096985809794E-17));
#440=CARTESIAN_POINT('',(9.78316442494158,0.630793689558706,1.05107313188995E-16));
#441=CARTESIAN_POINT('',(9.77228607527091,0.58090348431585,1.36112995491335E-16));
#442=CARTESIAN_POINT('',(9.74879189077724,0.502825261851158,1.83745766825033E-16));
#443=CARTESIAN_POINT('',(9.70367312774848,0.40280142605078,2.42697703162503E-16));
#444=CARTESIAN_POINT('',(9.62292385615643,0.283908819748462,3.09034944555332E-16));
#445=CARTESIAN_POINT('',(9.52033711595799,0.180671468108018,3.62164563996712E-16));
#446=CARTESIAN_POINT('',(9.40085417117387,0.0975702289839075,3.99847861109764E-16));
#447=CARTESIAN_POINT('',(9.26974584685156,0.0386932046924207,4.20147416543556E-16));
#448=CARTESIAN_POINT('',(9.16340680689067,0.0116288538653677,4.23132456545191E-16));
#449=CARTESIAN_POINT('',(9.08243504574307,0.0020497398717767,4.18219866514312E-16));
#450=CARTESIAN_POINT('',(9.0314137792242,-2.75335310107039E-14,4.12527340666499E-16));
#451=CARTESIAN_POINT('',(7.39391339959614,-3.10862446895044E-14,0.0));
#452=CARTESIAN_POINT('',(0.0,0.0,0.0));
#453=CARTESIAN_POINT('',(5.67572648472992,4.7625,0.0));
#454=CARTESIAN_POINT('',(5.67572648472992,4.7625,-3.96875000000001));
#455=CARTESIAN_POINT('',(3.99042870986817,3.34836725868961,-3.96875000000001));
#456=CARTESIAN_POINT('',(5.67572648472993,8.75355314810966,-3.96875));
#457=CARTESIAN_POINT('',(2.3455498234951,8.75355314810966,-3.96875));
#458=CARTESIAN_POINT('',(10.4054985553382,8.75355314810967,-3.96875));
#459=CARTESIAN_POINT('',(10.4054985553382,8.73124999999999,-3.96875));
#460=CARTESIAN_POINT('',(10.4274628685132,8.7273770989745,-3.96875));
#461=CARTESIAN_POINT('',(9.60614656767213,4.06946089385886,-3.96875));
#462=CARTESIAN_POINT('',(9.02786745913976,0.789877098974491,-3.96875));
#463=CARTESIAN_POINT('',(9.00590314596477,0.793749999999975,-3.96875));
#464=CARTESIAN_POINT('',(9.00590314596477,0.77144685189029,-3.96875));
#465=CARTESIAN_POINT('',(5.67572648472994,0.771446851890283,-3.96875));
#466=CARTESIAN_POINT('',(0.945954414121649,0.771446851890275,-3.96875));
#467=CARTESIAN_POINT('',(0.945954414121649,0.793749999999959,-3.96875));
#468=CARTESIAN_POINT('',(0.923990100946654,0.797622901025437,-3.96875));
#469=CARTESIAN_POINT('',(1.74530640178773,5.45553910614109,-3.96875));
#470=CARTESIAN_POINT('',(2.3235855103201,8.73512290102546,-3.96875));
#471=CARTESIAN_POINT('',(2.3455498234951,8.73124999999998,-3.96875));
#472=CARTESIAN_POINT('',(5.62950517219276,4.23418798019793,-3.96875));
#473=CARTESIAN_POINT('',(5.67572648472992,9.52499999999998,-5.38749756651154E-15));
#474=CARTESIAN_POINT('',(10.4054985553382,9.52499999999999,-4.73599195168394E-15));
#475=CARTESIAN_POINT('',(2.34554982349509,9.52499999999998,-5.8462149763091E-15));
#476=CARTESIAN_POINT('',(10.4054985553382,9.52499999999999,-4.1992340789943E-15));
#477=CARTESIAN_POINT('',(2.3455498234951,9.52499999999998,-5.16406247839426E-15));
#478=CARTESIAN_POINT('',(5.67572648472992,9.52499999999998,-5.38749756651153E-15));
#479=CARTESIAN_POINT('',(0.164263260168206,0.931583241023084,-1.76395157899291E-15));
#480=CARTESIAN_POINT('',(0.164263260168206,0.931583241023084,-1.71855520077868E-15));
#481=CARTESIAN_POINT('',(0.985579561009286,5.58949944613875,-4.00561136949638E-15));
#482=CARTESIAN_POINT('',(1.56385866954165,8.86908324102311,-5.6159006101399E-15));
#483=CARTESIAN_POINT('',(1.56385866954165,8.86908324102311,-5.34451910982664E-15));
#484=CARTESIAN_POINT('',(0.985579561009282,5.58949944613873,-4.00561136949637E-15));
#485=CARTESIAN_POINT('',(9.00590314596477,-2.77555756156289E-14,-2.09227063778404E-17));
#486=CARTESIAN_POINT('',(9.00590314596477,-2.77555756156289E-14,-2.06198194444674E-17));
#487=CARTESIAN_POINT('',(5.67572648472993,-3.38271077815477E-14,-4.79337229242031E-16));
#488=CARTESIAN_POINT('',(0.94595441412165,-4.25007251614318E-14,-1.13084284406962E-15));
#489=CARTESIAN_POINT('',(0.94595441412165,-4.25007251614318E-14,-1.02578730166241E-15));
#490=CARTESIAN_POINT('',(5.67572648472994,-3.38271077815477E-14,-4.79337229242029E-16));
#491=CARTESIAN_POINT('',(11.1871897092917,8.59341675897686,-3.56716307761113E-15));
#492=CARTESIAN_POINT('',(11.1871897092917,8.59341675897686,-4.14827959497488E-15));
#493=CARTESIAN_POINT('',(10.3658734084506,3.93550055386123,-1.8612234262572E-15));
#494=CARTESIAN_POINT('',(9.78759429991821,0.655916758976848,-2.50934185613662E-16));
#495=CARTESIAN_POINT('',(9.78759429991821,0.655916758976848,-7.98458589052487E-17));
#496=CARTESIAN_POINT('',(10.3658734084506,3.93550055386121,-1.86122342625719E-15));
#497=CARTESIAN_POINT('',(5.67572648472992,4.7625,0.0));
#498=CARTESIAN_POINT('',(3.32295476874435,2.78829012087217,0.0));
#499=CARTESIAN_POINT('',(10.4054985553382,8.73124999999999,-4.32697859024482E-15));
#500=CARTESIAN_POINT('',(2.3455498234951,8.73124999999998,-5.43720161486997E-15));
#501=CARTESIAN_POINT('',(0.945954414121648,0.793749999999958,-1.53985620550874E-15));
#502=CARTESIAN_POINT('',(9.00590314596477,0.793749999999974,-4.29633180883593E-16));
#503=CARTESIAN_POINT('',(5.67572648472992,4.7625,-2.93341739787679E-15));
#504=CARTESIAN_POINT('',(10.4054985553382,8.73124999999999,-4.33680868994202E-15));
#505=CARTESIAN_POINT('',(9.00590314596477,0.793749999999974,0.0));
#506=CARTESIAN_POINT('',(0.945954414121648,0.793749999999958,-8.67361737988404E-16));
#507=CARTESIAN_POINT('',(2.3455498234951,8.73124999999998,-5.20417042793042E-15));
#508=CARTESIAN_POINT('',(5.67572648472992,4.7625,-0.877554494186125));
#509=CARTESIAN_POINT('',(7.98149019900628,6.69726548223124,-0.877554494186125));
#510=CARTESIAN_POINT('',(5.67572648472992,4.7625,-1.02000000000516));
#511=CARTESIAN_POINT('',(5.67572648472992,4.7625,-1.12904556205544));
#512=CARTESIAN_POINT('',(7.91337889274349,6.64011331026713,-1.12904556205544));
#513=CARTESIAN_POINT('',(5.67572648472992,4.7625,-3.42000000000002));
#514=CARTESIAN_POINT('',(3.99042870986817,3.34836725868961,-3.42000000000002));
#515=CARTESIAN_POINT('',(5.67572648472992,4.7625,-3.42000000000001));
#516=CARTESIAN_POINT('',(5.67572648472992,4.7625,-33.3676978394524));
#517=CARTESIAN_POINT('',(5.67572648472992,4.7625,-0.842676257312365));
#518=MECHANICAL_DESIGN_GEOMETRIC_PRESENTATION_REPRESENTATION('',(#265,#266,#267,
     #268),#519);
#519=(GEOMETRIC_REPRESENTATION_CONTEXT(3)GLOBAL_UNCERTAINTY_ASSIGNED_CONTEXT((#520))
     GLOBAL_UNIT_ASSIGNED_CONTEXT((#526,#522,#521))REPRESENTATION_CONTEXT('CPMT09T308',
     'TOP_LEVEL_ASSEMBLY_PART'));
#520=UNCERTAINTY_MEASURE_WITH_UNIT(LENGTH_MEASURE(2.0E-5),#526,'DISTANCE_ACCURACY_VALUE',
     'Maximum Tolerance applied to model');
#521=(NAMED_UNIT(*)SI_UNIT($,.STERADIAN.)SOLID_ANGLE_UNIT());
#522=(CONVERSION_BASED_UNIT('DEGREE',#524)NAMED_UNIT(#523)PLANE_ANGLE_UNIT());
#523=DIMENSIONAL_EXPONENTS(0.0,0.0,0.0,0.0,0.0,0.0,0.0);
#524=PLANE_ANGLE_MEASURE_WITH_UNIT(PLANE_ANGLE_MEASURE(0.0174532925),#525);
#525=(NAMED_UNIT(*)PLANE_ANGLE_UNIT()SI_UNIT($,.RADIAN.));
#526=(LENGTH_UNIT()NAMED_UNIT(*)SI_UNIT(.MILLI.,.METRE.));
#527=CONSTRUCTIVE_GEOMETRY_REPRESENTATION('supplemental geometry',(#282,#283),#519);
#528=CONSTRUCTIVE_GEOMETRY_REPRESENTATION_RELATIONSHIP('supplemental geometry','contains PCS and MCS coordinate systems',
     #24,#527);
ENDSEC;
END-ISO-10303-21;
