ISO-10303-21;
HEADER;
FILE_DESCRIPTION(
/* description */ (''),
/* implementation_level */ '2;1');
FILE_NAME(
/* name */ 'CPMT09T302.stp',
/* time_stamp */ '2017-03-21T10:54:00',
/* author */ ('Sandvik Coromant R&D'),
/* organization */ ('Sandvik Machining Solutions'),
/* preprocessor_version */ 'ST-DEVELOPER v15',
/* originating_system */ 'SIEMENS PLM Software NX v8.5.3.3(64 bits)',
/* authorization */ '');
FILE_SCHEMA(('AUTOMOTIVE_DESIGN'));
ENDSEC;
DATA;
#10=GEOMETRICALLY_BOUNDED_WIREFRAME_SHAPE_REPRESENTATION('IsoTurningInsert-None',
     (#25),#499);
#11=SHAPE_REPRESENTATION_RELATIONSHIP('None','relationship between IsoTurningInsert-None and IsoTurningInsert-None',
     #24,#13);
#12=SHAPE_REPRESENTATION_RELATIONSHIP('None','relationship between IsoTurningInsert-None and IsoTurningInsert-None',
     #24,#10);
#13=ADVANCED_BREP_SHAPE_REPRESENTATION('IsoTurningInsert-None',(#31),#499);
#14=SHAPE_DEFINITION_REPRESENTATION(#15,#24);
#15=PRODUCT_DEFINITION_SHAPE('','',#16);
#16=PRODUCT_DEFINITION(' ','',#18,#17);
#17=PRODUCT_DEFINITION_CONTEXT('part definition',#23,'design');
#18=PRODUCT_DEFINITION_FORMATION_WITH_SPECIFIED_SOURCE(' ',' ',#20,.NOT_KNOWN.);
#19=PRODUCT_RELATED_PRODUCT_CATEGORY('part','',(#20));
#20=PRODUCT('IsoTurningInsert','IsoTurningInsert',' ',(#21));
#21=PRODUCT_CONTEXT(' ',#23,'mechanical');
#22=APPLICATION_PROTOCOL_DEFINITION('international standard','automotive_design',
     2010,#23);
#23=APPLICATION_CONTEXT('core data for automotive mechanical design processes');
#24=SHAPE_REPRESENTATION('IsoTurningInsert-None',(#285),#499);
#25=GEOMETRIC_CURVE_SET('geometric curve set',(#265));
#26=SURFACE_STYLE_USAGE(.BOTH.,#27);
#27=SURFACE_SIDE_STYLE('',(#28));
#28=SURFACE_STYLE_FILL_AREA(#29);
#29=FILL_AREA_STYLE('',(#30));
#30=FILL_AREA_STYLE_COLOUR('',#284);
#31=MANIFOLD_SOLID_BREP('CUT',#32);
#32=CLOSED_SHELL('',(#49,#50,#51,#52,#53,#54,#55,#56,#57,#58,#59,#60,#61,#62));
#33=CYLINDRICAL_SURFACE('',#309,2.2);
#34=TOROIDAL_SURFACE('',#308,6.19999999999999,4.0);
#35=TOROIDAL_SURFACE('',#310,2.51117873496443,0.5);
#36=CONICAL_SURFACE('',#300,0.198437500000002,11.0);
#37=CONICAL_SURFACE('',#301,0.198437500000002,11.0);
#38=CONICAL_SURFACE('',#302,0.198437500000002,11.0);
#39=CONICAL_SURFACE('',#303,0.198437500000002,11.0);
#40=CONICAL_SURFACE('',#305,2.99999999999613,4.00000000019636);
#41=FACE_OUTER_BOUND('',#123,.T.);
#42=FACE_OUTER_BOUND('',#124,.T.);
#43=FACE_OUTER_BOUND('',#125,.T.);
#44=FACE_OUTER_BOUND('',#126,.T.);
#45=FACE_OUTER_BOUND('',#129,.T.);
#46=FACE_OUTER_BOUND('',#130,.T.);
#47=FACE_OUTER_BOUND('',#131,.T.);
#48=FACE_OUTER_BOUND('',#132,.T.);
#49=ADVANCED_FACE('',(#109,#110),#63,.F.);
#50=ADVANCED_FACE('',(#41),#64,.F.);
#51=ADVANCED_FACE('',(#42),#65,.F.);
#52=ADVANCED_FACE('',(#43),#66,.F.);
#53=ADVANCED_FACE('',(#44),#67,.F.);
#54=ADVANCED_FACE('',(#111,#112),#68,.T.);
#55=ADVANCED_FACE('',(#45),#36,.T.);
#56=ADVANCED_FACE('',(#46),#37,.T.);
#57=ADVANCED_FACE('',(#47),#38,.T.);
#58=ADVANCED_FACE('',(#48),#39,.T.);
#59=ADVANCED_FACE('',(#113,#114),#40,.F.);
#60=ADVANCED_FACE('',(#115,#116),#34,.T.);
#61=ADVANCED_FACE('',(#117,#118),#33,.F.);
#62=ADVANCED_FACE('',(#119,#120),#35,.F.);
#63=PLANE('',#289);
#64=PLANE('',#290);
#65=PLANE('',#291);
#66=PLANE('',#292);
#67=PLANE('',#293);
#68=PLANE('',#299);
#69=LINE('',#436,#89);
#70=LINE('',#439,#90);
#71=LINE('',#441,#91);
#72=LINE('',#443,#92);
#73=LINE('',#445,#93);
#74=LINE('',#448,#94);
#75=LINE('',#450,#95);
#76=LINE('',#451,#96);
#77=LINE('',#453,#97);
#78=LINE('',#455,#98);
#79=LINE('',#457,#99);
#80=LINE('',#459,#100);
#81=LINE('',#461,#101);
#82=LINE('',#463,#102);
#83=LINE('',#465,#103);
#84=LINE('',#467,#104);
#85=LINE('',#469,#105);
#86=LINE('',#471,#106);
#87=LINE('',#473,#107);
#88=LINE('',#475,#108);
#89=VECTOR('',#319,1.0);
#90=VECTOR('',#320,1.0);
#91=VECTOR('',#321,1.0);
#92=VECTOR('',#322,1.0);
#93=VECTOR('',#325,1.0);
#94=VECTOR('',#326,1.0);
#95=VECTOR('',#327,1.0);
#96=VECTOR('',#328,1.0);
#97=VECTOR('',#329,1.0);
#98=VECTOR('',#332,1.0);
#99=VECTOR('',#333,1.0);
#100=VECTOR('',#334,1.0);
#101=VECTOR('',#335,1.0);
#102=VECTOR('',#338,1.0);
#103=VECTOR('',#339,1.0);
#104=VECTOR('',#340,1.0);
#105=VECTOR('',#341,1.0);
#106=VECTOR('',#344,1.0);
#107=VECTOR('',#345,1.0);
#108=VECTOR('',#346,1.0);
#109=FACE_BOUND('',#121,.T.);
#110=FACE_BOUND('',#122,.T.);
#111=FACE_BOUND('',#127,.T.);
#112=FACE_BOUND('',#128,.T.);
#113=FACE_BOUND('',#133,.T.);
#114=FACE_BOUND('',#134,.T.);
#115=FACE_BOUND('',#135,.T.);
#116=FACE_BOUND('',#136,.T.);
#117=FACE_BOUND('',#137,.T.);
#118=FACE_BOUND('',#138,.T.);
#119=FACE_BOUND('',#139,.T.);
#120=FACE_BOUND('',#140,.T.);
#121=EDGE_LOOP('',(#141));
#122=EDGE_LOOP('',(#142,#143,#144,#145));
#123=EDGE_LOOP('',(#146,#147,#148,#149,#150,#151));
#124=EDGE_LOOP('',(#152,#153,#154,#155,#156,#157));
#125=EDGE_LOOP('',(#158,#159,#160,#161,#162,#163));
#126=EDGE_LOOP('',(#164,#165,#166,#167,#168,#169));
#127=EDGE_LOOP('',(#170));
#128=EDGE_LOOP('',(#171,#172,#173,#174,#175,#176,#177,#178));
#129=EDGE_LOOP('',(#179,#180,#181));
#130=EDGE_LOOP('',(#182,#183,#184));
#131=EDGE_LOOP('',(#185,#186,#187));
#132=EDGE_LOOP('',(#188,#189,#190));
#133=EDGE_LOOP('',(#191));
#134=EDGE_LOOP('',(#192));
#135=EDGE_LOOP('',(#193));
#136=EDGE_LOOP('',(#194));
#137=EDGE_LOOP('',(#195));
#138=EDGE_LOOP('',(#196));
#139=EDGE_LOOP('',(#197));
#140=EDGE_LOOP('',(#198));
#141=ORIENTED_EDGE('',*,*,#220,.T.);
#142=ORIENTED_EDGE('',*,*,#221,.T.);
#143=ORIENTED_EDGE('',*,*,#222,.T.);
#144=ORIENTED_EDGE('',*,*,#223,.T.);
#145=ORIENTED_EDGE('',*,*,#224,.T.);
#146=ORIENTED_EDGE('',*,*,#225,.F.);
#147=ORIENTED_EDGE('',*,*,#226,.T.);
#148=ORIENTED_EDGE('',*,*,#227,.F.);
#149=ORIENTED_EDGE('',*,*,#221,.F.);
#150=ORIENTED_EDGE('',*,*,#228,.T.);
#151=ORIENTED_EDGE('',*,*,#229,.T.);
#152=ORIENTED_EDGE('',*,*,#224,.F.);
#153=ORIENTED_EDGE('',*,*,#230,.T.);
#154=ORIENTED_EDGE('',*,*,#231,.T.);
#155=ORIENTED_EDGE('',*,*,#232,.F.);
#156=ORIENTED_EDGE('',*,*,#233,.T.);
#157=ORIENTED_EDGE('',*,*,#228,.F.);
#158=ORIENTED_EDGE('',*,*,#223,.F.);
#159=ORIENTED_EDGE('',*,*,#234,.T.);
#160=ORIENTED_EDGE('',*,*,#235,.T.);
#161=ORIENTED_EDGE('',*,*,#236,.F.);
#162=ORIENTED_EDGE('',*,*,#237,.T.);
#163=ORIENTED_EDGE('',*,*,#230,.F.);
#164=ORIENTED_EDGE('',*,*,#222,.F.);
#165=ORIENTED_EDGE('',*,*,#227,.T.);
#166=ORIENTED_EDGE('',*,*,#238,.T.);
#167=ORIENTED_EDGE('',*,*,#239,.F.);
#168=ORIENTED_EDGE('',*,*,#240,.T.);
#169=ORIENTED_EDGE('',*,*,#234,.F.);
#170=ORIENTED_EDGE('',*,*,#241,.F.);
#171=ORIENTED_EDGE('',*,*,#239,.T.);
#172=ORIENTED_EDGE('',*,*,#242,.T.);
#173=ORIENTED_EDGE('',*,*,#225,.T.);
#174=ORIENTED_EDGE('',*,*,#243,.T.);
#175=ORIENTED_EDGE('',*,*,#232,.T.);
#176=ORIENTED_EDGE('',*,*,#244,.T.);
#177=ORIENTED_EDGE('',*,*,#236,.T.);
#178=ORIENTED_EDGE('',*,*,#245,.T.);
#179=ORIENTED_EDGE('',*,*,#238,.F.);
#180=ORIENTED_EDGE('',*,*,#226,.F.);
#181=ORIENTED_EDGE('',*,*,#242,.F.);
#182=ORIENTED_EDGE('',*,*,#235,.F.);
#183=ORIENTED_EDGE('',*,*,#240,.F.);
#184=ORIENTED_EDGE('',*,*,#245,.F.);
#185=ORIENTED_EDGE('',*,*,#231,.F.);
#186=ORIENTED_EDGE('',*,*,#237,.F.);
#187=ORIENTED_EDGE('',*,*,#244,.F.);
#188=ORIENTED_EDGE('',*,*,#229,.F.);
#189=ORIENTED_EDGE('',*,*,#233,.F.);
#190=ORIENTED_EDGE('',*,*,#243,.F.);
#191=ORIENTED_EDGE('',*,*,#246,.T.);
#192=ORIENTED_EDGE('',*,*,#241,.T.);
#193=ORIENTED_EDGE('',*,*,#247,.T.);
#194=ORIENTED_EDGE('',*,*,#248,.T.);
#195=ORIENTED_EDGE('',*,*,#248,.F.);
#196=ORIENTED_EDGE('',*,*,#220,.F.);
#197=ORIENTED_EDGE('',*,*,#247,.F.);
#198=ORIENTED_EDGE('',*,*,#246,.F.);
#199=VERTEX_POINT('',#435);
#200=VERTEX_POINT('',#437);
#201=VERTEX_POINT('',#438);
#202=VERTEX_POINT('',#440);
#203=VERTEX_POINT('',#442);
#204=VERTEX_POINT('',#446);
#205=VERTEX_POINT('',#447);
#206=VERTEX_POINT('',#449);
#207=VERTEX_POINT('',#452);
#208=VERTEX_POINT('',#456);
#209=VERTEX_POINT('',#458);
#210=VERTEX_POINT('',#460);
#211=VERTEX_POINT('',#464);
#212=VERTEX_POINT('',#466);
#213=VERTEX_POINT('',#468);
#214=VERTEX_POINT('',#472);
#215=VERTEX_POINT('',#474);
#216=VERTEX_POINT('',#478);
#217=VERTEX_POINT('',#489);
#218=VERTEX_POINT('',#492);
#219=VERTEX_POINT('',#494);
#220=EDGE_CURVE('',#199,#199,#249,.T.);
#221=EDGE_CURVE('',#200,#201,#69,.T.);
#222=EDGE_CURVE('',#201,#202,#70,.T.);
#223=EDGE_CURVE('',#202,#203,#71,.T.);
#224=EDGE_CURVE('',#203,#200,#72,.T.);
#225=EDGE_CURVE('',#204,#205,#73,.T.);
#226=EDGE_CURVE('',#204,#206,#74,.T.);
#227=EDGE_CURVE('INSERT_CORNER_EDGE3',#201,#206,#75,.T.);
#228=EDGE_CURVE('INSERT_CORNER_EDGE4',#200,#207,#76,.T.);
#229=EDGE_CURVE('',#207,#205,#77,.T.);
#230=EDGE_CURVE('INSERT_CORNER_EDGE1',#203,#208,#78,.T.);
#231=EDGE_CURVE('',#208,#209,#79,.T.);
#232=EDGE_CURVE('',#210,#209,#80,.T.);
#233=EDGE_CURVE('',#210,#207,#81,.T.);
#234=EDGE_CURVE('INSERT_CORNER_EDGE2',#202,#211,#82,.T.);
#235=EDGE_CURVE('',#211,#212,#83,.T.);
#236=EDGE_CURVE('',#213,#212,#84,.T.);
#237=EDGE_CURVE('',#213,#208,#85,.T.);
#238=EDGE_CURVE('',#206,#214,#86,.T.);
#239=EDGE_CURVE('',#215,#214,#87,.T.);
#240=EDGE_CURVE('',#215,#211,#88,.T.);
#241=EDGE_CURVE('',#216,#216,#250,.T.);
#242=EDGE_CURVE('',#214,#204,#251,.T.);
#243=EDGE_CURVE('',#205,#210,#252,.T.);
#244=EDGE_CURVE('',#209,#213,#253,.T.);
#245=EDGE_CURVE('',#212,#215,#254,.T.);
#246=EDGE_CURVE('',#217,#217,#255,.T.);
#247=EDGE_CURVE('',#218,#218,#256,.T.);
#248=EDGE_CURVE('',#219,#219,#257,.T.);
#249=CIRCLE('',#288,2.2);
#250=CIRCLE('',#294,3.07132534818238);
#251=CIRCLE('',#295,0.198437500000002);
#252=CIRCLE('',#296,0.198437500000002);
#253=CIRCLE('',#297,0.198437500000002);
#254=CIRCLE('',#298,0.198437500000002);
#255=CIRCLE('',#304,3.00996076009422);
#256=CIRCLE('',#306,2.92104776441283);
#257=CIRCLE('',#307,2.2);
#258=CURVE_STYLE('',#262,POSITIVE_LENGTH_MEASURE(0.18),#261);
#259=CURVE_STYLE('',#263,POSITIVE_LENGTH_MEASURE(0.18),#283);
#260=CURVE_STYLE('',#264,POSITIVE_LENGTH_MEASURE(0.18),#283);
#261=DRAUGHTING_PRE_DEFINED_COLOUR('blue');
#262=DRAUGHTING_PRE_DEFINED_CURVE_FONT('continuous');
#263=DRAUGHTING_PRE_DEFINED_CURVE_FONT('continuous');
#264=DRAUGHTING_PRE_DEFINED_CURVE_FONT('continuous');
#265=B_SPLINE_CURVE_WITH_KNOTS('CUTTING EDGE LINE',5,(#386,#387,#388,#389,#390,#391,
     #392,#393,#394,#395,#396,#397,#398,#399,#400,#401,#402,#403,#404,#405,#406,
     #407,#408,#409,#410,#411,#412,#413,#414,#415,#416,#417,#418,#419,#420,#421,
     #422,#423,#424,#425,#426,#427,#428,#429,#430,#431),.UNSPECIFIED.,.T.,.F.,(2,
     4,1,1,1,4,4,1,1,1,4,4,1,1,1,4,4,1,1,1,4,4,1,1),(-0.2418662871,0.0,0.00180749174999995,
     0.0036149835,0.00542247524999995,0.007229967,0.2490962541,0.2513556188,0.2536149835,
     0.2558743482,0.2581337129,0.5,0.50180749175,0.5036149835,0.50542247525,0.507229967,
     0.7490962541,0.7513556188,0.7536149835,0.7558743482,0.7581337129,1.0,1.00180749175,
     1.0036149835),.UNSPECIFIED.);
#266=PRESENTATION_LAYER_ASSIGNMENT('1','Layer 1',(#265,#286,#287,#31));
#269=STYLED_ITEM('',(#275),#265);
#270=STYLED_ITEM('',(#276),#286);
#271=STYLED_ITEM('',(#277),#287);
#272=STYLED_ITEM('',(#278),#31);
#273=PRESENTATION_STYLE_ASSIGNMENT((#279));
#274=PRESENTATION_STYLE_ASSIGNMENT((#280));
#275=PRESENTATION_STYLE_ASSIGNMENT((#258));
#276=PRESENTATION_STYLE_ASSIGNMENT((#259));
#277=PRESENTATION_STYLE_ASSIGNMENT((#260));
#278=PRESENTATION_STYLE_ASSIGNMENT((#26));
#279=POINT_STYLE('',#281,POSITIVE_LENGTH_MEASURE(3.0),#283);
#280=POINT_STYLE('',#282,POSITIVE_LENGTH_MEASURE(3.0),#283);
#281=PRE_DEFINED_POINT_MARKER_SYMBOL('plus');
#282=PRE_DEFINED_POINT_MARKER_SYMBOL('plus');
#283=COLOUR_RGB('Medium Maroon',0.6,0.4,0.4);
#284=COLOUR_RGB('IsoInsertColor',0.8,0.8,0.8);
#285=AXIS2_PLACEMENT_3D('',#383,#311,#312);
#286=AXIS2_PLACEMENT_3D('PCS',#432,#313,#314);
#287=AXIS2_PLACEMENT_3D('MCS',#433,#315,#316);
#288=AXIS2_PLACEMENT_3D('',#434,#317,#318);
#289=AXIS2_PLACEMENT_3D('',#444,#323,#324);
#290=AXIS2_PLACEMENT_3D('',#454,#330,#331);
#291=AXIS2_PLACEMENT_3D('',#462,#336,#337);
#292=AXIS2_PLACEMENT_3D('',#470,#342,#343);
#293=AXIS2_PLACEMENT_3D('',#476,#347,#348);
#294=AXIS2_PLACEMENT_3D('',#477,#349,#350);
#295=AXIS2_PLACEMENT_3D('',#479,#351,#352);
#296=AXIS2_PLACEMENT_3D('',#480,#353,#354);
#297=AXIS2_PLACEMENT_3D('',#481,#355,#356);
#298=AXIS2_PLACEMENT_3D('',#482,#357,#358);
#299=AXIS2_PLACEMENT_3D('',#483,#359,#360);
#300=AXIS2_PLACEMENT_3D('',#484,#361,#362);
#301=AXIS2_PLACEMENT_3D('',#485,#363,#364);
#302=AXIS2_PLACEMENT_3D('',#486,#365,#366);
#303=AXIS2_PLACEMENT_3D('',#487,#367,#368);
#304=AXIS2_PLACEMENT_3D('',#488,#369,#370);
#305=AXIS2_PLACEMENT_3D('',#490,#371,#372);
#306=AXIS2_PLACEMENT_3D('',#491,#373,#374);
#307=AXIS2_PLACEMENT_3D('',#493,#375,#376);
#308=AXIS2_PLACEMENT_3D('',#495,#377,#378);
#309=AXIS2_PLACEMENT_3D('',#496,#379,#380);
#310=AXIS2_PLACEMENT_3D('',#497,#381,#382);
#311=DIRECTION('',(0.0,0.0,1.0));
#312=DIRECTION('',(1.0,0.0,0.0));
#313=DIRECTION('',(0.0,0.0,1.0));
#314=DIRECTION('',(1.0,0.0,0.0));
#315=DIRECTION('',(0.0,0.0,1.0));
#316=DIRECTION('',(1.0,0.0,0.0));
#317=DIRECTION('',(0.0,0.0,1.0));
#318=DIRECTION('',(-0.766044443118978,-0.642787609686539,0.0));
#319=DIRECTION('',(1.0,1.0547118733939E-15,0.0));
#320=DIRECTION('',(-0.173648177666932,-0.984807753012208,0.0));
#321=DIRECTION('',(-1.0,-1.94289029309402E-15,0.0));
#322=DIRECTION('',(0.173648177666931,0.984807753012208,0.0));
#323=DIRECTION('',(0.0,0.0,1.0));
#324=DIRECTION('',(-0.766044443118978,-0.642787609686539,0.0));
#325=DIRECTION('',(-1.0,-1.0547118733939E-15,-1.54311163477182E-16));
#326=DIRECTION('',(3.19189119579733E-16,-0.190808995376545,-0.981627183447664));
#327=DIRECTION('',(0.221736612850801,0.186059110061607,0.957191141875298));
#328=DIRECTION('',(-0.158094246810827,0.188409386605279,0.969282266506687));
#329=DIRECTION('',(-3.19189119579733E-16,0.190808995376545,0.981627183447664));
#330=DIRECTION('',(9.99200722162641E-16,-0.981627183447664,0.190808995376545));
#331=DIRECTION('',(1.0,1.0547118733939E-15,0.0));
#332=DIRECTION('',(-0.221736612850801,-0.186059110061606,0.957191141875298));
#333=DIRECTION('',(-0.187910177991292,0.0331336343295953,0.981627183447664));
#334=DIRECTION('',(-0.173648177666931,-0.984807753012208,4.76730034311136E-16));
#335=DIRECTION('',(0.187910177991292,-0.0331336343295953,-0.981627183447664));
#336=DIRECTION('',(0.966714060826797,-0.170457771554009,0.190808995376545));
#337=DIRECTION('',(0.173648177666931,0.984807753012208,0.0));
#338=DIRECTION('',(0.158094246810826,-0.188409386605277,0.969282266506687));
#339=DIRECTION('',(2.22044604925031E-16,-0.190808995376544,0.981627183447664));
#340=DIRECTION('',(1.0,1.94289029309402E-15,1.54311163477181E-16));
#341=DIRECTION('',(-2.22044604925031E-16,0.190808995376544,-0.981627183447664));
#342=DIRECTION('',(-1.94289029309402E-15,0.981627183447664,0.190808995376544));
#343=DIRECTION('',(-1.0,-1.94289029309402E-15,0.0));
#344=DIRECTION('',(0.187910177991292,-0.0331336343295945,0.981627183447664));
#345=DIRECTION('',(0.173648177666932,0.984807753012208,-4.76730034311136E-16));
#346=DIRECTION('',(-0.187910177991292,0.0331336343295945,-0.981627183447664));
#347=DIRECTION('',(-0.966714060826797,0.17045777155401,0.190808995376545));
#348=DIRECTION('',(-0.173648177666932,-0.984807753012208,0.0));
#349=DIRECTION('',(0.0,0.0,1.0));
#350=DIRECTION('',(-0.766044443118978,-0.642787609686539,0.0));
#351=DIRECTION('',(-1.37745668311624E-16,5.15292423860314E-16,1.0));
#352=DIRECTION('',(-0.642787609686543,0.766044443118982,-4.83278106758205E-16));
#353=DIRECTION('',(-1.37745668311624E-16,5.15292423860314E-16,1.0));
#354=DIRECTION('',(-0.642787609686539,0.766044443118982,-4.83278106758206E-16));
#355=DIRECTION('',(-1.37745668311624E-16,5.15292423860314E-16,1.0));
#356=DIRECTION('',(-0.642787609686539,0.766044443118978,-4.83278106758206E-16));
#357=DIRECTION('',(-1.37745668311624E-16,5.15292423860314E-16,1.0));
#358=DIRECTION('',(-0.642787609686543,0.766044443118978,-4.83278106758207E-16));
#359=DIRECTION('',(-1.37745668311624E-16,5.15292423860314E-16,1.0));
#360=DIRECTION('',(-0.642787609686539,0.766044443118978,-4.83278106758207E-16));
#361=DIRECTION('',(-1.37745668311624E-16,5.15292423860314E-16,1.0));
#362=DIRECTION('',(-0.642787609686539,0.766044443118978,-5.48289551742302E-16));
#363=DIRECTION('',(-1.37745668311624E-16,5.15292423860314E-16,1.0));
#364=DIRECTION('',(-0.642787609686539,0.766044443118978,-5.70577744902558E-16));
#365=DIRECTION('',(-1.37745668311624E-16,5.15292423860314E-16,1.0));
#366=DIRECTION('',(-0.642787609686539,0.766044443118978,-5.66120106270507E-16));
#367=DIRECTION('',(-1.37745668311624E-16,5.15292423860314E-16,1.0));
#368=DIRECTION('',(-0.642787609686539,0.766044443118978,-5.43831913110251E-16));
#369=DIRECTION('',(0.0,0.0,-1.0));
#370=DIRECTION('',(0.766044443118978,0.642787609686539,0.0));
#371=DIRECTION('',(0.0,0.0,1.0));
#372=DIRECTION('',(-0.766044443118978,-0.642787609686539,3.80594939976525E-16));
#373=DIRECTION('',(0.0,0.0,1.0));
#374=DIRECTION('',(0.766044443118978,0.642787609686539,0.0));
#375=DIRECTION('',(0.0,0.0,-1.0));
#376=DIRECTION('',(-0.766044443118978,-0.642787609686539,0.0));
#377=DIRECTION('',(0.0,0.0,1.0));
#378=DIRECTION('',(-0.766044443118978,-0.642787609686539,0.0));
#379=DIRECTION('',(0.0,0.0,1.0));
#380=DIRECTION('',(-0.766044443118978,-0.642787609686539,0.0));
#381=DIRECTION('',(0.0,0.0,-1.0));
#382=DIRECTION('',(0.766044443118978,0.642787609686539,0.0));
#383=CARTESIAN_POINT('',(0.0,0.0,0.0));
#386=CARTESIAN_POINT('',(7.65164143682607,-3.10862446895044E-14,0.0));
#387=CARTESIAN_POINT('',(9.51818496177971,-2.66453525910038E-14,1.04010329973469E-16));
#388=CARTESIAN_POINT('',(9.54369559503914,0.00204973987177404,1.06188876593909E-16));
#389=CARTESIAN_POINT('',(9.58602408414884,0.0118628704198347,1.056260584152E-16));
#390=CARTESIAN_POINT('',(9.63701683715734,0.0416179911857526,9.32642349640434E-17));
#391=CARTESIAN_POINT('',(9.67517470941369,0.0866691271988422,6.91689062667957E-17));
#392=CARTESIAN_POINT('',(9.692189021456,0.126650519210407,4.54641489340666E-17));
#393=CARTESIAN_POINT('',(9.69863749615004,0.151417655035122,3.02162821857562E-17));
#394=CARTESIAN_POINT('',(10.0227593777942,1.9896041897442,1.34024246452449E-17));
#395=CARTESIAN_POINT('',(10.3446663219501,3.8152291897442,8.93494976349658E-18));
#396=CARTESIAN_POINT('',(10.666573266106,5.6408541897442,8.93494976349662E-18));
#397=CARTESIAN_POINT('',(10.9884802102619,7.4664791897442,1.3402424645245E-17));
#398=CARTESIAN_POINT('',(11.3130268141269,9.30707444386224,1.64227363194838E-17));
#399=CARTESIAN_POINT('',(11.3154391635502,9.33752047626127,4.62562360349918E-18));
#400=CARTESIAN_POINT('',(11.3105212773521,9.39250168413812,-1.59507656257774E-17));
#401=CARTESIAN_POINT('',(11.2749740555167,9.46082657151733,-3.92118518732618E-17));
#402=CARTESIAN_POINT('',(11.2138598869946,9.50769824336171,-5.22880666444701E-17));
#403=CARTESIAN_POINT('',(11.1605679491839,9.52208880237179,-5.35941259237303E-17));
#404=CARTESIAN_POINT('',(11.1301655603476,9.52499999999999,-5.23191305072457E-17));
#405=CARTESIAN_POINT('',(9.26117615760554,9.52499999999999,-3.06760021079347E-17));
#406=CARTESIAN_POINT('',(7.40738794928162,9.52499999999999,-2.04506680719564E-17));
#407=CARTESIAN_POINT('',(5.55359974095771,9.52499999999998,-2.04506680719564E-17));
#408=CARTESIAN_POINT('',(3.69981153263379,9.52499999999998,-3.06760021079346E-17));
#409=CARTESIAN_POINT('',(1.83326800768016,9.52499999999998,-5.6800189952226E-17));
#410=CARTESIAN_POINT('',(1.80775737442072,9.52295026012818,-6.6700821226126E-17));
#411=CARTESIAN_POINT('',(1.76542888531102,9.51313712958012,-7.86037033957423E-17));
#412=CARTESIAN_POINT('',(1.71443613230253,9.4833820088142,-8.02882633652854E-17));
#413=CARTESIAN_POINT('',(1.67627826004617,9.43833087280112,-6.54702109366888E-17));
#414=CARTESIAN_POINT('',(1.65926394800387,9.39834948078954,-4.48250655568182E-17));
#415=CARTESIAN_POINT('',(1.65281547330983,9.37358234496483,-3.02162821857565E-17));
#416=CARTESIAN_POINT('',(1.32869359166562,7.53539581025576,-1.3402424645245E-17));
#417=CARTESIAN_POINT('',(1.00678664750972,5.70977081025575,-8.93494976349669E-18));
#418=CARTESIAN_POINT('',(0.684879703353831,3.88414581025575,-8.93494976349669E-18));
#419=CARTESIAN_POINT('',(0.362972759197938,2.05852081025575,-1.3402424645245E-17));
#420=CARTESIAN_POINT('',(0.0384261553329743,0.217925556137708,-1.6422736319484E-17));
#421=CARTESIAN_POINT('',(0.0360138059096329,0.18747952373868,-4.62562360349941E-18));
#422=CARTESIAN_POINT('',(0.0409316921078027,0.13249831586182,1.5950765625777E-17));
#423=CARTESIAN_POINT('',(0.076478913943169,0.0641734284826141,3.92118518732613E-17));
#424=CARTESIAN_POINT('',(0.137593082465302,0.0173017566382319,5.22880666444698E-17));
#425=CARTESIAN_POINT('',(0.190885020275982,0.00291119762815217,5.359412592373E-17));
#426=CARTESIAN_POINT('',(0.221287409112267,-4.44089209850063E-14,5.23191305072455E-17));
#427=CARTESIAN_POINT('',(2.09027681185432,-4.17443857259059E-14,3.06760021079346E-17));
#428=CARTESIAN_POINT('',(3.94406502017824,-3.81916720471054E-14,1.53380010539673E-17));
#429=CARTESIAN_POINT('',(5.79785322850216,-3.46389583683049E-14,5.1126670179891E-18));
#430=CARTESIAN_POINT('',(7.65164143682607,-3.10862446895044E-14,0.0));
#431=CARTESIAN_POINT('',(9.51818496177971,-2.66453525910038E-14,1.04010329973469E-16));
#432=CARTESIAN_POINT('',(0.0,0.0,0.0));
#433=CARTESIAN_POINT('',(5.67572648472992,4.7625,0.0));
#434=CARTESIAN_POINT('',(5.67572648472992,4.7625,-3.96875));
#435=CARTESIAN_POINT('',(3.99042870986817,3.34836725868961,-3.96875));
#436=CARTESIAN_POINT('',(5.67572648472993,8.75355314810966,-3.96875));
#437=CARTESIAN_POINT('',(2.32683526014217,8.75355314810966,-3.96875));
#438=CARTESIAN_POINT('',(10.4320784122241,8.75355314810967,-3.96875));
#439=CARTESIAN_POINT('',(9.60614656767213,4.06946089385886,-3.96875));
#440=CARTESIAN_POINT('',(9.02461770931769,0.77144685189029,-3.96875));
#441=CARTESIAN_POINT('',(5.67572648472994,0.771446851890283,-3.96875));
#442=CARTESIAN_POINT('',(0.919374557235774,0.771446851890273,-3.96875));
#443=CARTESIAN_POINT('',(1.74530640178773,5.45553910614109,-3.96875));
#444=CARTESIAN_POINT('',(5.62950517219276,4.23418798019793,-3.96875));
#445=CARTESIAN_POINT('',(5.67572648472992,9.52499999999998,-5.38749756651154E-15));
#446=CARTESIAN_POINT('',(11.1149643659295,9.52499999999999,-4.6382661094598E-15));
#447=CARTESIAN_POINT('',(1.84602332430987,9.52499999999998,-5.91502258777873E-15));
#448=CARTESIAN_POINT('',(11.1149643659295,9.52499999999999,-4.25244819523754E-15));
#449=CARTESIAN_POINT('',(11.1149643659295,9.32656249999999,-1.02087243754413));
#450=CARTESIAN_POINT('',(11.0723938132033,9.29084156490841,-1.2046407176237));
#451=CARTESIAN_POINT('',(1.77939497810411,9.4059670709593,-0.612371333128921));
#452=CARTESIAN_POINT('',(1.84602332430987,9.32656249999997,-1.02087243754414));
#453=CARTESIAN_POINT('',(1.84602332430987,9.52499999999998,-5.28366863123937E-15));
#454=CARTESIAN_POINT('',(5.67572648472993,9.52499999999998,-5.38749756651153E-15));
#455=CARTESIAN_POINT('',(0.279059156256614,0.234158435091529,-1.20464071762369));
#456=CARTESIAN_POINT('',(0.23648860353041,0.198437499999957,-1.02087243754413));
#457=CARTESIAN_POINT('',(0.0410658150420459,0.23289581025574,-8.78860614823024E-16));
#458=CARTESIAN_POINT('',(0.0410658150420459,0.23289581025574,-1.37549677547102E-15));
#459=CARTESIAN_POINT('',(0.985579561009285,5.58949944613875,-4.00561136949638E-15));
#460=CARTESIAN_POINT('',(1.65060053582151,9.36102081025576,-5.85744399623643E-15));
#461=CARTESIAN_POINT('',(1.65060053582151,9.36102081025576,-5.30465039221161E-15));
#462=CARTESIAN_POINT('',(0.985579561009282,5.58949944613873,-4.00561136949637E-15));
#463=CARTESIAN_POINT('',(9.57205799135575,0.119032929040647,-0.612371333128914));
#464=CARTESIAN_POINT('',(9.50542964514999,0.198437499999976,-1.02087243754413));
#465=CARTESIAN_POINT('',(9.50542964514999,-2.68882138776405E-14,1.89460112371958E-17));
#466=CARTESIAN_POINT('',(9.50542964514999,-2.68882138776405E-14,4.81877920251665E-17));
#467=CARTESIAN_POINT('',(5.67572648472993,-3.46944695195361E-14,-4.79337229242031E-16));
#468=CARTESIAN_POINT('',(0.236488603530408,-4.59701721133854E-14,-1.22856868629376E-15));
#469=CARTESIAN_POINT('',(0.236488603530408,-4.59701721133854E-14,-9.99096504406004E-16));
#470=CARTESIAN_POINT('',(5.67572648472994,-3.46944695195361E-14,-4.79337229242029E-16));
#471=CARTESIAN_POINT('',(11.3103871544178,9.2921041897442,-4.34599328756411E-15));
#472=CARTESIAN_POINT('',(11.3103871544178,9.2921041897442,-4.49133802028254E-15));
#473=CARTESIAN_POINT('',(10.3658734084506,3.93550055386123,-1.8612234262572E-15));
#474=CARTESIAN_POINT('',(9.70085243363835,0.163979189744193,-9.3907995171326E-18));
#475=CARTESIAN_POINT('',(9.70085243363835,0.163979189744193,-9.31912575334518E-17));
#476=CARTESIAN_POINT('',(10.3658734084506,3.93550055386121,-1.86122342625719E-15));
#477=CARTESIAN_POINT('',(5.67572648472992,4.7625,0.0));
#478=CARTESIAN_POINT('',(3.32295476874435,2.78829012087217,0.0));
#479=CARTESIAN_POINT('',(11.1149643659295,9.32656249999999,-4.53601276910002E-15));
#480=CARTESIAN_POINT('',(1.84602332430987,9.32656249999998,-5.81276924741895E-15));
#481=CARTESIAN_POINT('',(0.236488603530407,0.198437499999957,-1.33082202665354E-15));
#482=CARTESIAN_POINT('',(9.50542964514999,0.198437499999975,-5.40655483346157E-17));
#483=CARTESIAN_POINT('',(5.67572648472992,4.7625,-2.93341739787679E-15));
#484=CARTESIAN_POINT('',(11.1149643659295,9.32656249999999,-4.33680868994202E-15));
#485=CARTESIAN_POINT('',(9.50542964514999,0.198437499999975,0.0));
#486=CARTESIAN_POINT('',(0.236488603530407,0.198437499999957,-8.67361737988404E-16));
#487=CARTESIAN_POINT('',(1.84602332430987,9.32656249999998,-5.20417042793042E-15));
#488=CARTESIAN_POINT('',(5.67572648472992,4.7625,-0.877554494186118));
#489=CARTESIAN_POINT('',(7.98149019900628,6.69726548223124,-0.877554494186118));
#490=CARTESIAN_POINT('',(5.67572648472992,4.7625,-1.02000000000516));
#491=CARTESIAN_POINT('',(5.67572648472992,4.7625,-1.12904556205543));
#492=CARTESIAN_POINT('',(7.91337889274349,6.64011331026713,-1.12904556205543));
#493=CARTESIAN_POINT('',(5.67572648472992,4.7625,-3.42));
#494=CARTESIAN_POINT('',(3.99042870986817,3.34836725868961,-3.42));
#495=CARTESIAN_POINT('',(5.67572648472992,4.7625,-3.42));
#496=CARTESIAN_POINT('',(5.67572648472992,4.7625,-33.3676978394524));
#497=CARTESIAN_POINT('',(5.67572648472992,4.7625,-0.842676257312353));
#498=MECHANICAL_DESIGN_GEOMETRIC_PRESENTATION_REPRESENTATION('',(#269,#270,#271,
     #272),#499);
#499=(GEOMETRIC_REPRESENTATION_CONTEXT(3)GLOBAL_UNCERTAINTY_ASSIGNED_CONTEXT((#500))
     GLOBAL_UNIT_ASSIGNED_CONTEXT((#506,#502,#501))REPRESENTATION_CONTEXT('CPMT09T302',
     'TOP_LEVEL_ASSEMBLY_PART'));
#500=UNCERTAINTY_MEASURE_WITH_UNIT(LENGTH_MEASURE(2.0E-5),#506,'DISTANCE_ACCURACY_VALUE',
     'Maximum Tolerance applied to model');
#501=(NAMED_UNIT(*)SI_UNIT($,.STERADIAN.)SOLID_ANGLE_UNIT());
#502=(CONVERSION_BASED_UNIT('DEGREE',#504)NAMED_UNIT(#503)PLANE_ANGLE_UNIT());
#503=DIMENSIONAL_EXPONENTS(0.0,0.0,0.0,0.0,0.0,0.0,0.0);
#504=PLANE_ANGLE_MEASURE_WITH_UNIT(PLANE_ANGLE_MEASURE(0.0174532925),#505);
#505=(NAMED_UNIT(*)PLANE_ANGLE_UNIT()SI_UNIT($,.RADIAN.));
#506=(LENGTH_UNIT()NAMED_UNIT(*)SI_UNIT(.MILLI.,.METRE.));
#507=CONSTRUCTIVE_GEOMETRY_REPRESENTATION('supplemental geometry',(#286,#287),#499);
#508=CONSTRUCTIVE_GEOMETRY_REPRESENTATION_RELATIONSHIP('supplemental geometry','contains PCS and MCS coordinate systems',
     #24,#507);
ENDSEC;
END-ISO-10303-21;
