ISO-10303-21;
HEADER;
FILE_DESCRIPTION(
/* description */ (''),
/* implementation_level */ '2;1');
FILE_NAME(
/* name */ 'CCGT120404.stp',
/* time_stamp */ '2017-03-21T10:53:51',
/* author */ ('Sandvik Coromant R&D'),
/* organization */ ('Sandvik Machining Solutions'),
/* preprocessor_version */ 'ST-DEVELOPER v15',
/* originating_system */ 'SIEMENS PLM Software NX v8.5.3.3(64 bits)',
/* authorization */ '');
FILE_SCHEMA(('AUTOMOTIVE_DESIGN'));
ENDSEC;
DATA;
#10=GEOMETRICALLY_BOUNDED_WIREFRAME_SHAPE_REPRESENTATION('IsoTurningInsert-None',
     (#25),#507);
#11=SHAPE_REPRESENTATION_RELATIONSHIP('None','relationship between IsoTurningInsert-None and IsoTurningInsert-None',
     #24,#13);
#12=SHAPE_REPRESENTATION_RELATIONSHIP('None','relationship between IsoTurningInsert-None and IsoTurningInsert-None',
     #24,#10);
#13=ADVANCED_BREP_SHAPE_REPRESENTATION('IsoTurningInsert-None',(#31),#507);
#14=SHAPE_DEFINITION_REPRESENTATION(#15,#24);
#15=PRODUCT_DEFINITION_SHAPE('','',#16);
#16=PRODUCT_DEFINITION(' ','',#18,#17);
#17=PRODUCT_DEFINITION_CONTEXT('part definition',#23,'design');
#18=PRODUCT_DEFINITION_FORMATION_WITH_SPECIFIED_SOURCE(' ',' ',#20,.NOT_KNOWN.);
#19=PRODUCT_RELATED_PRODUCT_CATEGORY('part','',(#20));
#20=PRODUCT('IsoTurningInsert','IsoTurningInsert',' ',(#21));
#21=PRODUCT_CONTEXT(' ',#23,'mechanical');
#22=APPLICATION_PROTOCOL_DEFINITION('international standard','automotive_design',
     2010,#23);
#23=APPLICATION_CONTEXT('core data for automotive mechanical design processes');
#24=SHAPE_REPRESENTATION('IsoTurningInsert-None',(#285),#507);
#25=GEOMETRIC_CURVE_SET('geometric curve set',(#265));
#26=SURFACE_STYLE_USAGE(.BOTH.,#27);
#27=SURFACE_SIDE_STYLE('',(#28));
#28=SURFACE_STYLE_FILL_AREA(#29);
#29=FILL_AREA_STYLE('',(#30));
#30=FILL_AREA_STYLE_COLOUR('',#284);
#31=MANIFOLD_SOLID_BREP('CUT',#32);
#32=CLOSED_SHELL('',(#49,#50,#51,#52,#53,#54,#55,#56,#57,#58,#59,#60,#61,#62));
#33=CYLINDRICAL_SURFACE('',#309,2.75);
#34=TOROIDAL_SURFACE('',#308,7.74999999999999,4.99999999999999);
#35=TOROIDAL_SURFACE('',#310,3.70770146243638,0.3);
#36=CONICAL_SURFACE('',#300,0.396874999999998,7.0);
#37=CONICAL_SURFACE('',#301,0.396874999999998,7.0);
#38=CONICAL_SURFACE('',#302,0.396874999999998,7.0);
#39=CONICAL_SURFACE('',#303,0.396874999999998,7.0);
#40=CONICAL_SURFACE('',#305,3.99999999997937,4.00000000120328);
#41=FACE_OUTER_BOUND('',#123,.T.);
#42=FACE_OUTER_BOUND('',#124,.T.);
#43=FACE_OUTER_BOUND('',#125,.T.);
#44=FACE_OUTER_BOUND('',#126,.T.);
#45=FACE_OUTER_BOUND('',#129,.T.);
#46=FACE_OUTER_BOUND('',#130,.T.);
#47=FACE_OUTER_BOUND('',#131,.T.);
#48=FACE_OUTER_BOUND('',#132,.T.);
#49=ADVANCED_FACE('',(#109,#110),#63,.F.);
#50=ADVANCED_FACE('',(#41),#64,.F.);
#51=ADVANCED_FACE('',(#42),#65,.F.);
#52=ADVANCED_FACE('',(#43),#66,.F.);
#53=ADVANCED_FACE('',(#44),#67,.F.);
#54=ADVANCED_FACE('',(#111,#112),#68,.T.);
#55=ADVANCED_FACE('',(#45),#36,.T.);
#56=ADVANCED_FACE('',(#46),#37,.T.);
#57=ADVANCED_FACE('',(#47),#38,.T.);
#58=ADVANCED_FACE('',(#48),#39,.T.);
#59=ADVANCED_FACE('',(#113,#114),#40,.F.);
#60=ADVANCED_FACE('',(#115,#116),#34,.T.);
#61=ADVANCED_FACE('',(#117,#118),#33,.F.);
#62=ADVANCED_FACE('',(#119,#120),#35,.F.);
#63=PLANE('',#289);
#64=PLANE('',#290);
#65=PLANE('',#291);
#66=PLANE('',#292);
#67=PLANE('',#293);
#68=PLANE('',#299);
#69=LINE('',#444,#89);
#70=LINE('',#447,#90);
#71=LINE('',#449,#91);
#72=LINE('',#451,#92);
#73=LINE('',#453,#93);
#74=LINE('',#456,#94);
#75=LINE('',#458,#95);
#76=LINE('',#459,#96);
#77=LINE('',#461,#97);
#78=LINE('',#463,#98);
#79=LINE('',#465,#99);
#80=LINE('',#467,#100);
#81=LINE('',#469,#101);
#82=LINE('',#471,#102);
#83=LINE('',#473,#103);
#84=LINE('',#475,#104);
#85=LINE('',#477,#105);
#86=LINE('',#479,#106);
#87=LINE('',#481,#107);
#88=LINE('',#483,#108);
#89=VECTOR('',#319,1.0);
#90=VECTOR('',#320,1.0);
#91=VECTOR('',#321,1.0);
#92=VECTOR('',#322,1.0);
#93=VECTOR('',#325,1.0);
#94=VECTOR('',#326,1.0);
#95=VECTOR('',#327,1.0);
#96=VECTOR('',#328,1.0);
#97=VECTOR('',#329,1.0);
#98=VECTOR('',#332,1.0);
#99=VECTOR('',#333,1.0);
#100=VECTOR('',#334,1.0);
#101=VECTOR('',#335,1.0);
#102=VECTOR('',#338,1.0);
#103=VECTOR('',#339,1.0);
#104=VECTOR('',#340,1.0);
#105=VECTOR('',#341,1.0);
#106=VECTOR('',#344,1.0);
#107=VECTOR('',#345,1.0);
#108=VECTOR('',#346,1.0);
#109=FACE_BOUND('',#121,.T.);
#110=FACE_BOUND('',#122,.T.);
#111=FACE_BOUND('',#127,.T.);
#112=FACE_BOUND('',#128,.T.);
#113=FACE_BOUND('',#133,.T.);
#114=FACE_BOUND('',#134,.T.);
#115=FACE_BOUND('',#135,.T.);
#116=FACE_BOUND('',#136,.T.);
#117=FACE_BOUND('',#137,.T.);
#118=FACE_BOUND('',#138,.T.);
#119=FACE_BOUND('',#139,.T.);
#120=FACE_BOUND('',#140,.T.);
#121=EDGE_LOOP('',(#141));
#122=EDGE_LOOP('',(#142,#143,#144,#145));
#123=EDGE_LOOP('',(#146,#147,#148,#149,#150,#151));
#124=EDGE_LOOP('',(#152,#153,#154,#155,#156,#157));
#125=EDGE_LOOP('',(#158,#159,#160,#161,#162,#163));
#126=EDGE_LOOP('',(#164,#165,#166,#167,#168,#169));
#127=EDGE_LOOP('',(#170));
#128=EDGE_LOOP('',(#171,#172,#173,#174,#175,#176,#177,#178));
#129=EDGE_LOOP('',(#179,#180,#181));
#130=EDGE_LOOP('',(#182,#183,#184));
#131=EDGE_LOOP('',(#185,#186,#187));
#132=EDGE_LOOP('',(#188,#189,#190));
#133=EDGE_LOOP('',(#191));
#134=EDGE_LOOP('',(#192));
#135=EDGE_LOOP('',(#193));
#136=EDGE_LOOP('',(#194));
#137=EDGE_LOOP('',(#195));
#138=EDGE_LOOP('',(#196));
#139=EDGE_LOOP('',(#197));
#140=EDGE_LOOP('',(#198));
#141=ORIENTED_EDGE('',*,*,#220,.T.);
#142=ORIENTED_EDGE('',*,*,#221,.T.);
#143=ORIENTED_EDGE('',*,*,#222,.T.);
#144=ORIENTED_EDGE('',*,*,#223,.T.);
#145=ORIENTED_EDGE('',*,*,#224,.T.);
#146=ORIENTED_EDGE('',*,*,#225,.F.);
#147=ORIENTED_EDGE('',*,*,#226,.T.);
#148=ORIENTED_EDGE('',*,*,#227,.F.);
#149=ORIENTED_EDGE('',*,*,#221,.F.);
#150=ORIENTED_EDGE('',*,*,#228,.T.);
#151=ORIENTED_EDGE('',*,*,#229,.T.);
#152=ORIENTED_EDGE('',*,*,#224,.F.);
#153=ORIENTED_EDGE('',*,*,#230,.T.);
#154=ORIENTED_EDGE('',*,*,#231,.T.);
#155=ORIENTED_EDGE('',*,*,#232,.F.);
#156=ORIENTED_EDGE('',*,*,#233,.T.);
#157=ORIENTED_EDGE('',*,*,#228,.F.);
#158=ORIENTED_EDGE('',*,*,#223,.F.);
#159=ORIENTED_EDGE('',*,*,#234,.T.);
#160=ORIENTED_EDGE('',*,*,#235,.T.);
#161=ORIENTED_EDGE('',*,*,#236,.F.);
#162=ORIENTED_EDGE('',*,*,#237,.T.);
#163=ORIENTED_EDGE('',*,*,#230,.F.);
#164=ORIENTED_EDGE('',*,*,#222,.F.);
#165=ORIENTED_EDGE('',*,*,#227,.T.);
#166=ORIENTED_EDGE('',*,*,#238,.T.);
#167=ORIENTED_EDGE('',*,*,#239,.F.);
#168=ORIENTED_EDGE('',*,*,#240,.T.);
#169=ORIENTED_EDGE('',*,*,#234,.F.);
#170=ORIENTED_EDGE('',*,*,#241,.F.);
#171=ORIENTED_EDGE('',*,*,#239,.T.);
#172=ORIENTED_EDGE('',*,*,#242,.T.);
#173=ORIENTED_EDGE('',*,*,#225,.T.);
#174=ORIENTED_EDGE('',*,*,#243,.T.);
#175=ORIENTED_EDGE('',*,*,#232,.T.);
#176=ORIENTED_EDGE('',*,*,#244,.T.);
#177=ORIENTED_EDGE('',*,*,#236,.T.);
#178=ORIENTED_EDGE('',*,*,#245,.T.);
#179=ORIENTED_EDGE('',*,*,#238,.F.);
#180=ORIENTED_EDGE('',*,*,#226,.F.);
#181=ORIENTED_EDGE('',*,*,#242,.F.);
#182=ORIENTED_EDGE('',*,*,#235,.F.);
#183=ORIENTED_EDGE('',*,*,#240,.F.);
#184=ORIENTED_EDGE('',*,*,#245,.F.);
#185=ORIENTED_EDGE('',*,*,#231,.F.);
#186=ORIENTED_EDGE('',*,*,#237,.F.);
#187=ORIENTED_EDGE('',*,*,#244,.F.);
#188=ORIENTED_EDGE('',*,*,#229,.F.);
#189=ORIENTED_EDGE('',*,*,#233,.F.);
#190=ORIENTED_EDGE('',*,*,#243,.F.);
#191=ORIENTED_EDGE('',*,*,#246,.T.);
#192=ORIENTED_EDGE('',*,*,#241,.T.);
#193=ORIENTED_EDGE('',*,*,#247,.T.);
#194=ORIENTED_EDGE('',*,*,#248,.T.);
#195=ORIENTED_EDGE('',*,*,#248,.F.);
#196=ORIENTED_EDGE('',*,*,#220,.F.);
#197=ORIENTED_EDGE('',*,*,#247,.F.);
#198=ORIENTED_EDGE('',*,*,#246,.F.);
#199=VERTEX_POINT('',#443);
#200=VERTEX_POINT('',#445);
#201=VERTEX_POINT('',#446);
#202=VERTEX_POINT('',#448);
#203=VERTEX_POINT('',#450);
#204=VERTEX_POINT('',#454);
#205=VERTEX_POINT('',#455);
#206=VERTEX_POINT('',#457);
#207=VERTEX_POINT('',#460);
#208=VERTEX_POINT('',#464);
#209=VERTEX_POINT('',#466);
#210=VERTEX_POINT('',#468);
#211=VERTEX_POINT('',#472);
#212=VERTEX_POINT('',#474);
#213=VERTEX_POINT('',#476);
#214=VERTEX_POINT('',#480);
#215=VERTEX_POINT('',#482);
#216=VERTEX_POINT('',#486);
#217=VERTEX_POINT('',#497);
#218=VERTEX_POINT('',#500);
#219=VERTEX_POINT('',#502);
#220=EDGE_CURVE('',#199,#199,#249,.T.);
#221=EDGE_CURVE('',#200,#201,#69,.T.);
#222=EDGE_CURVE('',#201,#202,#70,.T.);
#223=EDGE_CURVE('',#202,#203,#71,.T.);
#224=EDGE_CURVE('',#203,#200,#72,.T.);
#225=EDGE_CURVE('',#204,#205,#73,.T.);
#226=EDGE_CURVE('',#204,#206,#74,.T.);
#227=EDGE_CURVE('INSERT_CORNER_EDGE3',#201,#206,#75,.T.);
#228=EDGE_CURVE('INSERT_CORNER_EDGE4',#200,#207,#76,.T.);
#229=EDGE_CURVE('',#207,#205,#77,.T.);
#230=EDGE_CURVE('INSERT_CORNER_EDGE1',#203,#208,#78,.T.);
#231=EDGE_CURVE('',#208,#209,#79,.T.);
#232=EDGE_CURVE('',#210,#209,#80,.T.);
#233=EDGE_CURVE('',#210,#207,#81,.T.);
#234=EDGE_CURVE('INSERT_CORNER_EDGE2',#202,#211,#82,.T.);
#235=EDGE_CURVE('',#211,#212,#83,.T.);
#236=EDGE_CURVE('',#213,#212,#84,.T.);
#237=EDGE_CURVE('',#213,#208,#85,.T.);
#238=EDGE_CURVE('',#206,#214,#86,.T.);
#239=EDGE_CURVE('',#215,#214,#87,.T.);
#240=EDGE_CURVE('',#215,#211,#88,.T.);
#241=EDGE_CURVE('',#216,#216,#250,.T.);
#242=EDGE_CURVE('',#214,#204,#251,.T.);
#243=EDGE_CURVE('',#205,#210,#252,.T.);
#244=EDGE_CURVE('',#209,#213,#253,.T.);
#245=EDGE_CURVE('',#212,#215,#254,.T.);
#246=EDGE_CURVE('',#217,#217,#255,.T.);
#247=EDGE_CURVE('',#218,#218,#256,.T.);
#248=EDGE_CURVE('',#219,#219,#257,.T.);
#249=CIRCLE('',#288,2.75);
#250=CIRCLE('',#294,4.06293413074916);
#251=CIRCLE('',#295,0.396874999999998);
#252=CIRCLE('',#296,0.396874999999998);
#253=CIRCLE('',#297,0.396874999999998);
#254=CIRCLE('',#298,0.396874999999998);
#255=CIRCLE('',#304,4.00697067751389);
#256=CIRCLE('',#306,3.93651081361923);
#257=CIRCLE('',#307,2.75);
#258=CURVE_STYLE('',#262,POSITIVE_LENGTH_MEASURE(0.18),#261);
#259=CURVE_STYLE('',#263,POSITIVE_LENGTH_MEASURE(0.18),#283);
#260=CURVE_STYLE('',#264,POSITIVE_LENGTH_MEASURE(0.18),#283);
#261=DRAUGHTING_PRE_DEFINED_COLOUR('blue');
#262=DRAUGHTING_PRE_DEFINED_CURVE_FONT('continuous');
#263=DRAUGHTING_PRE_DEFINED_CURVE_FONT('continuous');
#264=DRAUGHTING_PRE_DEFINED_CURVE_FONT('continuous');
#265=B_SPLINE_CURVE_WITH_KNOTS('CUTTING EDGE LINE',5,(#386,#387,#388,#389,#390,#391,
     #392,#393,#394,#395,#396,#397,#398,#399,#400,#401,#402,#403,#404,#405,#406,
     #407,#408,#409,#410,#411,#412,#413,#414,#415,#416,#417,#418,#419,#420,#421,
     #422,#423,#424,#425,#426,#427,#428,#429,#430,#431,#432,#433,#434,#435,#436,
     #437,#438,#439),.UNSPECIFIED.,.T.,.F.,(2,4,1,1,1,4,4,1,1,1,1,1,1,1,4,4,1,1,
     1,4,4,1,1,1,1,1,1,1,4,4,1,1),(-0.2377410236,0.0,0.00272421697500003,0.00544843395000005,
     0.00817265092499997,0.0108968679,0.2486378915,0.2503405271125,0.252043162725,
     0.2537457983375,0.25544843395,0.2571510695625,0.258853705175,0.2605563407875,
     0.2622589764,0.5,0.502724216975,0.50544843395,0.508172650925,0.5108968679,0.7486378915,
     0.7503405271125,0.752043162725,0.7537457983375,0.75544843395,0.7571510695625,
     0.758853705175,0.7605563407875,0.7622589764,1.0,1.002724216975,1.00544843395),
     .UNSPECIFIED.);
#266=PRESENTATION_LAYER_ASSIGNMENT('1','Layer 1',(#265,#286,#287,#31));
#269=STYLED_ITEM('',(#275),#265);
#270=STYLED_ITEM('',(#276),#286);
#271=STYLED_ITEM('',(#277),#287);
#272=STYLED_ITEM('',(#278),#31);
#273=PRESENTATION_STYLE_ASSIGNMENT((#279));
#274=PRESENTATION_STYLE_ASSIGNMENT((#280));
#275=PRESENTATION_STYLE_ASSIGNMENT((#258));
#276=PRESENTATION_STYLE_ASSIGNMENT((#259));
#277=PRESENTATION_STYLE_ASSIGNMENT((#260));
#278=PRESENTATION_STYLE_ASSIGNMENT((#26));
#279=POINT_STYLE('',#281,POSITIVE_LENGTH_MEASURE(3.0),#283);
#280=POINT_STYLE('',#282,POSITIVE_LENGTH_MEASURE(3.0),#283);
#281=PRE_DEFINED_POINT_MARKER_SYMBOL('plus');
#282=PRE_DEFINED_POINT_MARKER_SYMBOL('plus');
#283=COLOUR_RGB('Medium Maroon',0.6,0.4,0.4);
#284=COLOUR_RGB('IsoInsertColor',0.8,0.8,0.8);
#285=AXIS2_PLACEMENT_3D('',#383,#311,#312);
#286=AXIS2_PLACEMENT_3D('PCS',#440,#313,#314);
#287=AXIS2_PLACEMENT_3D('MCS',#441,#315,#316);
#288=AXIS2_PLACEMENT_3D('',#442,#317,#318);
#289=AXIS2_PLACEMENT_3D('',#452,#323,#324);
#290=AXIS2_PLACEMENT_3D('',#462,#330,#331);
#291=AXIS2_PLACEMENT_3D('',#470,#336,#337);
#292=AXIS2_PLACEMENT_3D('',#478,#342,#343);
#293=AXIS2_PLACEMENT_3D('',#484,#347,#348);
#294=AXIS2_PLACEMENT_3D('',#485,#349,#350);
#295=AXIS2_PLACEMENT_3D('',#487,#351,#352);
#296=AXIS2_PLACEMENT_3D('',#488,#353,#354);
#297=AXIS2_PLACEMENT_3D('',#489,#355,#356);
#298=AXIS2_PLACEMENT_3D('',#490,#357,#358);
#299=AXIS2_PLACEMENT_3D('',#491,#359,#360);
#300=AXIS2_PLACEMENT_3D('',#492,#361,#362);
#301=AXIS2_PLACEMENT_3D('',#493,#363,#364);
#302=AXIS2_PLACEMENT_3D('',#494,#365,#366);
#303=AXIS2_PLACEMENT_3D('',#495,#367,#368);
#304=AXIS2_PLACEMENT_3D('',#496,#369,#370);
#305=AXIS2_PLACEMENT_3D('',#498,#371,#372);
#306=AXIS2_PLACEMENT_3D('',#499,#373,#374);
#307=AXIS2_PLACEMENT_3D('',#501,#375,#376);
#308=AXIS2_PLACEMENT_3D('',#503,#377,#378);
#309=AXIS2_PLACEMENT_3D('',#504,#379,#380);
#310=AXIS2_PLACEMENT_3D('',#505,#381,#382);
#311=DIRECTION('',(0.0,0.0,1.0));
#312=DIRECTION('',(1.0,0.0,0.0));
#313=DIRECTION('',(0.0,0.0,1.0));
#314=DIRECTION('',(1.0,0.0,0.0));
#315=DIRECTION('',(0.0,0.0,1.0));
#316=DIRECTION('',(1.0,0.0,0.0));
#317=DIRECTION('',(0.0,0.0,1.0));
#318=DIRECTION('',(-0.766044443118978,-0.64278760968654,0.0));
#319=DIRECTION('',(1.0,3.88578058618805E-16,0.0));
#320=DIRECTION('',(-0.173648177666928,-0.984807753012209,0.0));
#321=DIRECTION('',(-1.0,7.21644966006352E-16,0.0));
#322=DIRECTION('',(0.173648177666929,0.984807753012208,0.0));
#323=DIRECTION('',(0.0,0.0,1.0));
#324=DIRECTION('',(-0.766044443118978,-0.64278760968654,0.0));
#325=DIRECTION('',(-1.0,-3.88578058618805E-16,-1.01774888095285E-16));
#326=DIRECTION('',(1.73472347597681E-16,-0.121869343405148,-0.992546151641322));
#327=DIRECTION('',(0.143730206185748,0.120603962999496,0.982240455254526));
#328=DIRECTION('',(-0.101729998253829,0.121237090893603,0.987396868157344));
#329=DIRECTION('',(-1.73472347597681E-16,0.121869343405148,0.992546151641322));
#330=DIRECTION('',(3.88578058618805E-16,-0.992546151641322,0.121869343405148));
#331=DIRECTION('',(1.0,3.88578058618805E-16,0.0));
#332=DIRECTION('',(-0.143730206185748,-0.120603962999496,0.982240455254526));
#333=DIRECTION('',(-0.120017874239897,0.0211623893957694,0.992546151641322));
#334=DIRECTION('',(-0.173648177666929,-0.984807753012208,3.57272263417822E-16));
#335=DIRECTION('',(0.120017874239897,-0.0211623893957694,-0.992546151641322));
#336=DIRECTION('',(0.977467145358805,-0.172353830482839,0.121869343405148));
#337=DIRECTION('',(0.173648177666929,0.984807753012208,0.0));
#338=DIRECTION('',(0.101729998253829,-0.121237090893602,0.987396868157344));
#339=DIRECTION('',(-1.94289029309402E-16,-0.121869343405147,0.992546151641322));
#340=DIRECTION('',(1.0,-7.21644966006352E-16,1.01774888095285E-16));
#341=DIRECTION('',(1.94289029309402E-16,0.121869343405147,-0.992546151641322));
#342=DIRECTION('',(6.66133814775094E-16,0.992546151641322,0.121869343405147));
#343=DIRECTION('',(-1.0,7.21644966006352E-16,0.0));
#344=DIRECTION('',(0.120017874239896,-0.0211623893957685,0.992546151641322));
#345=DIRECTION('',(0.173648177666928,0.984807753012209,-3.57272263417822E-16));
#346=DIRECTION('',(-0.120017874239896,0.0211623893957685,-0.992546151641322));
#347=DIRECTION('',(-0.977467145358805,0.172353830482838,0.121869343405147));
#348=DIRECTION('',(-0.173648177666928,-0.984807753012209,0.0));
#349=DIRECTION('',(0.0,0.0,1.0));
#350=DIRECTION('',(-0.766044443118978,-0.64278760968654,0.0));
#351=DIRECTION('',(-1.03309251233719E-16,3.86469317895238E-16,1.0));
#352=DIRECTION('',(-0.642787609686539,0.766044443118976,-3.62458580068657E-16));
#353=DIRECTION('',(-1.03309251233719E-16,3.86469317895238E-16,1.0));
#354=DIRECTION('',(-0.64278760968654,0.766044443118976,-3.62458580068657E-16));
#355=DIRECTION('',(-1.03309251233719E-16,3.86469317895238E-16,1.0));
#356=DIRECTION('',(-0.64278760968654,0.766044443118978,-3.62458580068657E-16));
#357=DIRECTION('',(-1.03309251233719E-16,3.86469317895238E-16,1.0));
#358=DIRECTION('',(-0.642787609686539,0.766044443118978,-3.62458580068657E-16));
#359=DIRECTION('',(-1.03309251233719E-16,3.86469317895238E-16,1.0));
#360=DIRECTION('',(-0.64278760968654,0.766044443118978,-3.62458580068657E-16));
#361=DIRECTION('',(-1.03309251233719E-16,3.86469317895238E-16,1.0));
#362=DIRECTION('',(-0.64278760968654,0.766044443118978,3.52066742699803E-17));
#363=DIRECTION('',(-1.03309251233719E-16,3.86469317895238E-16,1.0));
#364=DIRECTION('',(-0.64278760968654,0.766044443118978,0.0));
#365=DIRECTION('',(-1.03309251233719E-16,3.86469317895238E-16,1.0));
#366=DIRECTION('',(-0.64278760968654,0.766044443118978,7.04133485399606E-18));
#367=DIRECTION('',(-1.03309251233719E-16,3.86469317895238E-16,1.0));
#368=DIRECTION('',(-0.64278760968654,0.766044443118978,4.22480091239764E-17));
#369=DIRECTION('',(0.0,0.0,-1.0));
#370=DIRECTION('',(0.766044443118978,0.64278760968654,0.0));
#371=DIRECTION('',(0.0,0.0,1.0));
#372=DIRECTION('',(-0.766044443118978,-0.64278760968654,-6.57031678176703E-16));
#373=DIRECTION('',(0.0,0.0,1.0));
#374=DIRECTION('',(0.766044443118978,0.64278760968654,0.0));
#375=DIRECTION('',(0.0,0.0,-1.0));
#376=DIRECTION('',(-0.766044443118978,-0.64278760968654,0.0));
#377=DIRECTION('',(0.0,0.0,1.0));
#378=DIRECTION('',(-0.766044443118978,-0.64278760968654,0.0));
#379=DIRECTION('',(0.0,0.0,1.0));
#380=DIRECTION('',(-0.766044443118978,-0.64278760968654,0.0));
#381=DIRECTION('',(0.0,0.0,-1.0));
#382=DIRECTION('',(0.766044443118978,0.642787609686539,0.0));
#383=CARTESIAN_POINT('',(0.0,0.0,0.0));
#386=CARTESIAN_POINT('',(10.1449156852725,4.35207425653061E-14,0.0));
#387=CARTESIAN_POINT('',(12.5884109380849,3.90798504668055E-14,1.56015494960202E-16));
#388=CARTESIAN_POINT('',(12.6394322046038,0.004099479743636,1.59283314890862E-16));
#389=CARTESIAN_POINT('',(12.7240891828231,0.0237257408397724,1.58439087622798E-16));
#390=CARTESIAN_POINT('',(12.8260746888401,0.0832359823715931,1.39896352446064E-16));
#391=CARTESIAN_POINT('',(12.9023904333528,0.173338254397777,1.03753359400193E-16));
#392=CARTESIAN_POINT('',(12.9364190574375,0.253301038420907,6.81962234010994E-17));
#393=CARTESIAN_POINT('',(12.9493160068255,0.302835310070333,4.53244232786341E-17));
#394=CARTESIAN_POINT('',(13.3736245046142,2.70920837948847,2.01036369678672E-17));
#395=CARTESIAN_POINT('',(13.7935031274262,5.09045837948846,1.34024246452447E-17));
#396=CARTESIAN_POINT('',(14.2133817502382,7.47170837948845,1.34024246452446E-17));
#397=CARTESIAN_POINT('',(14.6332603730503,9.85295837948845,2.01036369678669E-17));
#398=CARTESIAN_POINT('',(15.0557786555714,12.2491786336065,2.90700830461682E-17));
#399=CARTESIAN_POINT('',(15.0596244899921,12.279371903924,2.02101872107307E-17));
#400=CARTESIAN_POINT('',(15.06141638209,12.3294760556916,5.77770535928101E-18));
#401=CARTESIAN_POINT('',(15.0527982686277,12.3971526817345,-1.30670858250802E-17));
#402=CARTESIAN_POINT('',(15.0219777453869,12.4834081645771,-3.59181640272042E-17));
#403=CARTESIAN_POINT('',(14.970476558008,12.5617213583727,-5.52814565245841E-17));
#404=CARTESIAN_POINT('',(14.902296204931,12.6260390703827,-6.96615036314321E-17));
#405=CARTESIAN_POINT('',(14.8227030643831,12.6713694680314,-7.79407546343497E-17));
#406=CARTESIAN_POINT('',(14.7575511180566,12.6916085757685,-7.98948951032682E-17));
#407=CARTESIAN_POINT('',(14.70789700214,12.6985444011859,-7.89568190420493E-17));
#408=CARTESIAN_POINT('',(14.6774946133037,12.7,-7.75843505153517E-17));
#409=CARTESIAN_POINT('',(12.2443087993326,12.7,-4.60140031619015E-17));
#410=CARTESIAN_POINT('',(9.82632417977972,12.7,-3.06760021079344E-17));
#411=CARTESIAN_POINT('',(7.40833956022681,12.7,-3.06760021079344E-17));
#412=CARTESIAN_POINT('',(4.99035494067389,12.7,-4.60140031619016E-17));
#413=CARTESIAN_POINT('',(2.54685968786153,12.7,-8.52002849283384E-17));
#414=CARTESIAN_POINT('',(2.49583842134267,12.6959005202564,-1.00051231839188E-16));
#415=CARTESIAN_POINT('',(2.41118144312326,12.6762742591603,-1.17905555093612E-16));
#416=CARTESIAN_POINT('',(2.30919593710627,12.6167640176284,-1.20432395047927E-16));
#417=CARTESIAN_POINT('',(2.23288019259357,12.5266617456023,-9.82053164050319E-17));
#418=CARTESIAN_POINT('',(2.19885156850897,12.4466989615791,-6.72375983352263E-17));
#419=CARTESIAN_POINT('',(2.18595461912088,12.3971646899297,-4.5324423278634E-17));
#420=CARTESIAN_POINT('',(1.76164612133223,9.99079162051156,-2.01036369678672E-17));
#421=CARTESIAN_POINT('',(1.3417674985202,7.60954162051157,-1.34024246452448E-17));
#422=CARTESIAN_POINT('',(0.921888875708174,5.22829162051159,-1.34024246452449E-17));
#423=CARTESIAN_POINT('',(0.502010252896145,2.8470416205116,-2.01036369678673E-17));
#424=CARTESIAN_POINT('',(0.079491970375047,0.450821366393576,-2.9070083046169E-17));
#425=CARTESIAN_POINT('',(0.0756461359543081,0.420628096076032,-2.02101872107315E-17));
#426=CARTESIAN_POINT('',(0.0738542438564318,0.370523944308436,-5.77770535928176E-18));
#427=CARTESIAN_POINT('',(0.082472357318748,0.302847318265557,1.30670858250795E-17));
#428=CARTESIAN_POINT('',(0.113292880559471,0.216591835422919,3.59181640272036E-17));
#429=CARTESIAN_POINT('',(0.164794067938349,0.138278641627313,5.52814565245837E-17));
#430=CARTESIAN_POINT('',(0.232974421015376,0.0739609296173613,6.96615036314319E-17));
#431=CARTESIAN_POINT('',(0.312567561563294,0.0286305319686182,7.79407546343497E-17));
#432=CARTESIAN_POINT('',(0.377719507889782,0.00839142423158989,7.98948951032681E-17));
#433=CARTESIAN_POINT('',(0.427373623806412,0.00145559881414581,7.89568190420493E-17));
#434=CARTESIAN_POINT('',(0.457776012642698,4.88498130835069E-14,7.75843505153518E-17));
#435=CARTESIAN_POINT('',(2.89096182661376,4.61852778244065E-14,4.60140031619016E-17));
#436=CARTESIAN_POINT('',(5.30894644616668,4.52970994047064E-14,2.30070015809508E-17));
#437=CARTESIAN_POINT('',(7.7269310657196,4.44089209850063E-14,7.66900052698359E-18));
#438=CARTESIAN_POINT('',(10.1449156852725,4.35207425653061E-14,0.0));
#439=CARTESIAN_POINT('',(12.5884109380849,3.90798504668055E-14,1.56015494960202E-16));
#440=CARTESIAN_POINT('',(0.0,0.0,0.0));
#441=CARTESIAN_POINT('',(7.56763531297323,6.35,0.0));
#442=CARTESIAN_POINT('',(7.56763531297323,6.35,-4.7625));
#443=CARTESIAN_POINT('',(5.46101309439604,4.58233407336202,-4.7625));
#444=CARTESIAN_POINT('',(7.5676353129732,12.1152385286999,-4.7625));
#445=CARTESIAN_POINT('',(2.73002578989207,12.1152385286999,-4.7625));
#446=CARTESIAN_POINT('',(14.4383790417138,12.1152385286999,-4.7625));
#447=CARTESIAN_POINT('',(13.2452869140016,5.34887683567612,-4.7625));
#448=CARTESIAN_POINT('',(12.4052448360543,0.584761471300121,-4.7625));
#449=CARTESIAN_POINT('',(7.5676353129732,0.584761471300124,-4.7625));
#450=CARTESIAN_POINT('',(0.696891584232562,0.58476147130013,-4.7625));
#451=CARTESIAN_POINT('',(1.88998371194486,7.35112316432392,-4.7625));
#452=CARTESIAN_POINT('',(7.52141400043606,5.82168798019793,-4.7625));
#453=CARTESIAN_POINT('',(7.56763531297323,12.7,-5.38749756651153E-15));
#454=CARTESIAN_POINT('',(14.6622934188856,12.7,-4.65455374983049E-15));
#455=CARTESIAN_POINT('',(2.57237032112097,12.7,-5.90355465253379E-15));
#456=CARTESIAN_POINT('',(14.6622934188856,12.7,-4.41985430433861E-15));
#457=CARTESIAN_POINT('',(14.6622934188856,12.303125,-3.2322874886024));
#458=CARTESIAN_POINT('',(14.9789355992027,12.5688193367192,-1.06838076640996));
#459=CARTESIAN_POINT('',(2.29449501250106,12.634283897341,-0.535214705951218));
#460=CARTESIAN_POINT('',(2.57237032112097,12.303125,-3.23228748860237));
#461=CARTESIAN_POINT('',(2.57237032112097,12.7,-5.10370212171367E-15));
#462=CARTESIAN_POINT('',(7.5676353129732,12.7,-5.38749756651153E-15));
#463=CARTESIAN_POINT('',(0.156335026743744,0.131180663280802,-1.06838076640996));
#464=CARTESIAN_POINT('',(0.472977207060839,0.396875000000047,-3.23228748860241));
#465=CARTESIAN_POINT('',(0.0821316300841195,0.46579162051161,-1.01021773878989E-15));
#466=CARTESIAN_POINT('',(0.0821316300841195,0.46579162051161,-1.43267317968897E-15));
#467=CARTESIAN_POINT('',(1.31410608134571,7.452665928185,-4.00561136949636E-15));
#468=CARTESIAN_POINT('',(2.18152474414425,12.3720416205116,-5.81718676522035E-15));
#469=CARTESIAN_POINT('',(2.18152474414425,12.3720416205116,-5.06469762363097E-15));
#470=CARTESIAN_POINT('',(1.31410608134571,7.45266592818501,-4.00561136949636E-15));
#471=CARTESIAN_POINT('',(12.8407756134453,0.065716102659037,-0.535214705951214));
#472=CARTESIAN_POINT('',(12.5629003048254,0.396875000000036,-3.2322874886024));
#473=CARTESIAN_POINT('',(12.5629003048254,3.98986399474666E-14,3.44575963113205E-17));
#474=CARTESIAN_POINT('',(12.5629003048254,3.98986399474666E-14,3.67198567802372E-17));
#475=CARTESIAN_POINT('',(7.56763531297322,4.42354486374086E-14,-4.79337229242026E-16));
#476=CARTESIAN_POINT('',(0.472977207060838,4.9439619065339E-14,-1.21228104592307E-15));
#477=CARTESIAN_POINT('',(0.472977207060838,4.9439619065339E-14,-8.03853912898836E-16));
#478=CARTESIAN_POINT('',(7.5676353129732,4.33680868994202E-14,-4.79337229242028E-16));
#479=CARTESIAN_POINT('',(15.0531389958623,12.2342083794884,-4.2655579100801E-15));
#480=CARTESIAN_POINT('',(15.0531389958623,12.2342083794884,-4.4341616160646E-15));
#481=CARTESIAN_POINT('',(13.8211645446007,5.24733407181502,-1.86122342625719E-15));
#482=CARTESIAN_POINT('',(12.9537458818022,0.327958379488476,-4.96480305332109E-17));
#483=CARTESIAN_POINT('',(12.9537458818022,0.327958379488476,5.09977359862457E-17));
#484=CARTESIAN_POINT('',(13.8211645446007,5.24733407181503,-1.8612234262572E-15));
#485=CARTESIAN_POINT('',(7.56763531297323,6.35,-6.93889390390723E-15));
#486=CARTESIAN_POINT('',(4.4552471993544,3.73839628178189,-6.93889390390723E-15));
#487=CARTESIAN_POINT('',(14.6622934188856,12.303125,-4.50117373929082E-15));
#488=CARTESIAN_POINT('',(2.57237032112097,12.303125,-5.75017464199412E-15));
#489=CARTESIAN_POINT('',(0.472977207060837,0.396875000000047,-1.36566105646274E-15));
#490=CARTESIAN_POINT('',(12.5629003048254,0.396875000000038,-1.16660153759434E-16));
#491=CARTESIAN_POINT('',(7.56763531297323,6.35,-2.93341739787677E-15));
#492=CARTESIAN_POINT('',(14.6622934188856,12.303125,-4.33680868994202E-15));
#493=CARTESIAN_POINT('',(12.5629003048254,0.396875000000038,0.0));
#494=CARTESIAN_POINT('',(0.472977207060837,0.396875000000047,-8.67361737988404E-16));
#495=CARTESIAN_POINT('',(2.57237032112097,12.303125,-5.20417042793042E-15));
#496=CARTESIAN_POINT('',(7.56763531297323,6.35,-0.800314667049148));
#497=CARTESIAN_POINT('',(10.6371529342234,8.92563110388321,-0.800314667049148));
#498=CARTESIAN_POINT('',(7.56763531297323,6.35,-0.900000000023389));
#499=CARTESIAN_POINT('',(7.56763531297323,6.35,-0.973414220046667));
#500=CARTESIAN_POINT('',(10.583177547024,8.88034037639152,-0.973414220046667));
#501=CARTESIAN_POINT('',(7.56763531297323,6.35,-4.20718913883074));
#502=CARTESIAN_POINT('',(5.46101309439604,4.58233407336202,-4.20718913883074));
#503=CARTESIAN_POINT('',(7.56763531297323,6.35,-4.20718913883074));
#504=CARTESIAN_POINT('',(7.56763531297323,6.35,-33.3676978394524));
#505=CARTESIAN_POINT('',(7.56763531297323,6.35,-0.779387724919623));
#506=MECHANICAL_DESIGN_GEOMETRIC_PRESENTATION_REPRESENTATION('',(#269,#270,#271,
     #272),#507);
#507=(GEOMETRIC_REPRESENTATION_CONTEXT(3)GLOBAL_UNCERTAINTY_ASSIGNED_CONTEXT((#508))
     GLOBAL_UNIT_ASSIGNED_CONTEXT((#514,#510,#509))REPRESENTATION_CONTEXT('CCGT120404',
     'TOP_LEVEL_ASSEMBLY_PART'));
#508=UNCERTAINTY_MEASURE_WITH_UNIT(LENGTH_MEASURE(2.0E-5),#514,'DISTANCE_ACCURACY_VALUE',
     'Maximum Tolerance applied to model');
#509=(NAMED_UNIT(*)SI_UNIT($,.STERADIAN.)SOLID_ANGLE_UNIT());
#510=(CONVERSION_BASED_UNIT('DEGREE',#512)NAMED_UNIT(#511)PLANE_ANGLE_UNIT());
#511=DIMENSIONAL_EXPONENTS(0.0,0.0,0.0,0.0,0.0,0.0,0.0);
#512=PLANE_ANGLE_MEASURE_WITH_UNIT(PLANE_ANGLE_MEASURE(0.0174532925),#513);
#513=(NAMED_UNIT(*)PLANE_ANGLE_UNIT()SI_UNIT($,.RADIAN.));
#514=(LENGTH_UNIT()NAMED_UNIT(*)SI_UNIT(.MILLI.,.METRE.));
#515=CONSTRUCTIVE_GEOMETRY_REPRESENTATION('supplemental geometry',(#286,#287),#507);
#516=CONSTRUCTIVE_GEOMETRY_REPRESENTATION_RELATIONSHIP('supplemental geometry','contains PCS and MCS coordinate systems',
     #24,#515);
ENDSEC;
END-ISO-10303-21;
