ISO-10303-21;
HEADER;
FILE_DESCRIPTION(
/* description */ (''),
/* implementation_level */ '2;1');
FILE_NAME(
/* name */ 'VCGX220520.stp',
/* time_stamp */ '2017-03-21T10:54:47',
/* author */ ('Sandvik Coromant R&D'),
/* organization */ ('Sandvik Machining Solutions'),
/* preprocessor_version */ 'ST-DEVELOPER v15',
/* originating_system */ 'SIEMENS PLM Software NX v8.5.3.3(64 bits)',
/* authorization */ '');
FILE_SCHEMA(('AUTOMOTIVE_DESIGN'));
ENDSEC;
DATA;
#10=GEOMETRICALLY_BOUNDED_WIREFRAME_SHAPE_REPRESENTATION('IsoTurningInsert-None',
     (#25),#523);
#11=SHAPE_REPRESENTATION_RELATIONSHIP('None','relationship between IsoTurningInsert-None and IsoTurningInsert-None',
     #24,#13);
#12=SHAPE_REPRESENTATION_RELATIONSHIP('None','relationship between IsoTurningInsert-None and IsoTurningInsert-None',
     #24,#10);
#13=ADVANCED_BREP_SHAPE_REPRESENTATION('IsoTurningInsert-None',(#31),#523);
#14=SHAPE_DEFINITION_REPRESENTATION(#15,#24);
#15=PRODUCT_DEFINITION_SHAPE('','',#16);
#16=PRODUCT_DEFINITION(' ','',#18,#17);
#17=PRODUCT_DEFINITION_CONTEXT('part definition',#23,'design');
#18=PRODUCT_DEFINITION_FORMATION_WITH_SPECIFIED_SOURCE(' ',' ',#20,.NOT_KNOWN.);
#19=PRODUCT_RELATED_PRODUCT_CATEGORY('part','',(#20));
#20=PRODUCT('IsoTurningInsert','IsoTurningInsert',' ',(#21));
#21=PRODUCT_CONTEXT(' ',#23,'mechanical');
#22=APPLICATION_PROTOCOL_DEFINITION('international standard','automotive_design',
     2010,#23);
#23=APPLICATION_CONTEXT('core data for automotive mechanical design processes');
#24=SHAPE_REPRESENTATION('IsoTurningInsert-None',(#281),#523);
#25=GEOMETRIC_CURVE_SET('geometric curve set',(#261));
#26=SURFACE_STYLE_USAGE(.BOTH.,#27);
#27=SURFACE_SIDE_STYLE('',(#28));
#28=SURFACE_STYLE_FILL_AREA(#29);
#29=FILL_AREA_STYLE('',(#30));
#30=FILL_AREA_STYLE_COLOUR('',#280);
#31=MANIFOLD_SOLID_BREP('CUT',#32);
#32=CLOSED_SHELL('',(#49,#50,#51,#52,#53,#54,#55,#56,#57,#58,#59,#60,#61,#62));
#33=CYLINDRICAL_SURFACE('',#309,2.75);
#34=TOROIDAL_SURFACE('',#308,7.75,5.0);
#35=TOROIDAL_SURFACE('',#310,3.70444817488859,0.3);
#36=CONICAL_SURFACE('',#300,1.984375,7.0);
#37=CONICAL_SURFACE('',#301,1.984375,7.0);
#38=CONICAL_SURFACE('',#302,1.984375,7.0);
#39=CONICAL_SURFACE('',#303,1.984375,7.0);
#40=CONICAL_SURFACE('',#305,3.99999999997937,2.3000000005374);
#41=FACE_OUTER_BOUND('',#115,.T.);
#42=FACE_OUTER_BOUND('',#116,.T.);
#43=FACE_OUTER_BOUND('',#117,.T.);
#44=FACE_OUTER_BOUND('',#118,.T.);
#45=FACE_OUTER_BOUND('',#121,.T.);
#46=FACE_OUTER_BOUND('',#122,.T.);
#47=FACE_OUTER_BOUND('',#123,.T.);
#48=FACE_OUTER_BOUND('',#124,.T.);
#49=ADVANCED_FACE('',(#101,#102),#63,.F.);
#50=ADVANCED_FACE('',(#41),#64,.F.);
#51=ADVANCED_FACE('',(#42),#65,.F.);
#52=ADVANCED_FACE('',(#43),#66,.F.);
#53=ADVANCED_FACE('',(#44),#67,.F.);
#54=ADVANCED_FACE('',(#103,#104),#68,.T.);
#55=ADVANCED_FACE('',(#45),#36,.T.);
#56=ADVANCED_FACE('',(#46),#37,.T.);
#57=ADVANCED_FACE('',(#47),#38,.T.);
#58=ADVANCED_FACE('',(#48),#39,.T.);
#59=ADVANCED_FACE('',(#105,#106),#40,.F.);
#60=ADVANCED_FACE('',(#107,#108),#34,.T.);
#61=ADVANCED_FACE('',(#109,#110),#33,.F.);
#62=ADVANCED_FACE('',(#111,#112),#35,.F.);
#63=PLANE('',#289);
#64=PLANE('',#290);
#65=PLANE('',#291);
#66=PLANE('',#292);
#67=PLANE('',#293);
#68=PLANE('',#299);
#69=LINE('',#460,#85);
#70=LINE('',#465,#86);
#71=LINE('',#469,#87);
#72=LINE('',#473,#88);
#73=LINE('',#477,#89);
#74=LINE('',#480,#90);
#75=LINE('',#481,#91);
#76=LINE('',#483,#92);
#77=LINE('',#485,#93);
#78=LINE('',#487,#94);
#79=LINE('',#489,#95);
#80=LINE('',#491,#96);
#81=LINE('',#493,#97);
#82=LINE('',#495,#98);
#83=LINE('',#497,#99);
#84=LINE('',#499,#100);
#85=VECTOR('',#319,1.0);
#86=VECTOR('',#322,1.0);
#87=VECTOR('',#325,1.0);
#88=VECTOR('',#328,1.0);
#89=VECTOR('',#333,1.0);
#90=VECTOR('',#334,1.0);
#91=VECTOR('',#335,1.0);
#92=VECTOR('',#338,1.0);
#93=VECTOR('',#339,1.0);
#94=VECTOR('',#340,1.0);
#95=VECTOR('',#343,1.0);
#96=VECTOR('',#344,1.0);
#97=VECTOR('',#345,1.0);
#98=VECTOR('',#348,1.0);
#99=VECTOR('',#349,1.0);
#100=VECTOR('',#350,1.0);
#101=FACE_BOUND('',#113,.T.);
#102=FACE_BOUND('',#114,.T.);
#103=FACE_BOUND('',#119,.T.);
#104=FACE_BOUND('',#120,.T.);
#105=FACE_BOUND('',#125,.T.);
#106=FACE_BOUND('',#126,.T.);
#107=FACE_BOUND('',#127,.T.);
#108=FACE_BOUND('',#128,.T.);
#109=FACE_BOUND('',#129,.T.);
#110=FACE_BOUND('',#130,.T.);
#111=FACE_BOUND('',#131,.T.);
#112=FACE_BOUND('',#132,.T.);
#113=EDGE_LOOP('',(#133));
#114=EDGE_LOOP('',(#134,#135,#136,#137,#138,#139,#140,#141));
#115=EDGE_LOOP('',(#142,#143,#144,#145));
#116=EDGE_LOOP('',(#146,#147,#148,#149));
#117=EDGE_LOOP('',(#150,#151,#152,#153));
#118=EDGE_LOOP('',(#154,#155,#156,#157));
#119=EDGE_LOOP('',(#158));
#120=EDGE_LOOP('',(#159,#160,#161,#162,#163,#164,#165,#166));
#121=EDGE_LOOP('',(#167,#168,#169,#170));
#122=EDGE_LOOP('',(#171,#172,#173,#174));
#123=EDGE_LOOP('',(#175,#176,#177,#178));
#124=EDGE_LOOP('',(#179,#180,#181,#182));
#125=EDGE_LOOP('',(#183));
#126=EDGE_LOOP('',(#184));
#127=EDGE_LOOP('',(#185));
#128=EDGE_LOOP('',(#186));
#129=EDGE_LOOP('',(#187));
#130=EDGE_LOOP('',(#188));
#131=EDGE_LOOP('',(#189));
#132=EDGE_LOOP('',(#190));
#133=ORIENTED_EDGE('',*,*,#212,.T.);
#134=ORIENTED_EDGE('',*,*,#213,.T.);
#135=ORIENTED_EDGE('',*,*,#214,.T.);
#136=ORIENTED_EDGE('',*,*,#215,.T.);
#137=ORIENTED_EDGE('',*,*,#216,.T.);
#138=ORIENTED_EDGE('',*,*,#217,.T.);
#139=ORIENTED_EDGE('',*,*,#218,.T.);
#140=ORIENTED_EDGE('',*,*,#219,.T.);
#141=ORIENTED_EDGE('',*,*,#220,.T.);
#142=ORIENTED_EDGE('',*,*,#221,.F.);
#143=ORIENTED_EDGE('',*,*,#222,.T.);
#144=ORIENTED_EDGE('',*,*,#213,.F.);
#145=ORIENTED_EDGE('',*,*,#223,.T.);
#146=ORIENTED_EDGE('',*,*,#219,.F.);
#147=ORIENTED_EDGE('',*,*,#224,.T.);
#148=ORIENTED_EDGE('',*,*,#225,.F.);
#149=ORIENTED_EDGE('',*,*,#226,.T.);
#150=ORIENTED_EDGE('',*,*,#217,.F.);
#151=ORIENTED_EDGE('',*,*,#227,.T.);
#152=ORIENTED_EDGE('',*,*,#228,.F.);
#153=ORIENTED_EDGE('',*,*,#229,.T.);
#154=ORIENTED_EDGE('',*,*,#215,.F.);
#155=ORIENTED_EDGE('',*,*,#230,.T.);
#156=ORIENTED_EDGE('',*,*,#231,.F.);
#157=ORIENTED_EDGE('',*,*,#232,.T.);
#158=ORIENTED_EDGE('',*,*,#233,.F.);
#159=ORIENTED_EDGE('',*,*,#231,.T.);
#160=ORIENTED_EDGE('',*,*,#234,.T.);
#161=ORIENTED_EDGE('',*,*,#221,.T.);
#162=ORIENTED_EDGE('',*,*,#235,.T.);
#163=ORIENTED_EDGE('',*,*,#225,.T.);
#164=ORIENTED_EDGE('',*,*,#236,.T.);
#165=ORIENTED_EDGE('',*,*,#228,.T.);
#166=ORIENTED_EDGE('',*,*,#237,.T.);
#167=ORIENTED_EDGE('',*,*,#214,.F.);
#168=ORIENTED_EDGE('',*,*,#222,.F.);
#169=ORIENTED_EDGE('',*,*,#234,.F.);
#170=ORIENTED_EDGE('',*,*,#230,.F.);
#171=ORIENTED_EDGE('',*,*,#216,.F.);
#172=ORIENTED_EDGE('',*,*,#232,.F.);
#173=ORIENTED_EDGE('',*,*,#237,.F.);
#174=ORIENTED_EDGE('',*,*,#227,.F.);
#175=ORIENTED_EDGE('',*,*,#218,.F.);
#176=ORIENTED_EDGE('',*,*,#229,.F.);
#177=ORIENTED_EDGE('',*,*,#236,.F.);
#178=ORIENTED_EDGE('',*,*,#224,.F.);
#179=ORIENTED_EDGE('',*,*,#220,.F.);
#180=ORIENTED_EDGE('',*,*,#226,.F.);
#181=ORIENTED_EDGE('',*,*,#235,.F.);
#182=ORIENTED_EDGE('',*,*,#223,.F.);
#183=ORIENTED_EDGE('',*,*,#238,.T.);
#184=ORIENTED_EDGE('',*,*,#233,.T.);
#185=ORIENTED_EDGE('',*,*,#239,.T.);
#186=ORIENTED_EDGE('',*,*,#240,.T.);
#187=ORIENTED_EDGE('',*,*,#240,.F.);
#188=ORIENTED_EDGE('',*,*,#212,.F.);
#189=ORIENTED_EDGE('',*,*,#239,.F.);
#190=ORIENTED_EDGE('',*,*,#238,.F.);
#191=VERTEX_POINT('',#459);
#192=VERTEX_POINT('',#461);
#193=VERTEX_POINT('',#462);
#194=VERTEX_POINT('',#464);
#195=VERTEX_POINT('',#466);
#196=VERTEX_POINT('',#468);
#197=VERTEX_POINT('',#470);
#198=VERTEX_POINT('',#472);
#199=VERTEX_POINT('',#474);
#200=VERTEX_POINT('',#478);
#201=VERTEX_POINT('',#479);
#202=VERTEX_POINT('',#484);
#203=VERTEX_POINT('',#486);
#204=VERTEX_POINT('',#490);
#205=VERTEX_POINT('',#492);
#206=VERTEX_POINT('',#496);
#207=VERTEX_POINT('',#498);
#208=VERTEX_POINT('',#502);
#209=VERTEX_POINT('',#513);
#210=VERTEX_POINT('',#516);
#211=VERTEX_POINT('',#518);
#212=EDGE_CURVE('',#191,#191,#241,.T.);
#213=EDGE_CURVE('',#192,#193,#69,.T.);
#214=EDGE_CURVE('',#193,#194,#242,.T.);
#215=EDGE_CURVE('',#194,#195,#70,.T.);
#216=EDGE_CURVE('',#195,#196,#243,.T.);
#217=EDGE_CURVE('',#196,#197,#71,.T.);
#218=EDGE_CURVE('',#197,#198,#244,.T.);
#219=EDGE_CURVE('',#198,#199,#72,.T.);
#220=EDGE_CURVE('',#199,#192,#245,.T.);
#221=EDGE_CURVE('',#200,#201,#73,.T.);
#222=EDGE_CURVE('',#200,#193,#74,.T.);
#223=EDGE_CURVE('',#192,#201,#75,.T.);
#224=EDGE_CURVE('',#198,#202,#76,.T.);
#225=EDGE_CURVE('',#203,#202,#77,.T.);
#226=EDGE_CURVE('',#203,#199,#78,.T.);
#227=EDGE_CURVE('',#196,#204,#79,.T.);
#228=EDGE_CURVE('',#205,#204,#80,.T.);
#229=EDGE_CURVE('',#205,#197,#81,.T.);
#230=EDGE_CURVE('',#194,#206,#82,.T.);
#231=EDGE_CURVE('',#207,#206,#83,.T.);
#232=EDGE_CURVE('',#207,#195,#84,.T.);
#233=EDGE_CURVE('',#208,#208,#246,.T.);
#234=EDGE_CURVE('',#206,#200,#247,.T.);
#235=EDGE_CURVE('',#201,#203,#248,.T.);
#236=EDGE_CURVE('',#202,#205,#249,.T.);
#237=EDGE_CURVE('',#204,#207,#250,.T.);
#238=EDGE_CURVE('',#209,#209,#251,.T.);
#239=EDGE_CURVE('',#210,#210,#252,.T.);
#240=EDGE_CURVE('',#211,#211,#253,.T.);
#241=CIRCLE('',#284,2.75);
#242=CIRCLE('',#285,1.30215328348324);
#243=CIRCLE('',#286,1.30215328348324);
#244=CIRCLE('',#287,1.30215328348324);
#245=CIRCLE('',#288,1.30215328348324);
#246=CIRCLE('',#294,4.08418405623523);
#247=CIRCLE('',#295,1.984375);
#248=CIRCLE('',#296,1.984375);
#249=CIRCLE('',#297,1.984375);
#250=CIRCLE('',#298,1.984375);
#251=CIRCLE('',#304,4.00420649342281);
#252=CIRCLE('',#306,3.93344167442319);
#253=CIRCLE('',#307,2.75);
#254=CURVE_STYLE('',#258,POSITIVE_LENGTH_MEASURE(0.18),#257);
#255=CURVE_STYLE('',#259,POSITIVE_LENGTH_MEASURE(0.18),#279);
#256=CURVE_STYLE('',#260,POSITIVE_LENGTH_MEASURE(0.18),#279);
#257=DRAUGHTING_PRE_DEFINED_COLOUR('blue');
#258=DRAUGHTING_PRE_DEFINED_CURVE_FONT('continuous');
#259=DRAUGHTING_PRE_DEFINED_CURVE_FONT('continuous');
#260=DRAUGHTING_PRE_DEFINED_CURVE_FONT('continuous');
#261=B_SPLINE_CURVE_WITH_KNOTS('CUTTING EDGE LINE',5,(#390,#391,#392,#393,#394,#395,
     #396,#397,#398,#399,#400,#401,#402,#403,#404,#405,#406,#407,#408,#409,#410,
     #411,#412,#413,#414,#415,#416,#417,#418,#419,#420,#421,#422,#423,#424,#425,
     #426,#427,#428,#429,#430,#431,#432,#433,#434,#435,#436,#437,#438,#439,#440,
     #441,#442,#443,#444,#445,#446,#447,#448,#449,#450,#451,#452,#453,#454,#455),
     .UNSPECIFIED.,.T.,.F.,(2,4,1,4,4,1,1,1,1,1,1,1,1,1,1,1,1,1,1,1,4,4,1,4,4,1,
     1,1,1,1,1,1,1,1,1,1,1,1,1,1,4,4,1,1),(-0.2075091229,0.0,0.00826211499999996,
     0.01652423,0.2240333528,0.22831194806875,0.2325905433375,0.23686913860625,0.241147733875016,
     0.24542632914375,0.2497049244125,0.25398351968125,0.258262114950106,0.26254071021875,
     0.2668193054875,0.27109790075625,0.275376496025046,0.27965509129375,0.2839336865625,
     0.28821228183125,0.2924908771,0.5,0.508262115,0.51652423,0.7240333528,0.72831194806875,
     0.7325905433375,0.73686913860625,0.741147733875037,0.74542632914375,0.7497049244125,
     0.75398351968125,0.758262114950099,0.76254071021875,0.7668193054875,0.77109790075625,
     0.775376496025047,0.77965509129375,0.7839336865625,0.78821228183125,0.7924908771,
     1.0,1.008262115,1.01652423),.UNSPECIFIED.);
#262=PRESENTATION_LAYER_ASSIGNMENT('1','Layer 1',(#261,#282,#283,#31));
#265=STYLED_ITEM('',(#271),#261);
#266=STYLED_ITEM('',(#272),#282);
#267=STYLED_ITEM('',(#273),#283);
#268=STYLED_ITEM('',(#274),#31);
#269=PRESENTATION_STYLE_ASSIGNMENT((#275));
#270=PRESENTATION_STYLE_ASSIGNMENT((#276));
#271=PRESENTATION_STYLE_ASSIGNMENT((#254));
#272=PRESENTATION_STYLE_ASSIGNMENT((#255));
#273=PRESENTATION_STYLE_ASSIGNMENT((#256));
#274=PRESENTATION_STYLE_ASSIGNMENT((#26));
#275=POINT_STYLE('',#277,POSITIVE_LENGTH_MEASURE(3.0),#279);
#276=POINT_STYLE('',#278,POSITIVE_LENGTH_MEASURE(3.0),#279);
#277=PRE_DEFINED_POINT_MARKER_SYMBOL('plus');
#278=PRE_DEFINED_POINT_MARKER_SYMBOL('plus');
#279=COLOUR_RGB('Medium Maroon',0.6,0.4,0.4);
#280=COLOUR_RGB('IsoInsertColor',0.8,0.8,0.8);
#281=AXIS2_PLACEMENT_3D('',#387,#311,#312);
#282=AXIS2_PLACEMENT_3D('PCS',#456,#313,#314);
#283=AXIS2_PLACEMENT_3D('MCS',#457,#315,#316);
#284=AXIS2_PLACEMENT_3D('',#458,#317,#318);
#285=AXIS2_PLACEMENT_3D('',#463,#320,#321);
#286=AXIS2_PLACEMENT_3D('',#467,#323,#324);
#287=AXIS2_PLACEMENT_3D('',#471,#326,#327);
#288=AXIS2_PLACEMENT_3D('',#475,#329,#330);
#289=AXIS2_PLACEMENT_3D('',#476,#331,#332);
#290=AXIS2_PLACEMENT_3D('',#482,#336,#337);
#291=AXIS2_PLACEMENT_3D('',#488,#341,#342);
#292=AXIS2_PLACEMENT_3D('',#494,#346,#347);
#293=AXIS2_PLACEMENT_3D('',#500,#351,#352);
#294=AXIS2_PLACEMENT_3D('',#501,#353,#354);
#295=AXIS2_PLACEMENT_3D('',#503,#355,#356);
#296=AXIS2_PLACEMENT_3D('',#504,#357,#358);
#297=AXIS2_PLACEMENT_3D('',#505,#359,#360);
#298=AXIS2_PLACEMENT_3D('',#506,#361,#362);
#299=AXIS2_PLACEMENT_3D('',#507,#363,#364);
#300=AXIS2_PLACEMENT_3D('',#508,#365,#366);
#301=AXIS2_PLACEMENT_3D('',#509,#367,#368);
#302=AXIS2_PLACEMENT_3D('',#510,#369,#370);
#303=AXIS2_PLACEMENT_3D('',#511,#371,#372);
#304=AXIS2_PLACEMENT_3D('',#512,#373,#374);
#305=AXIS2_PLACEMENT_3D('',#514,#375,#376);
#306=AXIS2_PLACEMENT_3D('',#515,#377,#378);
#307=AXIS2_PLACEMENT_3D('',#517,#379,#380);
#308=AXIS2_PLACEMENT_3D('',#519,#381,#382);
#309=AXIS2_PLACEMENT_3D('',#520,#383,#384);
#310=AXIS2_PLACEMENT_3D('',#521,#385,#386);
#311=DIRECTION('',(0.0,0.0,1.0));
#312=DIRECTION('',(1.0,0.0,0.0));
#313=DIRECTION('',(0.0,0.0,1.0));
#314=DIRECTION('',(1.0,0.0,0.0));
#315=DIRECTION('',(0.0,0.0,1.0));
#316=DIRECTION('',(1.0,0.0,0.0));
#317=DIRECTION('',(0.0,0.0,1.0));
#318=DIRECTION('',(-0.953716950748227,-0.300705799504273,0.0));
#319=DIRECTION('',(1.0,8.88178419700125E-16,0.0));
#320=DIRECTION('',(0.0,0.0,-1.0));
#321=DIRECTION('',(-0.953716950748227,-0.300705799504273,0.0));
#322=DIRECTION('',(-0.819152044288991,-0.573576436351047,0.0));
#323=DIRECTION('',(0.0,0.0,-1.0));
#324=DIRECTION('',(-0.953716950748227,-0.300705799504273,0.0));
#325=DIRECTION('',(-1.0,5.55111512312578E-17,0.0));
#326=DIRECTION('',(0.0,0.0,-1.0));
#327=DIRECTION('',(-0.953716950748227,-0.300705799504273,0.0));
#328=DIRECTION('',(0.819152044288992,0.573576436351046,0.0));
#329=DIRECTION('',(0.0,0.0,-1.0));
#330=DIRECTION('',(-0.953716950748227,-0.300705799504273,0.0));
#331=DIRECTION('',(0.0,0.0,1.0));
#332=DIRECTION('',(-0.953716950748227,-0.300705799504273,0.0));
#333=DIRECTION('',(-1.0,-8.88178419700125E-16,-5.92762165459882E-17));
#334=DIRECTION('',(1.73472347597681E-16,-0.121869343405148,-0.992546151641322));
#335=DIRECTION('',(-1.73472347597681E-16,0.121869343405148,0.992546151641322));
#336=DIRECTION('',(8.88178419700125E-16,-0.992546151641322,0.121869343405148));
#337=DIRECTION('',(1.0,8.88178419700125E-16,0.0));
#338=DIRECTION('',(-0.0699013836907664,0.0998295217864841,0.992546151641322));
#339=DIRECTION('',(-0.819152044288992,-0.573576436351046,2.08084218499979E-16));
#340=DIRECTION('',(0.0699013836907664,-0.0998295217864841,-0.992546151641322));
#341=DIRECTION('',(0.569301084572375,-0.813046209168161,0.121869343405148));
#342=DIRECTION('',(0.819152044288992,0.573576436351046,0.0));
#343=DIRECTION('',(-7.63278329429795E-17,-0.121869343405147,0.992546151641322));
#344=DIRECTION('',(1.0,-5.55111512312578E-17,5.92762165459886E-17));
#345=DIRECTION('',(7.63278329429795E-17,0.121869343405147,-0.992546151641322));
#346=DIRECTION('',(1.11022302462516E-16,0.992546151641322,0.121869343405147));
#347=DIRECTION('',(-1.0,5.55111512312578E-17,0.0));
#348=DIRECTION('',(0.0699013836907664,-0.0998295217864831,0.992546151641322));
#349=DIRECTION('',(0.819152044288991,0.573576436351047,-2.0808421849998E-16));
#350=DIRECTION('',(-0.0699013836907664,0.0998295217864831,-0.992546151641322));
#351=DIRECTION('',(-0.569301084572376,0.81304620916816,0.121869343405147));
#352=DIRECTION('',(-0.819152044288991,-0.573576436351047,0.0));
#353=DIRECTION('',(0.0,0.0,1.0));
#354=DIRECTION('',(-0.953716950748227,-0.300705799504273,0.0));
#355=DIRECTION('',(-6.01698676553747E-17,4.54184586103904E-16,1.0));
#356=DIRECTION('',(-0.300705799504272,0.953716950748227,-4.51256966695236E-16));
#357=DIRECTION('',(-6.01698676553747E-17,4.54184586103904E-16,1.0));
#358=DIRECTION('',(-0.300705799504274,0.953716950748227,-4.51256966695236E-16));
#359=DIRECTION('',(-6.01698676553747E-17,4.54184586103904E-16,1.0));
#360=DIRECTION('',(-0.300705799504273,0.953716950748227,-4.51256966695236E-16));
#361=DIRECTION('',(-6.01698676553747E-17,4.54184586103904E-16,1.0));
#362=DIRECTION('',(-0.300705799504274,0.953716950748227,-4.51256966695236E-16));
#363=DIRECTION('',(-6.01698676553747E-17,4.54184586103904E-16,1.0));
#364=DIRECTION('',(-0.300705799504273,0.953716950748227,-4.51256966695236E-16));
#365=DIRECTION('',(-6.01698676553747E-17,4.54184586103904E-16,1.0));
#366=DIRECTION('',(-0.300705799504273,0.953716950748227,-8.62016292214433E-16));
#367=DIRECTION('',(-6.01698676553747E-17,4.54184586103904E-16,1.0));
#368=DIRECTION('',(-0.300705799504273,0.953716950748227,-8.82871525090589E-16));
#369=DIRECTION('',(-6.01698676553747E-17,4.54184586103904E-16,1.0));
#370=DIRECTION('',(-0.300705799504273,0.953716950748227,-8.75919780798537E-16));
#371=DIRECTION('',(-6.01698676553747E-17,4.54184586103904E-16,1.0));
#372=DIRECTION('',(-0.300705799504273,0.953716950748227,-8.55064547922381E-16));
#373=DIRECTION('',(0.0,0.0,-1.0));
#374=DIRECTION('',(0.953716950748227,0.300705799504273,0.0));
#375=DIRECTION('',(0.0,0.0,1.0));
#376=DIRECTION('',(-0.953716950748227,-0.300705799504273,-3.14231976148307E-16));
#377=DIRECTION('',(0.0,0.0,1.0));
#378=DIRECTION('',(0.953716950748227,0.300705799504273,0.0));
#379=DIRECTION('',(0.0,0.0,-1.0));
#380=DIRECTION('',(-0.953716950748227,-0.300705799504273,0.0));
#381=DIRECTION('',(0.0,0.0,1.0));
#382=DIRECTION('',(-0.953716950748227,-0.300705799504273,0.0));
#383=DIRECTION('',(0.0,0.0,1.0));
#384=DIRECTION('',(-0.953716950748226,-0.300705799504273,0.0));
#385=DIRECTION('',(0.0,0.0,-1.0));
#386=DIRECTION('',(0.953716950748227,0.300705799504273,0.0));
#387=CARTESIAN_POINT('',(0.0,0.0,0.0));
#390=CARTESIAN_POINT('',(18.4716093033529,4.44089209850063E-15,0.0));
#391=CARTESIAN_POINT('',(21.6354458843845,3.5527136788005E-15,9.08453367350688E-16));
#392=CARTESIAN_POINT('',(21.874131112741,0.0179435081057031,9.14665361149952E-16));
#393=CARTESIAN_POINT('',(22.1189442772289,0.0724075954753776,9.07480199723131E-16));
#394=CARTESIAN_POINT('',(22.3507227985307,0.16821228942498,8.29066519966935E-16));
#395=CARTESIAN_POINT('',(22.5565342647154,0.290418050768849,5.86208572707932E-16));
#396=CARTESIAN_POINT('',(25.1481974678637,2.10512016211403,8.06764028250702E-17));
#397=CARTESIAN_POINT('',(27.6421009246371,3.85137016211403,-5.91645678915759E-32));
#398=CARTESIAN_POINT('',(30.1360043814105,5.59762016211403,3.94430452610506E-31));
#399=CARTESIAN_POINT('',(32.6299078381839,7.34387016211403,8.06764028250703E-17));
#400=CARTESIAN_POINT('',(35.1718701296625,9.12377132045217,4.31328071840041E-16));
#401=CARTESIAN_POINT('',(35.2655005172474,9.19462584370974,4.76728895802994E-16));
#402=CARTESIAN_POINT('',(35.405037294136,9.31692794424479,5.20021725570508E-16));
#403=CARTESIAN_POINT('',(35.5714571555513,9.50211214701808,5.28141215103663E-16));
#404=CARTESIAN_POINT('',(35.747416329072,9.77378176369064,4.79238518412756E-16));
#405=CARTESIAN_POINT('',(35.8773085585483,10.0732620264742,3.84712203494672E-16));
#406=CARTESIAN_POINT('',(35.9566438320618,10.3909585688537,2.60664065528229E-16));
#407=CARTESIAN_POINT('',(35.9828173655976,10.7115727842412,1.21532659294029E-16));
#408=CARTESIAN_POINT('',(35.9574539131364,11.0267167505973,-2.25553980412392E-17));
#409=CARTESIAN_POINT('',(35.8881959981717,11.3155047332743,-1.5797333121393E-16));
#410=CARTESIAN_POINT('',(35.7792867788309,11.5917907077106,-2.90124157126331E-16));
#411=CARTESIAN_POINT('',(35.6193041496043,11.8644894106712,-4.22961327761048E-16));
#412=CARTESIAN_POINT('',(35.4139672869984,12.1121086785401,-5.42296505322474E-16));
#413=CARTESIAN_POINT('',(35.1667563848965,12.3268456072345,-6.37416844525796E-16));
#414=CARTESIAN_POINT('',(34.8885800776987,12.4976623546251,-6.94114899932907E-16));
#415=CARTESIAN_POINT('',(34.5886194704018,12.6192750408021,-6.96014531420305E-16));
#416=CARTESIAN_POINT('',(34.3460790056188,12.6755145480251,-6.44306567997113E-16));
#417=CARTESIAN_POINT('',(34.161627566594,12.6956635564715,-5.63516535486604E-16));
#418=CARTESIAN_POINT('',(34.0442895582468,12.7,-4.92169789710868E-16));
#419=CARTESIAN_POINT('',(30.9411265872199,12.7,-9.01272538049935E-17));
#420=CARTESIAN_POINT('',(27.8966326203666,12.7,-1.18329135783152E-31));
#421=CARTESIAN_POINT('',(24.8521386535132,12.7,7.88860905221012E-32));
#422=CARTESIAN_POINT('',(21.8076446866599,12.7,-9.01272538049934E-17));
#423=CARTESIAN_POINT('',(18.6438081056283,12.7,-6.33900241808923E-16));
#424=CARTESIAN_POINT('',(18.4051228772718,12.6820564918943,-8.63248156331616E-16));
#425=CARTESIAN_POINT('',(18.1603097127839,12.6275924045246,-9.10631902911462E-16));
#426=CARTESIAN_POINT('',(17.9285311914821,12.531787710575,-8.29066519966935E-16));
#427=CARTESIAN_POINT('',(17.7227197252974,12.4095819492311,-5.86208572707932E-16));
#428=CARTESIAN_POINT('',(15.1310565221491,10.594879837886,-8.06764028250702E-17));
#429=CARTESIAN_POINT('',(12.6371530653756,8.84862983788596,9.86076131526265E-33));
#430=CARTESIAN_POINT('',(10.1432496086022,7.10237983788596,-3.15544362088405E-31));
#431=CARTESIAN_POINT('',(7.64934615182883,5.35612983788597,-8.06764028250702E-17));
#432=CARTESIAN_POINT('',(5.10738386035024,3.57622867954784,-4.31328071840042E-16));
#433=CARTESIAN_POINT('',(5.01375347276536,3.50537415629026,-4.76728895802995E-16));
#434=CARTESIAN_POINT('',(4.87421669587676,3.38307205575521,-5.20021725570508E-16));
#435=CARTESIAN_POINT('',(4.70779683446124,3.19788785298169,-5.28141215103675E-16));
#436=CARTESIAN_POINT('',(4.53183766094057,2.92621823630908,-4.79238518412689E-16));
#437=CARTESIAN_POINT('',(4.40194543146432,2.62673797352544,-3.8471220349456E-16));
#438=CARTESIAN_POINT('',(4.32261015795087,2.30904143114596,-2.60664065528087E-16));
#439=CARTESIAN_POINT('',(4.29643662441519,1.98842721575864,-1.21532659293933E-16));
#440=CARTESIAN_POINT('',(4.32180007687636,1.67328324940278,2.25553980411856E-17));
#441=CARTESIAN_POINT('',(4.39105799184098,1.3844952667258,1.5797333121389E-16));
#442=CARTESIAN_POINT('',(4.49996721118178,1.10820929228949,2.90124157126271E-16));
#443=CARTESIAN_POINT('',(4.6599498404084,0.835510589328908,4.22961327761011E-16));
#444=CARTESIAN_POINT('',(4.86528670301437,0.587891321459892,5.42296505322474E-16));
#445=CARTESIAN_POINT('',(5.1124976051163,0.373154392765529,6.37416844525798E-16));
#446=CARTESIAN_POINT('',(5.39067391231407,0.202337645374855,6.94114899932907E-16));
#447=CARTESIAN_POINT('',(5.69063451961095,0.08072495919789,6.96014531420306E-16));
#448=CARTESIAN_POINT('',(5.93317498439393,0.0244854519749058,6.44306567997112E-16));
#449=CARTESIAN_POINT('',(6.11762642341882,0.00433644352847384,5.63516535486604E-16));
#450=CARTESIAN_POINT('',(6.23496443176597,8.88178419700125E-15,4.92169789710868E-16));
#451=CARTESIAN_POINT('',(9.33812740279286,6.21724893790088E-15,9.01272538049935E-17));
#452=CARTESIAN_POINT('',(12.3826213696462,6.21724893790088E-15,7.88860905221012E-32));
#453=CARTESIAN_POINT('',(15.4271153364995,2.66453525910038E-15,0.0));
#454=CARTESIAN_POINT('',(18.4716093033529,4.44089209850063E-15,0.0));
#455=CARTESIAN_POINT('',(21.6354458843845,3.5527136788005E-15,9.08453367350688E-16));
#456=CARTESIAN_POINT('',(0.0,0.0,0.0));
#457=CARTESIAN_POINT('',(20.1396269950064,6.35,0.0));
#458=CARTESIAN_POINT('',(20.1396269950064,6.35,-5.55625));
#459=CARTESIAN_POINT('',(17.5169053804488,5.52305905136325,-5.55625));
#460=CARTESIAN_POINT('',(20.1396269950064,12.0177782834832,-5.55625));
#461=CARTESIAN_POINT('',(18.7631507198066,12.0177782834832,-5.55625));
#462=CARTESIAN_POINT('',(33.9856205540732,12.0177782834832,-5.55625));
#463=CARTESIAN_POINT('',(33.9856205540732,10.715625,-5.55625));
#464=CARTESIAN_POINT('',(34.7325049939964,9.64896347585707,-5.55625));
#465=CARTESIAN_POINT('',(23.3905310648745,1.70722783250795,-5.55625));
#466=CARTESIAN_POINT('',(22.2629877101293,0.917713475857085,-5.55625));
#467=CARTESIAN_POINT('',(21.5161032702062,1.98437500000001,-5.55625));
#468=CARTESIAN_POINT('',(21.5161032702062,0.682221716516765,-5.55625));
#469=CARTESIAN_POINT('',(20.1396269950064,0.682221716516765,-5.55625));
#470=CARTESIAN_POINT('',(6.29363343593953,0.682221716516766,-5.55625));
#471=CARTESIAN_POINT('',(6.29363343593953,1.98437500000001,-5.55625));
#472=CARTESIAN_POINT('',(5.5467489960164,3.05103652414293,-5.55625));
#473=CARTESIAN_POINT('',(16.8887229251382,10.992772167492,-5.55625));
#474=CARTESIAN_POINT('',(18.0162662798834,11.7822865241429,-5.55625));
#475=CARTESIAN_POINT('',(18.7631507198066,10.715625,-5.55625));
#476=CARTESIAN_POINT('',(19.8947478132899,5.87959146865531,-5.55625));
#477=CARTESIAN_POINT('',(20.1396269950064,12.7,-5.81748951963656E-15));
#478=CARTESIAN_POINT('',(33.9856205540732,12.7,-4.98437791963034E-15));
#479=CARTESIAN_POINT('',(18.7631507198066,12.7,-5.90031191494609E-15));
#480=CARTESIAN_POINT('',(33.9856205540732,12.7,-4.17219489465883E-15));
#481=CARTESIAN_POINT('',(18.7631507198066,12.7,-5.0256965156053E-15));
#482=CARTESIAN_POINT('',(20.1396269950064,12.7,-5.81748951963656E-15));
#483=CARTESIAN_POINT('',(5.15544269505542,3.60987983788598,-2.63764169189069E-15));
#484=CARTESIAN_POINT('',(5.15544269505542,3.60987983788598,-2.59049344242385E-15));
#485=CARTESIAN_POINT('',(16.4974166241773,11.5516154812351,-5.51506228827902E-15));
#486=CARTESIAN_POINT('',(17.6249599789225,12.341129837886,-5.80580340514686E-15));
#487=CARTESIAN_POINT('',(17.6249599789225,12.341129837886,-5.2133366664664E-15));
#488=CARTESIAN_POINT('',(16.4974166241772,11.5516154812351,-5.51506228827901E-15));
#489=CARTESIAN_POINT('',(21.5161032702062,3.46944695195361E-15,2.08336123496695E-16));
#490=CARTESIAN_POINT('',(21.5161032702062,3.46944695195361E-15,3.34771191925423E-17));
#491=CARTESIAN_POINT('',(20.1396269950064,5.20417042793042E-15,-4.93452761169933E-17));
#492=CARTESIAN_POINT('',(6.29363343593953,5.20417042793042E-15,-8.82456876123218E-16));
#493=CARTESIAN_POINT('',(6.29363343593953,5.20417042793042E-15,-6.38451075643341E-16));
#494=CARTESIAN_POINT('',(20.1396269950064,4.33680868994202E-15,-4.93452761169941E-17));
#495=CARTESIAN_POINT('',(35.1238112949573,9.09012016211402,-2.53573769677675E-15));
#496=CARTESIAN_POINT('',(35.1238112949573,9.09012016211402,-3.2763413533297E-15));
#497=CARTESIAN_POINT('',(23.7818373658355,1.14838451876491,-3.51772507474541E-16));
#498=CARTESIAN_POINT('',(22.6542940110903,0.358870162114037,-6.10313906066902E-17));
#499=CARTESIAN_POINT('',(22.6542940110903,0.358870162114037,-4.16097432444795E-17));
#500=CARTESIAN_POINT('',(23.7818373658355,1.14838451876491,-3.51772507474539E-16));
#501=CARTESIAN_POINT('',(20.1396269950064,6.35,0.0));
#502=CARTESIAN_POINT('',(16.2444714305992,5.12186216804718,0.0));
#503=CARTESIAN_POINT('',(33.9856205540732,10.715625,-4.08310538158041E-15));
#504=CARTESIAN_POINT('',(18.7631507198066,10.715625,-4.99903937689616E-15));
#505=CARTESIAN_POINT('',(6.29363343593953,1.98437500000001,-1.78372941417315E-15));
#506=CARTESIAN_POINT('',(21.5161032702062,1.98437500000001,-8.67795418857393E-16));
#507=CARTESIAN_POINT('',(20.1396269950064,6.35,-2.93341739787678E-15));
#508=CARTESIAN_POINT('',(33.9856205540732,10.715625,-3.46944695195361E-15));
#509=CARTESIAN_POINT('',(21.5161032702062,1.98437500000001,-8.67361737988404E-16));
#510=CARTESIAN_POINT('',(6.29363343593953,1.98437500000001,-1.73472347597681E-15));
#511=CARTESIAN_POINT('',(18.7631507198066,10.715625,-4.33680868994202E-15));
#512=CARTESIAN_POINT('',(20.1396269950064,6.35,-1.9912674574295));
#513=CARTESIAN_POINT('',(23.9585066020798,7.55408811498491,-1.9912674574295));
#514=CARTESIAN_POINT('',(20.1396269950064,6.35,-2.0960000000234));
#515=CARTESIAN_POINT('',(20.1396269950064,6.35,-2.17303704527998));
#516=CARTESIAN_POINT('',(23.8910169946833,7.53280872351086,-2.17303704527998));
#517=CARTESIAN_POINT('',(20.1396269950064,6.35,-5.40318913883074));
#518=CARTESIAN_POINT('',(17.5169053804488,5.52305905136325,-5.40318913883074));
#519=CARTESIAN_POINT('',(20.1396269950064,6.35,-5.40318913883074));
#520=CARTESIAN_POINT('',(20.1396269950064,6.35,-33.3676978394524));
#521=CARTESIAN_POINT('',(20.1396269950064,6.35,-1.97922791966693));
#522=MECHANICAL_DESIGN_GEOMETRIC_PRESENTATION_REPRESENTATION('',(#265,#266,#267,
     #268),#523);
#523=(GEOMETRIC_REPRESENTATION_CONTEXT(3)GLOBAL_UNCERTAINTY_ASSIGNED_CONTEXT((#524))
     GLOBAL_UNIT_ASSIGNED_CONTEXT((#530,#526,#525))REPRESENTATION_CONTEXT('VCGX220520',
     'TOP_LEVEL_ASSEMBLY_PART'));
#524=UNCERTAINTY_MEASURE_WITH_UNIT(LENGTH_MEASURE(2.0E-5),#530,'DISTANCE_ACCURACY_VALUE',
     'Maximum Tolerance applied to model');
#525=(NAMED_UNIT(*)SI_UNIT($,.STERADIAN.)SOLID_ANGLE_UNIT());
#526=(CONVERSION_BASED_UNIT('DEGREE',#528)NAMED_UNIT(#527)PLANE_ANGLE_UNIT());
#527=DIMENSIONAL_EXPONENTS(0.0,0.0,0.0,0.0,0.0,0.0,0.0);
#528=PLANE_ANGLE_MEASURE_WITH_UNIT(PLANE_ANGLE_MEASURE(0.0174532925),#529);
#529=(NAMED_UNIT(*)PLANE_ANGLE_UNIT()SI_UNIT($,.RADIAN.));
#530=(LENGTH_UNIT()NAMED_UNIT(*)SI_UNIT(.MILLI.,.METRE.));
#531=CONSTRUCTIVE_GEOMETRY_REPRESENTATION('supplemental geometry',(#282,#283),#523);
#532=CONSTRUCTIVE_GEOMETRY_REPRESENTATION_RELATIONSHIP('supplemental geometry','contains PCS and MCS coordinate systems',
     #24,#531);
ENDSEC;
END-ISO-10303-21;
