ISO-10303-21;
HEADER;
FILE_DESCRIPTION(
/* description */ (''),
/* implementation_level */ '2;1');
FILE_NAME(
/* name */ 'SEGN120308.stp',
/* time_stamp */ '2017-03-21T10:54:17',
/* author */ ('Sandvik Coromant R&D'),
/* organization */ ('Sandvik Machining Solutions'),
/* preprocessor_version */ 'ST-DEVELOPER v15',
/* originating_system */ 'SIEMENS PLM Software NX v8.5.3.3(64 bits)',
/* authorization */ '');
FILE_SCHEMA(('AUTOMOTIVE_DESIGN'));
ENDSEC;
DATA;
#10=GEOMETRICALLY_BOUNDED_WIREFRAME_SHAPE_REPRESENTATION('IsoTurningInsert-None',
     (#25),#421);
#11=SHAPE_REPRESENTATION_RELATIONSHIP('None','relationship between IsoTurningInsert-None and IsoTurningInsert-None',
     #24,#13);
#12=SHAPE_REPRESENTATION_RELATIONSHIP('None','relationship between IsoTurningInsert-None and IsoTurningInsert-None',
     #24,#10);
#13=ADVANCED_BREP_SHAPE_REPRESENTATION('IsoTurningInsert-None',(#31),#421);
#14=SHAPE_DEFINITION_REPRESENTATION(#15,#24);
#15=PRODUCT_DEFINITION_SHAPE('','',#16);
#16=PRODUCT_DEFINITION(' ','',#18,#17);
#17=PRODUCT_DEFINITION_CONTEXT('part definition',#23,'design');
#18=PRODUCT_DEFINITION_FORMATION_WITH_SPECIFIED_SOURCE(' ',' ',#20,.NOT_KNOWN.);
#19=PRODUCT_RELATED_PRODUCT_CATEGORY('part','',(#20));
#20=PRODUCT('IsoTurningInsert','IsoTurningInsert',' ',(#21));
#21=PRODUCT_CONTEXT(' ',#23,'mechanical');
#22=APPLICATION_PROTOCOL_DEFINITION('international standard','automotive_design',
     2010,#23);
#23=APPLICATION_CONTEXT('core data for automotive mechanical design processes');
#24=SHAPE_REPRESENTATION('IsoTurningInsert-None',(#232),#421);
#25=GEOMETRIC_CURVE_SET('geometric curve set',(#212));
#26=SURFACE_STYLE_USAGE(.BOTH.,#27);
#27=SURFACE_SIDE_STYLE('',(#28));
#28=SURFACE_STYLE_FILL_AREA(#29);
#29=FILL_AREA_STYLE('',(#30));
#30=FILL_AREA_STYLE_COLOUR('',#231);
#31=MANIFOLD_SOLID_BREP('CUT',#32);
#32=CLOSED_SHELL('',(#41,#42,#43,#44,#45,#46,#47,#48,#49,#50));
#33=CONICAL_SURFACE('',#245,0.793750000000001,20.0);
#34=CONICAL_SURFACE('',#246,0.793750000000001,20.0);
#35=CONICAL_SURFACE('',#247,0.793750000000001,20.0);
#36=CONICAL_SURFACE('',#248,0.793750000000001,20.0);
#37=CIRCLE('',#240,0.793750000000001);
#38=CIRCLE('',#241,0.793750000000001);
#39=CIRCLE('',#242,0.793750000000001);
#40=CIRCLE('',#243,0.793750000000001);
#41=ADVANCED_FACE('',(#57),#51,.F.);
#42=ADVANCED_FACE('',(#58),#52,.F.);
#43=ADVANCED_FACE('',(#59),#53,.F.);
#44=ADVANCED_FACE('',(#60),#54,.F.);
#45=ADVANCED_FACE('',(#61),#55,.F.);
#46=ADVANCED_FACE('',(#62),#56,.T.);
#47=ADVANCED_FACE('',(#63),#33,.T.);
#48=ADVANCED_FACE('',(#64),#34,.T.);
#49=ADVANCED_FACE('',(#65),#35,.T.);
#50=ADVANCED_FACE('',(#66),#36,.T.);
#51=PLANE('',#235);
#52=PLANE('',#236);
#53=PLANE('',#237);
#54=PLANE('',#238);
#55=PLANE('',#239);
#56=PLANE('',#244);
#57=FACE_OUTER_BOUND('',#67,.T.);
#58=FACE_OUTER_BOUND('',#68,.T.);
#59=FACE_OUTER_BOUND('',#69,.T.);
#60=FACE_OUTER_BOUND('',#70,.T.);
#61=FACE_OUTER_BOUND('',#71,.T.);
#62=FACE_OUTER_BOUND('',#72,.T.);
#63=FACE_OUTER_BOUND('',#73,.T.);
#64=FACE_OUTER_BOUND('',#74,.T.);
#65=FACE_OUTER_BOUND('',#75,.T.);
#66=FACE_OUTER_BOUND('',#76,.T.);
#67=EDGE_LOOP('',(#77,#78,#79,#80));
#68=EDGE_LOOP('',(#81,#82,#83,#84,#85,#86));
#69=EDGE_LOOP('',(#87,#88,#89,#90,#91,#92));
#70=EDGE_LOOP('',(#93,#94,#95,#96,#97,#98));
#71=EDGE_LOOP('',(#99,#100,#101,#102,#103,#104));
#72=EDGE_LOOP('',(#105,#106,#107,#108,#109,#110,#111,#112));
#73=EDGE_LOOP('',(#113,#114,#115));
#74=EDGE_LOOP('',(#116,#117,#118));
#75=EDGE_LOOP('',(#119,#120,#121));
#76=EDGE_LOOP('',(#122,#123,#124));
#77=ORIENTED_EDGE('',*,*,#141,.T.);
#78=ORIENTED_EDGE('',*,*,#142,.T.);
#79=ORIENTED_EDGE('',*,*,#143,.T.);
#80=ORIENTED_EDGE('',*,*,#144,.T.);
#81=ORIENTED_EDGE('',*,*,#145,.F.);
#82=ORIENTED_EDGE('',*,*,#146,.T.);
#83=ORIENTED_EDGE('',*,*,#147,.F.);
#84=ORIENTED_EDGE('',*,*,#141,.F.);
#85=ORIENTED_EDGE('',*,*,#148,.T.);
#86=ORIENTED_EDGE('',*,*,#149,.T.);
#87=ORIENTED_EDGE('',*,*,#144,.F.);
#88=ORIENTED_EDGE('',*,*,#150,.T.);
#89=ORIENTED_EDGE('',*,*,#151,.T.);
#90=ORIENTED_EDGE('',*,*,#152,.F.);
#91=ORIENTED_EDGE('',*,*,#153,.T.);
#92=ORIENTED_EDGE('',*,*,#148,.F.);
#93=ORIENTED_EDGE('',*,*,#143,.F.);
#94=ORIENTED_EDGE('',*,*,#154,.T.);
#95=ORIENTED_EDGE('',*,*,#155,.T.);
#96=ORIENTED_EDGE('',*,*,#156,.F.);
#97=ORIENTED_EDGE('',*,*,#157,.T.);
#98=ORIENTED_EDGE('',*,*,#150,.F.);
#99=ORIENTED_EDGE('',*,*,#142,.F.);
#100=ORIENTED_EDGE('',*,*,#147,.T.);
#101=ORIENTED_EDGE('',*,*,#158,.T.);
#102=ORIENTED_EDGE('',*,*,#159,.F.);
#103=ORIENTED_EDGE('',*,*,#160,.T.);
#104=ORIENTED_EDGE('',*,*,#154,.F.);
#105=ORIENTED_EDGE('',*,*,#159,.T.);
#106=ORIENTED_EDGE('',*,*,#161,.T.);
#107=ORIENTED_EDGE('',*,*,#145,.T.);
#108=ORIENTED_EDGE('',*,*,#162,.T.);
#109=ORIENTED_EDGE('',*,*,#152,.T.);
#110=ORIENTED_EDGE('',*,*,#163,.T.);
#111=ORIENTED_EDGE('',*,*,#156,.T.);
#112=ORIENTED_EDGE('',*,*,#164,.T.);
#113=ORIENTED_EDGE('',*,*,#158,.F.);
#114=ORIENTED_EDGE('',*,*,#146,.F.);
#115=ORIENTED_EDGE('',*,*,#161,.F.);
#116=ORIENTED_EDGE('',*,*,#155,.F.);
#117=ORIENTED_EDGE('',*,*,#160,.F.);
#118=ORIENTED_EDGE('',*,*,#164,.F.);
#119=ORIENTED_EDGE('',*,*,#151,.F.);
#120=ORIENTED_EDGE('',*,*,#157,.F.);
#121=ORIENTED_EDGE('',*,*,#163,.F.);
#122=ORIENTED_EDGE('',*,*,#149,.F.);
#123=ORIENTED_EDGE('',*,*,#153,.F.);
#124=ORIENTED_EDGE('',*,*,#162,.F.);
#125=VERTEX_POINT('',#371);
#126=VERTEX_POINT('',#372);
#127=VERTEX_POINT('',#374);
#128=VERTEX_POINT('',#376);
#129=VERTEX_POINT('',#380);
#130=VERTEX_POINT('',#381);
#131=VERTEX_POINT('',#383);
#132=VERTEX_POINT('',#386);
#133=VERTEX_POINT('',#390);
#134=VERTEX_POINT('',#392);
#135=VERTEX_POINT('',#394);
#136=VERTEX_POINT('',#398);
#137=VERTEX_POINT('',#400);
#138=VERTEX_POINT('',#402);
#139=VERTEX_POINT('',#406);
#140=VERTEX_POINT('',#408);
#141=EDGE_CURVE('',#125,#126,#165,.T.);
#142=EDGE_CURVE('',#126,#127,#166,.T.);
#143=EDGE_CURVE('',#127,#128,#167,.T.);
#144=EDGE_CURVE('',#128,#125,#168,.T.);
#145=EDGE_CURVE('',#129,#130,#169,.T.);
#146=EDGE_CURVE('',#129,#131,#170,.T.);
#147=EDGE_CURVE('INSERT_CORNER_EDGE3',#126,#131,#171,.T.);
#148=EDGE_CURVE('INSERT_CORNER_EDGE4',#125,#132,#172,.T.);
#149=EDGE_CURVE('',#132,#130,#173,.T.);
#150=EDGE_CURVE('INSERT_CORNER_EDGE1',#128,#133,#174,.T.);
#151=EDGE_CURVE('',#133,#134,#175,.T.);
#152=EDGE_CURVE('',#135,#134,#176,.T.);
#153=EDGE_CURVE('',#135,#132,#177,.T.);
#154=EDGE_CURVE('INSERT_CORNER_EDGE2',#127,#136,#178,.T.);
#155=EDGE_CURVE('',#136,#137,#179,.T.);
#156=EDGE_CURVE('',#138,#137,#180,.T.);
#157=EDGE_CURVE('',#138,#133,#181,.T.);
#158=EDGE_CURVE('',#131,#139,#182,.T.);
#159=EDGE_CURVE('',#140,#139,#183,.T.);
#160=EDGE_CURVE('',#140,#136,#184,.T.);
#161=EDGE_CURVE('',#139,#129,#37,.T.);
#162=EDGE_CURVE('',#130,#135,#38,.T.);
#163=EDGE_CURVE('',#134,#138,#39,.T.);
#164=EDGE_CURVE('',#137,#140,#40,.T.);
#165=LINE('',#370,#185);
#166=LINE('',#373,#186);
#167=LINE('',#375,#187);
#168=LINE('',#377,#188);
#169=LINE('',#379,#189);
#170=LINE('',#382,#190);
#171=LINE('',#384,#191);
#172=LINE('',#385,#192);
#173=LINE('',#387,#193);
#174=LINE('',#389,#194);
#175=LINE('',#391,#195);
#176=LINE('',#393,#196);
#177=LINE('',#395,#197);
#178=LINE('',#397,#198);
#179=LINE('',#399,#199);
#180=LINE('',#401,#200);
#181=LINE('',#403,#201);
#182=LINE('',#405,#202);
#183=LINE('',#407,#203);
#184=LINE('',#409,#204);
#185=VECTOR('',#255,1.0);
#186=VECTOR('',#256,1.0);
#187=VECTOR('',#257,1.0);
#188=VECTOR('',#258,1.0);
#189=VECTOR('',#261,1.0);
#190=VECTOR('',#262,1.0);
#191=VECTOR('',#263,1.0);
#192=VECTOR('',#264,1.0);
#193=VECTOR('',#265,1.0);
#194=VECTOR('',#268,1.0);
#195=VECTOR('',#269,1.0);
#196=VECTOR('',#270,1.0);
#197=VECTOR('',#271,1.0);
#198=VECTOR('',#274,1.0);
#199=VECTOR('',#275,1.0);
#200=VECTOR('',#276,1.0);
#201=VECTOR('',#277,1.0);
#202=VECTOR('',#280,1.0);
#203=VECTOR('',#281,1.0);
#204=VECTOR('',#282,1.0);
#205=CURVE_STYLE('',#209,POSITIVE_LENGTH_MEASURE(0.18),#208);
#206=CURVE_STYLE('',#210,POSITIVE_LENGTH_MEASURE(0.18),#230);
#207=CURVE_STYLE('',#211,POSITIVE_LENGTH_MEASURE(0.18),#230);
#208=DRAUGHTING_PRE_DEFINED_COLOUR('blue');
#209=DRAUGHTING_PRE_DEFINED_CURVE_FONT('continuous');
#210=DRAUGHTING_PRE_DEFINED_CURVE_FONT('continuous');
#211=DRAUGHTING_PRE_DEFINED_CURVE_FONT('continuous');
#212=B_SPLINE_CURVE_WITH_KNOTS('CUTTING EDGE LINE',5,(#306,#307,#308,#309,#310,#311,
     #312,#313,#314,#315,#316,#317,#318,#319,#320,#321,#322,#323,#324,#325,#326,
     #327,#328,#329,#330,#331,#332,#333,#334,#335,#336,#337,#338,#339,#340,#341,
     #342,#343,#344,#345,#346,#347,#348,#349,#350,#351,#352,#353,#354,#355,#356,
     #357,#358,#359,#360,#361,#362,#363,#364,#365,#366,#367),.UNSPECIFIED.,.T.,.F.,
     (2,4,1,1,1,1,1,1,1,4,4,1,1,1,1,1,1,1,4,4,1,1,1,1,1,1,1,4,4,1,1,1,1,1,1,1,4,
     4,1,1),(-0.224779769,0.0,0.00315252887499995,0.00630505775000001,0.00945758662499996,
     0.0126101155,0.015762644375,0.01891517325,0.022067702125,0.025220231,0.25,0.253152528875,
     0.25630505775,0.259457586625,0.2626101155,0.265762644375,0.26891517325,0.272067702125,
     0.275220231,0.5,0.503152528875,0.50630505775,0.509457586625,0.5126101155,0.515762644375,
     0.51891517325,0.522067702125,0.525220231,0.75,0.753152528875,0.75630505775,
     0.759457586625,0.7626101155,0.765762644375,0.76891517325,0.772067702125,0.775220231,
     1.0,1.003152528875,1.00630505775),.UNSPECIFIED.);
#213=PRESENTATION_LAYER_ASSIGNMENT('1','Layer 1',(#212,#233,#234,#31));
#216=STYLED_ITEM('',(#222),#212);
#217=STYLED_ITEM('',(#223),#233);
#218=STYLED_ITEM('',(#224),#234);
#219=STYLED_ITEM('',(#225),#31);
#220=PRESENTATION_STYLE_ASSIGNMENT((#226));
#221=PRESENTATION_STYLE_ASSIGNMENT((#227));
#222=PRESENTATION_STYLE_ASSIGNMENT((#205));
#223=PRESENTATION_STYLE_ASSIGNMENT((#206));
#224=PRESENTATION_STYLE_ASSIGNMENT((#207));
#225=PRESENTATION_STYLE_ASSIGNMENT((#26));
#226=POINT_STYLE('',#228,POSITIVE_LENGTH_MEASURE(3.0),#230);
#227=POINT_STYLE('',#229,POSITIVE_LENGTH_MEASURE(3.0),#230);
#228=PRE_DEFINED_POINT_MARKER_SYMBOL('plus');
#229=PRE_DEFINED_POINT_MARKER_SYMBOL('plus');
#230=COLOUR_RGB('Medium Maroon',0.6,0.4,0.4);
#231=COLOUR_RGB('IsoInsertColor',0.8,0.8,0.8);
#232=AXIS2_PLACEMENT_3D('',#303,#249,#250);
#233=AXIS2_PLACEMENT_3D('PCS',#368,#251,#252);
#234=AXIS2_PLACEMENT_3D('MCS',#369,#253,#254);
#235=AXIS2_PLACEMENT_3D('',#378,#259,#260);
#236=AXIS2_PLACEMENT_3D('',#388,#266,#267);
#237=AXIS2_PLACEMENT_3D('',#396,#272,#273);
#238=AXIS2_PLACEMENT_3D('',#404,#278,#279);
#239=AXIS2_PLACEMENT_3D('',#410,#283,#284);
#240=AXIS2_PLACEMENT_3D('',#411,#285,#286);
#241=AXIS2_PLACEMENT_3D('',#412,#287,#288);
#242=AXIS2_PLACEMENT_3D('',#413,#289,#290);
#243=AXIS2_PLACEMENT_3D('',#414,#291,#292);
#244=AXIS2_PLACEMENT_3D('',#415,#293,#294);
#245=AXIS2_PLACEMENT_3D('',#416,#295,#296);
#246=AXIS2_PLACEMENT_3D('',#417,#297,#298);
#247=AXIS2_PLACEMENT_3D('',#418,#299,#300);
#248=AXIS2_PLACEMENT_3D('',#419,#301,#302);
#249=DIRECTION('',(0.0,0.0,1.0));
#250=DIRECTION('',(1.0,0.0,0.0));
#251=DIRECTION('',(0.0,0.0,1.0));
#252=DIRECTION('',(1.0,0.0,0.0));
#253=DIRECTION('',(0.0,0.0,1.0));
#254=DIRECTION('',(1.0,0.0,0.0));
#255=DIRECTION('',(1.0,-6.66133814775094E-16,0.0));
#256=DIRECTION('',(-2.22044604925031E-16,-1.0,0.0));
#257=DIRECTION('',(-1.0,1.11022302462516E-16,0.0));
#258=DIRECTION('',(-2.22044604925031E-16,1.0,0.0));
#259=DIRECTION('',(0.0,0.0,1.0));
#260=DIRECTION('',(-0.707106781186548,-0.707106781186547,0.0));
#261=DIRECTION('',(-1.0,7.21644966006352E-16,-9.26316473982048E-17));
#262=DIRECTION('',(-1.66533453693773E-16,-0.342020143325669,-0.939692620785908));
#263=DIRECTION('',(0.323615577118185,0.323615577118185,0.889126490715988));
#264=DIRECTION('',(-0.323615577118185,0.323615577118185,0.889126490715988));
#265=DIRECTION('',(1.66533453693773E-16,0.342020143325669,0.939692620785908));
#266=DIRECTION('',(-6.10622663543836E-16,-0.939692620785908,0.342020143325669));
#267=DIRECTION('',(1.0,-6.66133814775094E-16,0.0));
#268=DIRECTION('',(-0.323615577118185,-0.323615577118184,0.889126490715988));
#269=DIRECTION('',(-0.342020143325669,3.05311331771918E-16,0.939692620785908));
#270=DIRECTION('',(0.0,-1.0,3.65584492323503E-16));
#271=DIRECTION('',(0.342020143325669,-3.05311331771918E-16,-0.939692620785908));
#272=DIRECTION('',(0.939692620785908,1.66533453693773E-16,0.342020143325669));
#273=DIRECTION('',(-2.22044604925031E-16,1.0,0.0));
#274=DIRECTION('',(0.323615577118185,-0.323615577118184,0.889126490715989));
#275=DIRECTION('',(-1.38777878078145E-16,-0.342020143325668,0.939692620785908));
#276=DIRECTION('',(1.0,-1.11022302462516E-16,9.26316473982047E-17));
#277=DIRECTION('',(1.38777878078145E-16,0.342020143325668,-0.939692620785908));
#278=DIRECTION('',(1.11022302462516E-16,0.939692620785909,0.342020143325668));
#279=DIRECTION('',(-1.0,1.11022302462516E-16,0.0));
#280=DIRECTION('',(0.342020143325669,3.33066907387547E-16,0.939692620785908));
#281=DIRECTION('',(0.0,1.0,-3.65584492323503E-16));
#282=DIRECTION('',(-0.342020143325669,-3.33066907387547E-16,-0.939692620785908));
#283=DIRECTION('',(-0.939692620785908,1.66533453693773E-16,0.342020143325669));
#284=DIRECTION('',(-2.22044604925031E-16,-1.0,0.0));
#285=DIRECTION('',(-1.04902962956707E-16,3.68253109545943E-16,1.0));
#286=DIRECTION('',(-0.707106781186547,0.707106781186549,-3.34571867426218E-16));
#287=DIRECTION('',(-1.04902962956707E-16,3.68253109545943E-16,1.0));
#288=DIRECTION('',(-0.707106781186547,0.707106781186549,-3.34571867426218E-16));
#289=DIRECTION('',(-1.04902962956707E-16,3.68253109545943E-16,1.0));
#290=DIRECTION('',(-0.707106781186548,0.707106781186548,-3.34571867426218E-16));
#291=DIRECTION('',(-1.04902962956707E-16,3.68253109545943E-16,1.0));
#292=DIRECTION('',(-0.707106781186547,0.707106781186548,-3.34571867426218E-16));
#293=DIRECTION('',(-1.04902962956707E-16,3.68253109545943E-16,1.0));
#294=DIRECTION('',(-0.707106781186547,0.707106781186548,-3.34571867426218E-16));
#295=DIRECTION('',(-1.04902962956707E-16,3.68253109545943E-16,1.0));
#296=DIRECTION('',(-0.707106781186548,0.707106781186547,-2.92478145799382E-16));
#297=DIRECTION('',(-1.04902962956707E-16,3.68253109545943E-16,1.0));
#298=DIRECTION('',(-0.707106781186548,0.707106781186548,-3.03178565767652E-16));
#299=DIRECTION('',(-1.04902962956707E-16,3.68253109545943E-16,1.0));
#300=DIRECTION('',(-0.707106781186548,0.707106781186548,-2.99611759111562E-16));
#301=DIRECTION('',(-1.04902962956707E-16,3.68253109545943E-16,1.0));
#302=DIRECTION('',(-0.707106781186548,0.707106781186548,-2.88911339143292E-16));
#303=CARTESIAN_POINT('',(0.0,0.0,0.0));
#306=CARTESIAN_POINT('',(9.68375,-5.32907051820075E-15,0.0));
#307=CARTESIAN_POINT('',(11.9343133003783,-6.21724893790088E-15,2.95244829062124E-16));
#308=CARTESIAN_POINT('',(11.990439901135,0.00248046874999286,3.00089131191171E-16));
#309=CARTESIAN_POINT('',(12.0808258150766,0.0141836652852891,3.0464729286114E-16));
#310=CARTESIAN_POINT('',(12.1991390324252,0.04774012241257,3.02941344345989E-16));
#311=CARTESIAN_POINT('',(12.3447503789823,0.121768687071421,2.87072249021024E-16));
#312=CARTESIAN_POINT('',(12.4735178297016,0.226426072614505,2.56550493551288E-16));
#313=CARTESIAN_POINT('',(12.5782636665322,0.35536873898362,2.13291870471798E-16));
#314=CARTESIAN_POINT('',(12.652239931909,0.500645099579528,1.5993376802829E-16));
#315=CARTESIAN_POINT('',(12.6858231852527,0.619406969102023,1.13493087063027E-16));
#316=CARTESIAN_POINT('',(12.69751953125,0.709560098864972,7.67922328274329E-17));
#317=CARTESIAN_POINT('',(12.7,0.765686699621654,5.34397227319054E-17));
#318=CARTESIAN_POINT('',(12.7,3.01624999999999,2.49800180540661E-17));
#319=CARTESIAN_POINT('',(12.7,5.23874999999999,1.66533453693774E-17));
#320=CARTESIAN_POINT('',(12.7,7.46124999999999,1.66533453693775E-17));
#321=CARTESIAN_POINT('',(12.7,9.68374999999999,2.49800180540662E-17));
#322=CARTESIAN_POINT('',(12.7,11.9343133003783,3.27709274750138E-17));
#323=CARTESIAN_POINT('',(12.69751953125,11.990439901135,1.5242567221917E-17));
#324=CARTESIAN_POINT('',(12.6858163347147,12.0808258150766,-1.23742822899664E-17));
#325=CARTESIAN_POINT('',(12.6522598775874,12.1991390324252,-4.70793258883128E-17));
#326=CARTESIAN_POINT('',(12.5782313129286,12.3447503789823,-8.71988174068686E-17));
#327=CARTESIAN_POINT('',(12.4735739273855,12.4735178297016,-1.19572453993325E-16));
#328=CARTESIAN_POINT('',(12.3446312610164,12.5782636665322,-1.42436058629603E-16));
#329=CARTESIAN_POINT('',(12.1993549004205,12.652239931909,-1.54288568581543E-16));
#330=CARTESIAN_POINT('',(12.080593030898,12.6858231852527,-1.55485472788896E-16));
#331=CARTESIAN_POINT('',(11.990439901135,12.69751953125,-1.52036943143998E-16));
#332=CARTESIAN_POINT('',(11.9343133003783,12.7,-1.48373728305237E-16));
#333=CARTESIAN_POINT('',(9.68375,12.7,-8.76902717106278E-17));
#334=CARTESIAN_POINT('',(7.46125,12.7,-5.84601811404185E-17));
#335=CARTESIAN_POINT('',(5.23875,12.7,-5.84601811404185E-17));
#336=CARTESIAN_POINT('',(3.01625,12.7,-8.76902717106277E-17));
#337=CARTESIAN_POINT('',(0.765686699621662,12.7,-1.54261575025301E-16));
#338=CARTESIAN_POINT('',(0.709560098864979,12.69751953125,-1.69440274782794E-16));
#339=CARTESIAN_POINT('',(0.619174184923354,12.6858163347147,-1.9064088338684E-16));
#340=CARTESIAN_POINT('',(0.500860967574771,12.6522598775874,-2.1071953996619E-16));
#341=CARTESIAN_POINT('',(0.355249621017717,12.5782313129286,-2.21661360218629E-16));
#342=CARTESIAN_POINT('',(0.226482170298374,12.4735739273855,-2.14849111816742E-16));
#343=CARTESIAN_POINT('',(0.121736333467779,12.3446312610164,-1.90876978799683E-16));
#344=CARTESIAN_POINT('',(0.047760068091006,12.1993549004205,-1.5113987123497E-16));
#345=CARTESIAN_POINT('',(0.0141768147473371,12.080593030898,-1.10882759005945E-16));
#346=CARTESIAN_POINT('',(0.0024804687499973,11.990439901135,-7.63355126622737E-17));
#347=CARTESIAN_POINT('',(-2.66453525910038E-15,11.9343133003783,-5.34397227319056E-17));
#348=CARTESIAN_POINT('',(-3.5527136788005E-15,9.68375,-2.49800180540662E-17));
#349=CARTESIAN_POINT('',(-2.66453525910038E-15,7.46125,-1.66533453693774E-17));
#350=CARTESIAN_POINT('',(-3.5527136788005E-15,5.23875,-1.66533453693772E-17));
#351=CARTESIAN_POINT('',(-3.5527136788005E-15,3.01624999999999,-2.49800180540657E-17));
#352=CARTESIAN_POINT('',(-3.5527136788005E-15,0.765686699621649,-3.27709274750129E-17));
#353=CARTESIAN_POINT('',(0.00248046874999286,0.709560098864964,-1.5242567221916E-17));
#354=CARTESIAN_POINT('',(0.0141836652852927,0.619174184923348,1.23742822899674E-17));
#355=CARTESIAN_POINT('',(0.0477401224125709,0.500860967574756,4.70793258883138E-17));
#356=CARTESIAN_POINT('',(0.121768687071427,0.355249621017705,8.71988174068696E-17));
#357=CARTESIAN_POINT('',(0.226426072614512,0.226482170298367,1.19572453993326E-16));
#358=CARTESIAN_POINT('',(0.355368738983623,0.121736333467772,1.42436058629604E-16));
#359=CARTESIAN_POINT('',(0.500645099579531,0.0477600680910006,1.54288568581543E-16));
#360=CARTESIAN_POINT('',(0.619406969102024,0.0141768147473282,1.55485472788896E-16));
#361=CARTESIAN_POINT('',(0.709560098864976,0.00248046874999375,1.52036943143998E-16));
#362=CARTESIAN_POINT('',(0.765686699621657,-6.21724893790088E-15,1.48373728305237E-16));
#363=CARTESIAN_POINT('',(3.01625,-6.21724893790088E-15,8.76902717106278E-17));
#364=CARTESIAN_POINT('',(5.23875,-5.32907051820075E-15,4.38451358553139E-17));
#365=CARTESIAN_POINT('',(7.46125,-5.32907051820075E-15,1.46150452851046E-17));
#366=CARTESIAN_POINT('',(9.68375,-5.32907051820075E-15,0.0));
#367=CARTESIAN_POINT('',(11.9343133003783,-6.21724893790088E-15,2.95244829062124E-16));
#368=CARTESIAN_POINT('',(0.0,0.0,0.0));
#369=CARTESIAN_POINT('',(6.35,6.35,0.0));
#370=CARTESIAN_POINT('',(6.35,11.5443945062048,-3.175));
#371=CARTESIAN_POINT('',(1.15560549379519,11.5443945062048,-3.175));
#372=CARTESIAN_POINT('',(11.5443945062048,11.5443945062048,-3.175));
#373=CARTESIAN_POINT('',(11.5443945062048,6.34999999999999,-3.175));
#374=CARTESIAN_POINT('',(11.5443945062048,1.15560549379519,-3.175));
#375=CARTESIAN_POINT('',(6.35,1.15560549379519,-3.175));
#376=CARTESIAN_POINT('',(1.15560549379519,1.15560549379519,-3.175));
#377=CARTESIAN_POINT('',(1.15560549379519,6.34999999999999,-3.175));
#378=CARTESIAN_POINT('',(6.35,5.81966991411009,-3.175));
#379=CARTESIAN_POINT('',(6.35000000000001,12.7,-5.27182464349352E-15));
#380=CARTESIAN_POINT('',(11.90625,12.7,-4.68895755556531E-15));
#381=CARTESIAN_POINT('',(0.793750000000001,12.7,-5.85469173142172E-15));
#382=CARTESIAN_POINT('',(11.90625,12.7,-4.88091951847245E-15));
#383=CARTESIAN_POINT('',(11.90625,11.90625,-2.18081020169212));
#384=CARTESIAN_POINT('',(12.0349832848651,12.034983284865,-1.82711840839317));
#385=CARTESIAN_POINT('',(0.665016715134948,12.034983284865,-1.82711840839318));
#386=CARTESIAN_POINT('',(0.79375,11.90625,-2.18081020169213));
#387=CARTESIAN_POINT('',(0.793750000000001,12.7,-6.25921398490226E-15));
#388=CARTESIAN_POINT('',(6.35,12.7,-5.27182464349352E-15));
#389=CARTESIAN_POINT('',(0.665016715134948,0.665016715134945,-1.82711840839317));
#390=CARTESIAN_POINT('',(0.793749999999992,0.793749999999991,-2.18081020169209));
#391=CARTESIAN_POINT('',(-3.46944695195361E-15,0.793749999999992,-2.01451579594082E-15));
#392=CARTESIAN_POINT('',(-3.46944695195361E-15,0.793749999999992,-1.55344487273723E-15));
#393=CARTESIAN_POINT('',(-3.46944695195361E-15,6.35,-3.59955121265187E-15));
#394=CARTESIAN_POINT('',(-4.33680868994202E-15,11.90625,-5.64565755256652E-15));
#395=CARTESIAN_POINT('',(-4.33680868994202E-15,11.90625,-5.65458783514632E-15));
#396=CARTESIAN_POINT('',(-3.46944695195361E-15,6.34999999999999,-3.59955121265187E-15));
#397=CARTESIAN_POINT('',(12.0349832848651,0.665016715134947,-1.82711840839317));
#398=CARTESIAN_POINT('',(11.90625,0.793749999999993,-2.18081020169211));
#399=CARTESIAN_POINT('',(11.90625,-4.33680868994202E-15,-1.31063931214276E-16));
#400=CARTESIAN_POINT('',(11.90625,-4.33680868994202E-15,-1.21430643318381E-17));
#401=CARTESIAN_POINT('',(6.35,-5.20417042793042E-15,-5.95010152260044E-16));
#402=CARTESIAN_POINT('',(0.793749999999999,-4.33680868994202E-15,-1.17787724018825E-15));
#403=CARTESIAN_POINT('',(0.793749999999999,-4.33680868994202E-15,-1.2765001588878E-15));
#404=CARTESIAN_POINT('',(6.35,-4.33680868994202E-15,-5.95010152260044E-16));
#405=CARTESIAN_POINT('',(12.7,11.90625,-4.81238371511694E-15));
#406=CARTESIAN_POINT('',(12.7,11.90625,-4.31338992301633E-15));
#407=CARTESIAN_POINT('',(12.7,6.35,-2.26728358310169E-15));
#408=CARTESIAN_POINT('',(12.7,0.793749999999994,-2.21177243187043E-16));
#409=CARTESIAN_POINT('',(12.7,0.793749999999994,-5.02831842213927E-16));
#410=CARTESIAN_POINT('',(12.7,6.34999999999999,-2.26728358310169E-15));
#411=CARTESIAN_POINT('',(11.90625,11.90625,-4.39665664986322E-15));
#412=CARTESIAN_POINT('',(0.793749999999999,11.90625,-5.56239082571963E-15));
#413=CARTESIAN_POINT('',(0.793749999999997,0.793749999999994,-1.47017814589034E-15));
#414=CARTESIAN_POINT('',(11.90625,0.793749999999994,-3.0444397003393E-16));
#415=CARTESIAN_POINT('',(6.35,6.35,-2.93341739787678E-15));
#416=CARTESIAN_POINT('',(11.90625,11.90625,-4.33680868994202E-15));
#417=CARTESIAN_POINT('',(11.90625,0.793749999999994,-4.33680868994202E-16));
#418=CARTESIAN_POINT('',(0.793749999999997,0.793749999999994,-1.73472347597681E-15));
#419=CARTESIAN_POINT('',(0.793749999999999,11.90625,-5.63785129692462E-15));
#420=MECHANICAL_DESIGN_GEOMETRIC_PRESENTATION_REPRESENTATION('',(#216,#217,#218,
     #219),#421);
#421=(GEOMETRIC_REPRESENTATION_CONTEXT(3)GLOBAL_UNCERTAINTY_ASSIGNED_CONTEXT((#422))
     GLOBAL_UNIT_ASSIGNED_CONTEXT((#428,#424,#423))REPRESENTATION_CONTEXT('SEGN120308',
     'TOP_LEVEL_ASSEMBLY_PART'));
#422=UNCERTAINTY_MEASURE_WITH_UNIT(LENGTH_MEASURE(2.0E-5),#428,'DISTANCE_ACCURACY_VALUE',
     'Maximum Tolerance applied to model');
#423=(NAMED_UNIT(*)SI_UNIT($,.STERADIAN.)SOLID_ANGLE_UNIT());
#424=(CONVERSION_BASED_UNIT('DEGREE',#426)NAMED_UNIT(#425)PLANE_ANGLE_UNIT());
#425=DIMENSIONAL_EXPONENTS(0.0,0.0,0.0,0.0,0.0,0.0,0.0);
#426=PLANE_ANGLE_MEASURE_WITH_UNIT(PLANE_ANGLE_MEASURE(0.0174532925),#427);
#427=(NAMED_UNIT(*)PLANE_ANGLE_UNIT()SI_UNIT($,.RADIAN.));
#428=(LENGTH_UNIT()NAMED_UNIT(*)SI_UNIT(.MILLI.,.METRE.));
#429=CONSTRUCTIVE_GEOMETRY_REPRESENTATION('supplemental geometry',(#233,#234),#421);
#430=CONSTRUCTIVE_GEOMETRY_REPRESENTATION_RELATIONSHIP('supplemental geometry','contains PCS and MCS coordinate systems',
     #24,#429);
ENDSEC;
END-ISO-10303-21;
