ISO-10303-21;
HEADER;
FILE_DESCRIPTION(
/* description */ (''),
/* implementation_level */ '2;1');
FILE_NAME(
/* name */ 'RNGN250700.stp',
/* time_stamp */ '2017-03-21T10:54:15',
/* author */ ('Sandvik Coromant R&D'),
/* organization */ ('Sandvik Machining Solutions'),
/* preprocessor_version */ 'ST-DEVELOPER v15',
/* originating_system */ 'SIEMENS PLM Software NX v8.5.3.3(64 bits)',
/* authorization */ '');
FILE_SCHEMA(('AUTOMOTIVE_DESIGN'));
ENDSEC;
DATA;
#10=GEOMETRICALLY_BOUNDED_WIREFRAME_SHAPE_REPRESENTATION('IsoTurningInsert-None',
     (#25),#125);
#11=SHAPE_REPRESENTATION_RELATIONSHIP('None','relationship between IsoTurningInsert-None and IsoTurningInsert-None',
     #24,#13);
#12=SHAPE_REPRESENTATION_RELATIONSHIP('None','relationship between IsoTurningInsert-None and IsoTurningInsert-None',
     #24,#10);
#13=ADVANCED_BREP_SHAPE_REPRESENTATION('IsoTurningInsert-None',(#31),#125);
#14=SHAPE_DEFINITION_REPRESENTATION(#15,#24);
#15=PRODUCT_DEFINITION_SHAPE('','',#16);
#16=PRODUCT_DEFINITION(' ','',#18,#17);
#17=PRODUCT_DEFINITION_CONTEXT('part definition',#23,'design');
#18=PRODUCT_DEFINITION_FORMATION_WITH_SPECIFIED_SOURCE(' ',' ',#20,.NOT_KNOWN.);
#19=PRODUCT_RELATED_PRODUCT_CATEGORY('part','',(#20));
#20=PRODUCT('IsoTurningInsert','IsoTurningInsert',' ',(#21));
#21=PRODUCT_CONTEXT(' ',#23,'mechanical');
#22=APPLICATION_PROTOCOL_DEFINITION('international standard','automotive_design',
     2010,#23);
#23=APPLICATION_CONTEXT('core data for automotive mechanical design processes');
#24=SHAPE_REPRESENTATION('IsoTurningInsert-None',(#84),#125);
#25=GEOMETRIC_CURVE_SET('geometric curve set',(#62));
#26=SURFACE_STYLE_USAGE(.BOTH.,#27);
#27=SURFACE_SIDE_STYLE('',(#28));
#28=SURFACE_STYLE_FILL_AREA(#29);
#29=FILL_AREA_STYLE('',(#30));
#30=FILL_AREA_STYLE_COLOUR('',#83);
#31=MANIFOLD_SOLID_BREP('CUT',#32);
#32=CLOSED_SHELL('',(#36,#37,#38));
#33=CYLINDRICAL_SURFACE('',#92,12.7);
#34=FACE_BOUND('',#45,.T.);
#35=FACE_BOUND('',#46,.T.);
#36=ADVANCED_FACE('',(#41),#39,.F.);
#37=ADVANCED_FACE('',(#42),#40,.F.);
#38=ADVANCED_FACE('',(#34,#35),#33,.T.);
#39=PLANE('',#89);
#40=PLANE('',#91);
#41=FACE_OUTER_BOUND('',#43,.T.);
#42=FACE_OUTER_BOUND('',#44,.T.);
#43=EDGE_LOOP('',(#47));
#44=EDGE_LOOP('',(#48));
#45=EDGE_LOOP('',(#49));
#46=EDGE_LOOP('',(#50));
#47=ORIENTED_EDGE('',*,*,#53,.F.);
#48=ORIENTED_EDGE('',*,*,#54,.F.);
#49=ORIENTED_EDGE('',*,*,#53,.T.);
#50=ORIENTED_EDGE('',*,*,#54,.T.);
#51=VERTEX_POINT('',#118);
#52=VERTEX_POINT('',#121);
#53=EDGE_CURVE('',#51,#51,#63,.T.);
#54=EDGE_CURVE('',#52,#52,#64,.T.);
#55=CURVE_STYLE('',#59,POSITIVE_LENGTH_MEASURE(0.18),#58);
#56=CURVE_STYLE('',#60,POSITIVE_LENGTH_MEASURE(0.18),#82);
#57=CURVE_STYLE('',#61,POSITIVE_LENGTH_MEASURE(0.18),#82);
#58=DRAUGHTING_PRE_DEFINED_COLOUR('blue');
#59=DRAUGHTING_PRE_DEFINED_CURVE_FONT('continuous');
#60=DRAUGHTING_PRE_DEFINED_CURVE_FONT('continuous');
#61=DRAUGHTING_PRE_DEFINED_CURVE_FONT('continuous');
#62=CIRCLE('CUTTING EDGE LINE',#85,12.7);
#63=CIRCLE('',#88,12.7);
#64=CIRCLE('',#90,12.7);
#65=PRESENTATION_LAYER_ASSIGNMENT('1','Layer 1',(#62,#86,#87,#31));
#68=STYLED_ITEM('',(#74),#62);
#69=STYLED_ITEM('',(#75),#86);
#70=STYLED_ITEM('',(#76),#87);
#71=STYLED_ITEM('',(#77),#31);
#72=PRESENTATION_STYLE_ASSIGNMENT((#78));
#73=PRESENTATION_STYLE_ASSIGNMENT((#79));
#74=PRESENTATION_STYLE_ASSIGNMENT((#55));
#75=PRESENTATION_STYLE_ASSIGNMENT((#56));
#76=PRESENTATION_STYLE_ASSIGNMENT((#57));
#77=PRESENTATION_STYLE_ASSIGNMENT((#26));
#78=POINT_STYLE('',#80,POSITIVE_LENGTH_MEASURE(3.0),#82);
#79=POINT_STYLE('',#81,POSITIVE_LENGTH_MEASURE(3.0),#82);
#80=PRE_DEFINED_POINT_MARKER_SYMBOL('plus');
#81=PRE_DEFINED_POINT_MARKER_SYMBOL('plus');
#82=COLOUR_RGB('Medium Maroon',0.6,0.4,0.4);
#83=COLOUR_RGB('IsoInsertColor',0.8,0.8,0.8);
#84=AXIS2_PLACEMENT_3D('',#111,#93,#94);
#85=AXIS2_PLACEMENT_3D('',#114,#95,#96);
#86=AXIS2_PLACEMENT_3D('PCS',#115,#97,#98);
#87=AXIS2_PLACEMENT_3D('MCS',#116,#99,#100);
#88=AXIS2_PLACEMENT_3D('',#117,#101,#102);
#89=AXIS2_PLACEMENT_3D('',#119,#103,#104);
#90=AXIS2_PLACEMENT_3D('',#120,#105,#106);
#91=AXIS2_PLACEMENT_3D('',#122,#107,#108);
#92=AXIS2_PLACEMENT_3D('',#123,#109,#110);
#93=DIRECTION('',(0.0,0.0,1.0));
#94=DIRECTION('',(1.0,0.0,0.0));
#95=DIRECTION('',(0.0,0.0,-1.0));
#96=DIRECTION('',(-0.882015164970351,-0.471221019015837,0.0));
#97=DIRECTION('',(0.0,0.0,1.0));
#98=DIRECTION('',(1.0,0.0,0.0));
#99=DIRECTION('',(0.0,0.0,1.0));
#100=DIRECTION('',(1.0,0.0,0.0));
#101=DIRECTION('',(0.0,0.0,1.0));
#102=DIRECTION('',(-0.707106781186548,-0.707106781186548,0.0));
#103=DIRECTION('',(0.0,0.0,1.0));
#104=DIRECTION('',(-0.707106781186548,-0.707106781186547,0.0));
#105=DIRECTION('',(0.0,0.0,-1.0));
#106=DIRECTION('',(-0.882015164970351,-0.471221019015837,0.0));
#107=DIRECTION('',(0.0,0.0,-1.0));
#108=DIRECTION('',(0.707106781186548,0.707106781186547,0.0));
#109=DIRECTION('',(0.0,0.0,1.0));
#110=DIRECTION('',(-0.707106781186548,-0.707106781186548,0.0));
#111=CARTESIAN_POINT('',(0.0,0.0,0.0));
#114=CARTESIAN_POINT('',(12.7,12.7,0.0));
#115=CARTESIAN_POINT('',(0.0,0.0,0.0));
#116=CARTESIAN_POINT('',(12.7,12.7,0.0));
#117=CARTESIAN_POINT('',(12.7,12.7,-7.9375));
#118=CARTESIAN_POINT('',(3.71974387893084,3.71974387893083,-7.9375));
#119=CARTESIAN_POINT('',(12.7,12.1696699141101,-7.9375));
#120=CARTESIAN_POINT('',(12.7,12.7,4.26685108753951E-15));
#121=CARTESIAN_POINT('',(1.49840740487652,6.71549305849886,4.26685108753951E-15));
#122=CARTESIAN_POINT('',(12.7,12.7,4.26685108753951E-15));
#123=CARTESIAN_POINT('',(12.7,12.7,3.46944695195361E-15));
#124=MECHANICAL_DESIGN_GEOMETRIC_PRESENTATION_REPRESENTATION('',(#68,#69,#70,#71),
     #125);
#125=(GEOMETRIC_REPRESENTATION_CONTEXT(3)GLOBAL_UNCERTAINTY_ASSIGNED_CONTEXT((#126))
     GLOBAL_UNIT_ASSIGNED_CONTEXT((#132,#128,#127))REPRESENTATION_CONTEXT('RNGN250700',
     'TOP_LEVEL_ASSEMBLY_PART'));
#126=UNCERTAINTY_MEASURE_WITH_UNIT(LENGTH_MEASURE(2.0E-5),#132,'DISTANCE_ACCURACY_VALUE',
     'Maximum Tolerance applied to model');
#127=(NAMED_UNIT(*)SI_UNIT($,.STERADIAN.)SOLID_ANGLE_UNIT());
#128=(CONVERSION_BASED_UNIT('DEGREE',#130)NAMED_UNIT(#129)PLANE_ANGLE_UNIT());
#129=DIMENSIONAL_EXPONENTS(0.0,0.0,0.0,0.0,0.0,0.0,0.0);
#130=PLANE_ANGLE_MEASURE_WITH_UNIT(PLANE_ANGLE_MEASURE(0.0174532925),#131);
#131=(NAMED_UNIT(*)PLANE_ANGLE_UNIT()SI_UNIT($,.RADIAN.));
#132=(LENGTH_UNIT()NAMED_UNIT(*)SI_UNIT(.MILLI.,.METRE.));
#133=CONSTRUCTIVE_GEOMETRY_REPRESENTATION('supplemental geometry',(#86,#87),#125);
#134=CONSTRUCTIVE_GEOMETRY_REPRESENTATION_RELATIONSHIP('supplemental geometry','contains PCS and MCS coordinate systems',
     #24,#133);
ENDSEC;
END-ISO-10303-21;
