ISO-10303-21;
HEADER;
FILE_DESCRIPTION(
/* description */ (''),
/* implementation_level */ '2;1');
FILE_NAME(
/* name */ 'RNGN150700.stp',
/* time_stamp */ '2017-03-21T10:54:15',
/* author */ ('Sandvik Coromant R&D'),
/* organization */ ('Sandvik Machining Solutions'),
/* preprocessor_version */ 'ST-DEVELOPER v15',
/* originating_system */ 'SIEMENS PLM Software NX v8.5.3.3(64 bits)',
/* authorization */ '');
FILE_SCHEMA(('AUTOMOTIVE_DESIGN'));
ENDSEC;
DATA;
#10=GEOMETRICALLY_BOUNDED_WIREFRAME_SHAPE_REPRESENTATION('IsoTurningInsert-None',
     (#25),#190);
#11=SHAPE_REPRESENTATION_RELATIONSHIP('None','relationship between IsoTurningInsert-None and IsoTurningInsert-None',
     #24,#13);
#12=SHAPE_REPRESENTATION_RELATIONSHIP('None','relationship between IsoTurningInsert-None and IsoTurningInsert-None',
     #24,#10);
#13=ADVANCED_BREP_SHAPE_REPRESENTATION('IsoTurningInsert-None',(#31),#190);
#14=SHAPE_DEFINITION_REPRESENTATION(#15,#24);
#15=PRODUCT_DEFINITION_SHAPE('','',#16);
#16=PRODUCT_DEFINITION(' ','',#18,#17);
#17=PRODUCT_DEFINITION_CONTEXT('part definition',#23,'design');
#18=PRODUCT_DEFINITION_FORMATION_WITH_SPECIFIED_SOURCE(' ',' ',#20,.NOT_KNOWN.);
#19=PRODUCT_RELATED_PRODUCT_CATEGORY('part','',(#20));
#20=PRODUCT('IsoTurningInsert','IsoTurningInsert',' ',(#21));
#21=PRODUCT_CONTEXT(' ',#23,'mechanical');
#22=APPLICATION_PROTOCOL_DEFINITION('international standard','automotive_design',
     2010,#23);
#23=APPLICATION_CONTEXT('core data for automotive mechanical design processes');
#24=SHAPE_REPRESENTATION('IsoTurningInsert-None',(#84),#190);
#25=GEOMETRIC_CURVE_SET('geometric curve set',(#64));
#26=SURFACE_STYLE_USAGE(.BOTH.,#27);
#27=SURFACE_SIDE_STYLE('',(#28));
#28=SURFACE_STYLE_FILL_AREA(#29);
#29=FILL_AREA_STYLE('',(#30));
#30=FILL_AREA_STYLE_COLOUR('',#83);
#31=MANIFOLD_SOLID_BREP('CUT',#32);
#32=CLOSED_SHELL('',(#36,#37,#38));
#33=CYLINDRICAL_SURFACE('',#91,7.93749999999999);
#34=FACE_BOUND('',#45,.T.);
#35=FACE_BOUND('',#46,.T.);
#36=ADVANCED_FACE('',(#41),#39,.F.);
#37=ADVANCED_FACE('',(#42),#40,.F.);
#38=ADVANCED_FACE('',(#34,#35),#33,.T.);
#39=PLANE('',#88);
#40=PLANE('',#90);
#41=FACE_OUTER_BOUND('',#43,.T.);
#42=FACE_OUTER_BOUND('',#44,.T.);
#43=EDGE_LOOP('',(#47));
#44=EDGE_LOOP('',(#48));
#45=EDGE_LOOP('',(#49));
#46=EDGE_LOOP('',(#50));
#47=ORIENTED_EDGE('',*,*,#53,.F.);
#48=ORIENTED_EDGE('',*,*,#54,.F.);
#49=ORIENTED_EDGE('',*,*,#53,.T.);
#50=ORIENTED_EDGE('',*,*,#54,.T.);
#51=VERTEX_POINT('',#183);
#52=VERTEX_POINT('',#186);
#53=EDGE_CURVE('',#51,#51,#55,.T.);
#54=EDGE_CURVE('',#52,#52,#56,.T.);
#55=CIRCLE('',#87,7.93749999999999);
#56=CIRCLE('',#89,7.93749999999999);
#57=CURVE_STYLE('',#61,POSITIVE_LENGTH_MEASURE(0.18),#60);
#58=CURVE_STYLE('',#62,POSITIVE_LENGTH_MEASURE(0.18),#82);
#59=CURVE_STYLE('',#63,POSITIVE_LENGTH_MEASURE(0.18),#82);
#60=DRAUGHTING_PRE_DEFINED_COLOUR('blue');
#61=DRAUGHTING_PRE_DEFINED_CURVE_FONT('continuous');
#62=DRAUGHTING_PRE_DEFINED_CURVE_FONT('continuous');
#63=DRAUGHTING_PRE_DEFINED_CURVE_FONT('continuous');
#64=B_SPLINE_CURVE_WITH_KNOTS('CUTTING EDGE LINE',5,(#111,#112,#113,#114,#115,#116,
     #117,#118,#119,#120,#121,#122,#123,#124,#125,#126,#127,#128,#129,#130,#131,
     #132,#133,#134,#135,#136,#137,#138,#139,#140,#141,#142,#143,#144,#145,#146,
     #147,#148,#149,#150,#151,#152,#153,#154,#155,#156,#157,#158,#159,#160,#161,
     #162,#163,#164,#165,#166,#167,#168,#169,#170,#171,#172,#173,#174,#175,#176,
     #177,#178,#179),.UNSPECIFIED.,.T.,.F.,(1,1,1,1,1,1,1,1,1,1,1,1,1,1,1,1,1,1,
     1,1,1,1,1,1,1,1,1,1,1,1,1,1,1,1,1,1,1,1,1,1,1,1,1,1,1,1,1,1,1,1,1,1,1,1,1,1,
     1,1,1,1,1,1,1,1,1,1,1,1,1,1,1,1,1,1,1),(-0.078125,-0.0625,-0.046875,-0.03125,
     -0.015625,0.0,0.015625,0.03125,0.046875,0.0625,0.078125,0.09375,0.109375,0.125,
     0.140625,0.15625,0.171875,0.1875,0.203125,0.21875,0.234375,0.25,0.265625,0.28125,
     0.296875,0.3125,0.328125,0.34375,0.359375,0.375,0.390625,0.40625,0.421875,0.4375,
     0.453125,0.46875,0.484375,0.5,0.515625,0.53125,0.546875,0.5625,0.578125,0.59375,
     0.609375,0.625,0.640625,0.65625,0.671875,0.6875,0.703125,0.71875,0.734375,0.75,
     0.765625,0.78125,0.796875,0.8125,0.828125,0.84375,0.859375,0.875,0.890625,0.90625,
     0.921875,0.9375,0.953125,0.96875,0.984375,1.0,1.015625,1.03125,1.046875,1.0625,
     1.078125),.UNSPECIFIED.);
#65=PRESENTATION_LAYER_ASSIGNMENT('1','Layer 1',(#64,#85,#86,#31));
#68=STYLED_ITEM('',(#74),#64);
#69=STYLED_ITEM('',(#75),#85);
#70=STYLED_ITEM('',(#76),#86);
#71=STYLED_ITEM('',(#77),#31);
#72=PRESENTATION_STYLE_ASSIGNMENT((#78));
#73=PRESENTATION_STYLE_ASSIGNMENT((#79));
#74=PRESENTATION_STYLE_ASSIGNMENT((#57));
#75=PRESENTATION_STYLE_ASSIGNMENT((#58));
#76=PRESENTATION_STYLE_ASSIGNMENT((#59));
#77=PRESENTATION_STYLE_ASSIGNMENT((#26));
#78=POINT_STYLE('',#80,POSITIVE_LENGTH_MEASURE(3.0),#82);
#79=POINT_STYLE('',#81,POSITIVE_LENGTH_MEASURE(3.0),#82);
#80=PRE_DEFINED_POINT_MARKER_SYMBOL('plus');
#81=PRE_DEFINED_POINT_MARKER_SYMBOL('plus');
#82=COLOUR_RGB('Medium Maroon',0.6,0.4,0.4);
#83=COLOUR_RGB('IsoInsertColor',0.8,0.8,0.8);
#84=AXIS2_PLACEMENT_3D('',#108,#92,#93);
#85=AXIS2_PLACEMENT_3D('PCS',#180,#94,#95);
#86=AXIS2_PLACEMENT_3D('MCS',#181,#96,#97);
#87=AXIS2_PLACEMENT_3D('',#182,#98,#99);
#88=AXIS2_PLACEMENT_3D('',#184,#100,#101);
#89=AXIS2_PLACEMENT_3D('',#185,#102,#103);
#90=AXIS2_PLACEMENT_3D('',#187,#104,#105);
#91=AXIS2_PLACEMENT_3D('',#188,#106,#107);
#92=DIRECTION('',(0.0,0.0,1.0));
#93=DIRECTION('',(1.0,0.0,0.0));
#94=DIRECTION('',(0.0,0.0,1.0));
#95=DIRECTION('',(1.0,0.0,0.0));
#96=DIRECTION('',(0.0,0.0,1.0));
#97=DIRECTION('',(1.0,0.0,0.0));
#98=DIRECTION('',(0.0,0.0,1.0));
#99=DIRECTION('',(-0.707106781186548,-0.707106781186547,0.0));
#100=DIRECTION('',(0.0,0.0,1.0));
#101=DIRECTION('',(-0.707106781186548,-0.707106781186547,0.0));
#102=DIRECTION('',(0.0,0.0,-1.0));
#103=DIRECTION('',(-0.882015164970351,-0.471221019015837,0.0));
#104=DIRECTION('',(0.0,0.0,-1.0));
#105=DIRECTION('',(0.707106781186548,0.707106781186547,0.0));
#106=DIRECTION('',(0.0,0.0,1.0));
#107=DIRECTION('',(-0.707106781186548,-0.707106781186547,0.0));
#108=CARTESIAN_POINT('',(0.0,0.0,0.0));
#111=CARTESIAN_POINT('',(1.7170703893334,2.97828530769361,0.0));
#112=CARTESIAN_POINT('',(1.28238630539142,3.58125869861824,0.0));
#113=CARTESIAN_POINT('',(0.923144900096044,4.19004566000749,0.0));
#114=CARTESIAN_POINT('',(0.616794689707103,4.82709000711133,0.0));
#115=CARTESIAN_POINT('',(0.357215697506259,5.52361417025774,0.0));
#116=CARTESIAN_POINT('',(0.160383981214085,6.25898146726102,0.0));
#117=CARTESIAN_POINT('',(0.0321891230627287,7.03060309217169,0.0));
#118=CARTESIAN_POINT('',(-0.0195877774808455,7.82706496126888,0.0));
#119=CARTESIAN_POINT('',(0.00992918471978044,8.63756367603633,0.0));
#120=CARTESIAN_POINT('',(0.12366371444401,9.4493547814456,0.0));
#121=CARTESIAN_POINT('',(0.321793347087281,10.2493563834931,0.0));
#122=CARTESIAN_POINT('',(0.601820545162228,11.024496811386,0.0));
#123=CARTESIAN_POINT('',(0.958554820689939,11.7625218778477,0.0));
#124=CARTESIAN_POINT('',(1.38457635319777,12.452655974648,0.0));
#125=CARTESIAN_POINT('',(1.87037015665079,13.0859305886948,0.0));
#126=CARTESIAN_POINT('',(2.40587751862377,13.6560759378964,0.0));
#127=CARTESIAN_POINT('',(2.97828530749764,14.1579296105481,0.0));
#128=CARTESIAN_POINT('',(3.5812586989771,14.5926136948251,0.0));
#129=CARTESIAN_POINT('',(4.19004565989871,14.9518550998348,0.0));
#130=CARTESIAN_POINT('',(4.82709000715406,15.2582053103195,0.0));
#131=CARTESIAN_POINT('',(5.5236141702434,15.5177843024848,0.0));
#132=CARTESIAN_POINT('',(6.25898146726566,15.7146160187888,0.0));
#133=CARTESIAN_POINT('',(7.03060309217017,15.8428108769363,0.0));
#134=CARTESIAN_POINT('',(7.82706496126939,15.8945877774812,0.0));
#135=CARTESIAN_POINT('',(8.63756367603617,15.86507081528,0.0));
#136=CARTESIAN_POINT('',(9.44935478144562,15.7513362855561,0.0));
#137=CARTESIAN_POINT('',(10.2493563834933,15.5532066529124,0.0));
#138=CARTESIAN_POINT('',(11.0244968113857,15.2731794548383,0.0));
#139=CARTESIAN_POINT('',(11.7625218778485,14.9164451793087,0.0));
#140=CARTESIAN_POINT('',(12.4526559746458,14.4904236468059,0.0));
#141=CARTESIAN_POINT('',(13.0859305887013,14.0046298433382,0.0));
#142=CARTESIAN_POINT('',(13.6560759378757,13.4691224814115,0.0));
#143=CARTESIAN_POINT('',(14.1579296106553,12.8967146923224,0.0));
#144=CARTESIAN_POINT('',(14.5926136944282,12.293741301686,0.0));
#145=CARTESIAN_POINT('',(14.9518551000038,11.6849543398214,0.0));
#146=CARTESIAN_POINT('',(15.2582053102597,11.047909992944,0.0));
#147=CARTESIAN_POINT('',(15.5177843025047,10.3513858297239,0.0));
#148=CARTESIAN_POINT('',(15.7146160187824,9.61601853274487,0.0));
#149=CARTESIAN_POINT('',(15.8428108769384,8.84439690782636,0.0));
#150=CARTESIAN_POINT('',(15.8945877774805,8.04793503873178,0.0));
#151=CARTESIAN_POINT('',(15.8650708152803,7.23743632396335,0.0));
#152=CARTESIAN_POINT('',(15.7513362855561,6.42564521855458,0.0));
#153=CARTESIAN_POINT('',(15.5532066529124,5.62564361650657,0.0));
#154=CARTESIAN_POINT('',(15.2731794548386,4.85050318861449,0.0));
#155=CARTESIAN_POINT('',(14.916445179308,4.11247812215103,0.0));
#156=CARTESIAN_POINT('',(14.4904236468079,3.42234402535539,0.0));
#157=CARTESIAN_POINT('',(14.0046298433326,2.78906941129513,0.0));
#158=CARTESIAN_POINT('',(13.469122481425,2.21892406213302,0.0));
#159=CARTESIAN_POINT('',(12.8967146924311,1.71707038940912,0.0));
#160=CARTESIAN_POINT('',(12.29374130129,1.28238630533569,0.0));
#161=CARTESIAN_POINT('',(11.6849543400176,0.923144900112074,0.0));
#162=CARTESIAN_POINT('',(11.0479099928684,0.616794689696001,0.0));
#163=CARTESIAN_POINT('',(10.3513858297493,0.357215697510103,0.0));
#164=CARTESIAN_POINT('',(9.61601853273667,0.160383981212791,0.0));
#165=CARTESIAN_POINT('',(8.84439690782905,0.0321891230632172,0.0));
#166=CARTESIAN_POINT('',(8.04793503873088,-0.0195877774811066,0.0));
#167=CARTESIAN_POINT('',(7.23743632396363,0.00992918472002202,0.0));
#168=CARTESIAN_POINT('',(6.42564521855458,0.123663714443602,0.0));
#169=CARTESIAN_POINT('',(5.62564361650635,0.321793347088104,0.0));
#170=CARTESIAN_POINT('',(4.85050318861511,0.601820545160336,0.0));
#171=CARTESIAN_POINT('',(4.11247812214943,0.958554820694679,0.0));
#172=CARTESIAN_POINT('',(3.42234402535977,1.38457635318485,0.0));
#173=CARTESIAN_POINT('',(2.78906941128238,1.87037015668839,0.0));
#174=CARTESIAN_POINT('',(2.21892406217096,2.40587751851253,0.0));
#175=CARTESIAN_POINT('',(1.7170703893334,2.97828530769361,0.0));
#176=CARTESIAN_POINT('',(1.28238630539142,3.58125869861824,0.0));
#177=CARTESIAN_POINT('',(0.923144900096044,4.19004566000749,0.0));
#178=CARTESIAN_POINT('',(0.616794689707103,4.82709000711133,0.0));
#179=CARTESIAN_POINT('',(0.357215697506259,5.52361417025774,0.0));
#180=CARTESIAN_POINT('',(0.0,0.0,0.0));
#181=CARTESIAN_POINT('',(7.9375,7.9375,0.0));
#182=CARTESIAN_POINT('',(7.93749999999999,7.93749999999999,-7.9375));
#183=CARTESIAN_POINT('',(2.32483992433177,2.32483992433177,-7.9375));
#184=CARTESIAN_POINT('',(7.9375,7.40716991411009,-7.9375));
#185=CARTESIAN_POINT('',(7.93749999999999,7.93749999999999,4.26685108753951E-15));
#186=CARTESIAN_POINT('',(0.936504628047833,4.19718316156179,4.26685108753951E-15));
#187=CARTESIAN_POINT('',(7.93749999999999,7.93749999999999,4.26685108753951E-15));
#188=CARTESIAN_POINT('',(7.93749999999999,7.93749999999999,3.46944695195361E-15));
#189=MECHANICAL_DESIGN_GEOMETRIC_PRESENTATION_REPRESENTATION('',(#68,#69,#70,#71),
     #190);
#190=(GEOMETRIC_REPRESENTATION_CONTEXT(3)GLOBAL_UNCERTAINTY_ASSIGNED_CONTEXT((#191))
     GLOBAL_UNIT_ASSIGNED_CONTEXT((#197,#193,#192))REPRESENTATION_CONTEXT('RNGN150700',
     'TOP_LEVEL_ASSEMBLY_PART'));
#191=UNCERTAINTY_MEASURE_WITH_UNIT(LENGTH_MEASURE(2.0E-5),#197,'DISTANCE_ACCURACY_VALUE',
     'Maximum Tolerance applied to model');
#192=(NAMED_UNIT(*)SI_UNIT($,.STERADIAN.)SOLID_ANGLE_UNIT());
#193=(CONVERSION_BASED_UNIT('DEGREE',#195)NAMED_UNIT(#194)PLANE_ANGLE_UNIT());
#194=DIMENSIONAL_EXPONENTS(0.0,0.0,0.0,0.0,0.0,0.0,0.0);
#195=PLANE_ANGLE_MEASURE_WITH_UNIT(PLANE_ANGLE_MEASURE(0.0174532925),#196);
#196=(NAMED_UNIT(*)PLANE_ANGLE_UNIT()SI_UNIT($,.RADIAN.));
#197=(LENGTH_UNIT()NAMED_UNIT(*)SI_UNIT(.MILLI.,.METRE.));
#198=CONSTRUCTIVE_GEOMETRY_REPRESENTATION('supplemental geometry',(#85,#86),#190);
#199=CONSTRUCTIVE_GEOMETRY_REPRESENTATION_RELATIONSHIP('supplemental geometry','contains PCS and MCS coordinate systems',
     #24,#198);
ENDSEC;
END-ISO-10303-21;
