ISO-10303-21;
HEADER;
FILE_DESCRIPTION(
/* description */ (''),
/* implementation_level */ '2;1');
FILE_NAME(
/* name */ 'RCMX100300.stp',
/* time_stamp */ '2017-03-21T10:54:12',
/* author */ ('Sandvik Coromant R&D'),
/* organization */ ('Sandvik Machining Solutions'),
/* preprocessor_version */ 'ST-DEVELOPER v15',
/* originating_system */ 'SIEMENS PLM Software NX v8.5.3.3(64 bits)',
/* authorization */ '');
FILE_SCHEMA(('AUTOMOTIVE_DESIGN'));
ENDSEC;
DATA;
#10=GEOMETRICALLY_BOUNDED_WIREFRAME_SHAPE_REPRESENTATION('IsoTurningInsert-None',
     (#25),#244);
#11=SHAPE_REPRESENTATION_RELATIONSHIP('None','relationship between IsoTurningInsert-None and IsoTurningInsert-None',
     #24,#13);
#12=SHAPE_REPRESENTATION_RELATIONSHIP('None','relationship between IsoTurningInsert-None and IsoTurningInsert-None',
     #24,#10);
#13=ADVANCED_BREP_SHAPE_REPRESENTATION('IsoTurningInsert-None',(#31),#244);
#14=SHAPE_DEFINITION_REPRESENTATION(#15,#24);
#15=PRODUCT_DEFINITION_SHAPE('','',#16);
#16=PRODUCT_DEFINITION(' ','',#18,#17);
#17=PRODUCT_DEFINITION_CONTEXT('part definition',#23,'design');
#18=PRODUCT_DEFINITION_FORMATION_WITH_SPECIFIED_SOURCE(' ',' ',#20,.NOT_KNOWN.);
#19=PRODUCT_RELATED_PRODUCT_CATEGORY('part','',(#20));
#20=PRODUCT('IsoTurningInsert','IsoTurningInsert',' ',(#21));
#21=PRODUCT_CONTEXT(' ',#23,'mechanical');
#22=APPLICATION_PROTOCOL_DEFINITION('international standard','automotive_design',
     2010,#23);
#23=APPLICATION_CONTEXT('core data for automotive mechanical design processes');
#24=SHAPE_REPRESENTATION('IsoTurningInsert-None',(#115),#244);
#25=GEOMETRIC_CURVE_SET('geometric curve set',(#95));
#26=SURFACE_STYLE_USAGE(.BOTH.,#27);
#27=SURFACE_SIDE_STYLE('',(#28));
#28=SURFACE_STYLE_FILL_AREA(#29);
#29=FILL_AREA_STYLE('',(#30));
#30=FILL_AREA_STYLE_COLOUR('',#114);
#31=MANIFOLD_SOLID_BREP('CUT',#32);
#32=CLOSED_SHELL('',(#36,#37,#38,#39,#40));
#33=CYLINDRICAL_SURFACE('',#126,1.8);
#34=CONICAL_SURFACE('',#124,4.99999999999999,6.99999999999999);
#35=CONICAL_SURFACE('',#127,1.8,9.92001296240214);
#36=ADVANCED_FACE('',(#43,#44),#41,.F.);
#37=ADVANCED_FACE('',(#45,#46),#42,.F.);
#38=ADVANCED_FACE('',(#47,#48),#34,.T.);
#39=ADVANCED_FACE('',(#49,#50),#33,.F.);
#40=ADVANCED_FACE('',(#51,#52),#35,.F.);
#41=PLANE('',#120);
#42=PLANE('',#123);
#43=FACE_BOUND('',#53,.T.);
#44=FACE_BOUND('',#54,.T.);
#45=FACE_BOUND('',#55,.T.);
#46=FACE_BOUND('',#56,.T.);
#47=FACE_BOUND('',#57,.T.);
#48=FACE_BOUND('',#58,.T.);
#49=FACE_BOUND('',#59,.T.);
#50=FACE_BOUND('',#60,.T.);
#51=FACE_BOUND('',#61,.T.);
#52=FACE_BOUND('',#62,.T.);
#53=EDGE_LOOP('',(#63));
#54=EDGE_LOOP('',(#64));
#55=EDGE_LOOP('',(#65));
#56=EDGE_LOOP('',(#66));
#57=EDGE_LOOP('',(#67));
#58=EDGE_LOOP('',(#68));
#59=EDGE_LOOP('',(#69));
#60=EDGE_LOOP('',(#70));
#61=EDGE_LOOP('',(#71));
#62=EDGE_LOOP('',(#72));
#63=ORIENTED_EDGE('',*,*,#78,.F.);
#64=ORIENTED_EDGE('',*,*,#79,.F.);
#65=ORIENTED_EDGE('',*,*,#80,.T.);
#66=ORIENTED_EDGE('',*,*,#81,.F.);
#67=ORIENTED_EDGE('',*,*,#78,.T.);
#68=ORIENTED_EDGE('',*,*,#81,.T.);
#69=ORIENTED_EDGE('',*,*,#82,.T.);
#70=ORIENTED_EDGE('',*,*,#79,.T.);
#71=ORIENTED_EDGE('',*,*,#80,.F.);
#72=ORIENTED_EDGE('',*,*,#82,.F.);
#73=VERTEX_POINT('',#229);
#74=VERTEX_POINT('',#231);
#75=VERTEX_POINT('',#234);
#76=VERTEX_POINT('',#236);
#77=VERTEX_POINT('',#240);
#78=EDGE_CURVE('',#73,#73,#83,.T.);
#79=EDGE_CURVE('',#74,#74,#84,.T.);
#80=EDGE_CURVE('',#75,#75,#85,.T.);
#81=EDGE_CURVE('',#76,#76,#86,.T.);
#82=EDGE_CURVE('',#77,#77,#87,.T.);
#83=CIRCLE('',#118,4.61015901913327);
#84=CIRCLE('',#119,1.8);
#85=CIRCLE('',#121,2.19);
#86=CIRCLE('',#122,4.99999999999999);
#87=CIRCLE('',#125,1.8);
#88=CURVE_STYLE('',#92,POSITIVE_LENGTH_MEASURE(0.18),#91);
#89=CURVE_STYLE('',#93,POSITIVE_LENGTH_MEASURE(0.18),#113);
#90=CURVE_STYLE('',#94,POSITIVE_LENGTH_MEASURE(0.18),#113);
#91=DRAUGHTING_PRE_DEFINED_COLOUR('blue');
#92=DRAUGHTING_PRE_DEFINED_CURVE_FONT('continuous');
#93=DRAUGHTING_PRE_DEFINED_CURVE_FONT('continuous');
#94=DRAUGHTING_PRE_DEFINED_CURVE_FONT('continuous');
#95=B_SPLINE_CURVE_WITH_KNOTS('CUTTING EDGE LINE',5,(#157,#158,#159,#160,#161,#162,
     #163,#164,#165,#166,#167,#168,#169,#170,#171,#172,#173,#174,#175,#176,#177,
     #178,#179,#180,#181,#182,#183,#184,#185,#186,#187,#188,#189,#190,#191,#192,
     #193,#194,#195,#196,#197,#198,#199,#200,#201,#202,#203,#204,#205,#206,#207,
     #208,#209,#210,#211,#212,#213,#214,#215,#216,#217,#218,#219,#220,#221,#222,
     #223,#224,#225),.UNSPECIFIED.,.T.,.F.,(1,1,1,1,1,1,1,1,1,1,1,1,1,1,1,1,1,1,
     1,1,1,1,1,1,1,1,1,1,1,1,1,1,1,1,1,1,1,1,1,1,1,1,1,1,1,1,1,1,1,1,1,1,1,1,1,1,
     1,1,1,1,1,1,1,1,1,1,1,1,1,1,1,1,1,1,1),(-0.078125,-0.0625,-0.046875,-0.03125,
     -0.015625,0.0,0.015625,0.03125,0.046875,0.0625,0.078125,0.09375,0.109375,0.125,
     0.140625,0.15625,0.171875,0.1875,0.203125,0.21875,0.234375,0.25,0.265625,0.28125,
     0.296875,0.3125,0.328125,0.34375,0.359375,0.375,0.390625,0.40625,0.421875,0.4375,
     0.453125,0.46875,0.484375,0.5,0.515625,0.53125,0.546875,0.5625,0.578125,0.59375,
     0.609375,0.625,0.640625,0.65625,0.671875,0.6875,0.703125,0.71875,0.734375,0.75,
     0.765625,0.78125,0.796875,0.8125,0.828125,0.84375,0.859375,0.875,0.890625,0.90625,
     0.921875,0.9375,0.953125,0.96875,0.984375,1.0,1.015625,1.03125,1.046875,1.0625,
     1.078125),.UNSPECIFIED.);
#96=PRESENTATION_LAYER_ASSIGNMENT('1','Layer 1',(#95,#116,#117,#31));
#99=STYLED_ITEM('',(#105),#95);
#100=STYLED_ITEM('',(#106),#116);
#101=STYLED_ITEM('',(#107),#117);
#102=STYLED_ITEM('',(#108),#31);
#103=PRESENTATION_STYLE_ASSIGNMENT((#109));
#104=PRESENTATION_STYLE_ASSIGNMENT((#110));
#105=PRESENTATION_STYLE_ASSIGNMENT((#88));
#106=PRESENTATION_STYLE_ASSIGNMENT((#89));
#107=PRESENTATION_STYLE_ASSIGNMENT((#90));
#108=PRESENTATION_STYLE_ASSIGNMENT((#26));
#109=POINT_STYLE('',#111,POSITIVE_LENGTH_MEASURE(3.0),#113);
#110=POINT_STYLE('',#112,POSITIVE_LENGTH_MEASURE(3.0),#113);
#111=PRE_DEFINED_POINT_MARKER_SYMBOL('plus');
#112=PRE_DEFINED_POINT_MARKER_SYMBOL('plus');
#113=COLOUR_RGB('Medium Maroon',0.6,0.4,0.4);
#114=COLOUR_RGB('IsoInsertColor',0.8,0.8,0.8);
#115=AXIS2_PLACEMENT_3D('',#154,#128,#129);
#116=AXIS2_PLACEMENT_3D('PCS',#226,#130,#131);
#117=AXIS2_PLACEMENT_3D('MCS',#227,#132,#133);
#118=AXIS2_PLACEMENT_3D('',#228,#134,#135);
#119=AXIS2_PLACEMENT_3D('',#230,#136,#137);
#120=AXIS2_PLACEMENT_3D('',#232,#138,#139);
#121=AXIS2_PLACEMENT_3D('',#233,#140,#141);
#122=AXIS2_PLACEMENT_3D('',#235,#142,#143);
#123=AXIS2_PLACEMENT_3D('',#237,#144,#145);
#124=AXIS2_PLACEMENT_3D('',#238,#146,#147);
#125=AXIS2_PLACEMENT_3D('',#239,#148,#149);
#126=AXIS2_PLACEMENT_3D('',#241,#150,#151);
#127=AXIS2_PLACEMENT_3D('',#242,#152,#153);
#128=DIRECTION('',(0.0,0.0,1.0));
#129=DIRECTION('',(1.0,0.0,0.0));
#130=DIRECTION('',(0.0,0.0,1.0));
#131=DIRECTION('',(1.0,0.0,0.0));
#132=DIRECTION('',(0.0,0.0,1.0));
#133=DIRECTION('',(1.0,0.0,0.0));
#134=DIRECTION('',(0.0,0.0,1.0));
#135=DIRECTION('',(-0.707106781186548,-0.707106781186547,0.0));
#136=DIRECTION('',(0.0,0.0,-1.0));
#137=DIRECTION('',(0.707106781186548,0.707106781186548,0.0));
#138=DIRECTION('',(0.0,0.0,1.0));
#139=DIRECTION('',(-0.707106781186548,-0.707106781186547,0.0));
#140=DIRECTION('',(0.0,0.0,-1.0));
#141=DIRECTION('',(0.707106781186548,0.707106781186548,0.0));
#142=DIRECTION('',(0.0,0.0,-1.0));
#143=DIRECTION('',(-0.882015164970351,-0.471221019015837,0.0));
#144=DIRECTION('',(0.0,0.0,-1.0));
#145=DIRECTION('',(0.707106781186548,0.707106781186547,0.0));
#146=DIRECTION('',(0.0,0.0,1.0));
#147=DIRECTION('',(-0.707106781186548,-0.707106781186547,-3.39384402880821E-17));
#148=DIRECTION('',(0.0,0.0,1.0));
#149=DIRECTION('',(0.707106781186548,0.707106781186548,0.0));
#150=DIRECTION('',(0.0,0.0,-1.0));
#151=DIRECTION('',(0.707106781186548,0.707106781186548,0.0));
#152=DIRECTION('',(0.0,0.0,1.0));
#153=DIRECTION('',(-0.707106781186548,-0.707106781186548,2.55268257313533E-16));
#154=CARTESIAN_POINT('',(0.0,0.0,0.0));
#157=CARTESIAN_POINT('',(1.08161914288719,1.87608523319283,0.0));
#158=CARTESIAN_POINT('',(0.807802397096953,2.25591099125558,0.0));
#159=CARTESIAN_POINT('',(0.581508598485699,2.6393988409496,0.0));
#160=CARTESIAN_POINT('',(0.388532088004474,3.04068661865281,0.0));
#161=CARTESIAN_POINT('',(0.225017762208664,3.47944199701275,0.0));
#162=CARTESIAN_POINT('',(0.101029279504938,3.94266549118804,0.0));
#163=CARTESIAN_POINT('',(0.0202766129528973,4.42872635727351,0.0));
#164=CARTESIAN_POINT('',(-0.0123387574682416,4.93043462127173,0.0));
#165=CARTESIAN_POINT('',(0.00625460454788573,5.44098499277879,0.0));
#166=CARTESIAN_POINT('',(0.0778984027993852,5.95234946862715,0.0));
#167=CARTESIAN_POINT('',(0.202704470606158,6.45628748566497,0.0));
#168=CARTESIAN_POINT('',(0.379099556007708,6.94456492055812,0.0));
#169=CARTESIAN_POINT('',(0.603814060277121,7.409462600219,0.0));
#170=CARTESIAN_POINT('',(0.872174080754516,7.84419273993577,0.0));
#171=CARTESIAN_POINT('',(1.17818592544929,8.24310588264239,0.0));
#172=CARTESIAN_POINT('',(1.51551339755837,8.60225255930487,0.0));
#173=CARTESIAN_POINT('',(1.87608523306913,8.91838085703802,0.0));
#174=CARTESIAN_POINT('',(2.25591099148183,9.19219760303952,0.0));
#175=CARTESIAN_POINT('',(2.639398840881,9.41849140147068,0.0));
#176=CARTESIAN_POINT('',(3.04068661867975,9.61146791201229,0.0));
#177=CARTESIAN_POINT('',(3.47944199700371,9.77498223778569,0.0));
#178=CARTESIAN_POINT('',(3.94266549119097,9.89897072049687,0.0));
#179=CARTESIAN_POINT('',(4.42872635727255,9.97972338704647,0.0));
#180=CARTESIAN_POINT('',(4.93043462127206,10.0123387574685,0.0));
#181=CARTESIAN_POINT('',(5.44098499277869,9.99374539545199,0.0));
#182=CARTESIAN_POINT('',(5.95234946862716,9.9221015972007,0.0));
#183=CARTESIAN_POINT('',(6.45628748566503,9.79729552939368,0.0));
#184=CARTESIAN_POINT('',(6.94456492055795,9.62090044399259,0.0));
#185=CARTESIAN_POINT('',(7.40946260021945,9.39618593972209,0.0));
#186=CARTESIAN_POINT('',(7.84419273993456,9.12782591924755,0.0));
#187=CARTESIAN_POINT('',(8.24310588264596,8.8218140745446,0.0));
#188=CARTESIAN_POINT('',(8.60225255929328,8.48448660246136,0.0));
#189=CARTESIAN_POINT('',(8.91838085710117,8.12391476682485,0.0));
#190=CARTESIAN_POINT('',(9.19219760280213,7.7440890089148,0.0));
#191=CARTESIAN_POINT('',(9.4184914015714,7.36060115895229,0.0));
#192=CARTESIAN_POINT('',(9.61146791197672,6.95931338137853,0.0));
#193=CARTESIAN_POINT('',(9.77498223779754,6.52055800297687,0.0));
#194=CARTESIAN_POINT('',(9.89897072049305,6.05733450881528,0.0));
#195=CARTESIAN_POINT('',(9.97972338704772,5.57127364272539,0.0));
#196=CARTESIAN_POINT('',(10.012338757468,5.06956537872863,0.0));
#197=CARTESIAN_POINT('',(9.99374539545212,4.55901500722103,0.0));
#198=CARTESIAN_POINT('',(9.92210159720068,4.04765053137295,0.0));
#199=CARTESIAN_POINT('',(9.79729552939361,3.54371251433485,0.0));
#200=CARTESIAN_POINT('',(9.6209004439928,3.0554350794422,0.0));
#201=CARTESIAN_POINT('',(9.39618593972154,2.59053739978017,0.0));
#202=CARTESIAN_POINT('',(9.12782591924907,2.15580726006639,0.0));
#203=CARTESIAN_POINT('',(8.82181407454023,1.75689411735126,0.0));
#204=CARTESIAN_POINT('',(8.48448660247237,1.3977474407137,0.0));
#205=CARTESIAN_POINT('',(8.12391476688584,1.08161914293493,0.0));
#206=CARTESIAN_POINT('',(7.74408900868654,0.807802397061816,0.0));
#207=CARTESIAN_POINT('',(7.36060115906624,0.581508598495811,0.0));
#208=CARTESIAN_POINT('',(6.9593133813344,0.388532087997479,0.0));
#209=CARTESIAN_POINT('',(6.52055800299167,0.225017762211098,0.0));
#210=CARTESIAN_POINT('',(6.0573345088105,0.101029279504119,0.0));
#211=CARTESIAN_POINT('',(5.57127364272696,0.0202766129532179,0.0));
#212=CARTESIAN_POINT('',(5.06956537872811,-0.0123387574684157,0.0));
#213=CARTESIAN_POINT('',(4.55901500722118,0.00625460454805715,0.0));
#214=CARTESIAN_POINT('',(4.04765053137296,0.0778984027991152,0.0));
#215=CARTESIAN_POINT('',(3.54371251433471,0.202704470606686,0.0));
#216=CARTESIAN_POINT('',(3.05543507944259,0.379099556006512,0.0));
#217=CARTESIAN_POINT('',(2.59053739977917,0.603814060280115,0.0));
#218=CARTESIAN_POINT('',(2.15580726006915,0.872174080746365,0.0));
#219=CARTESIAN_POINT('',(1.75689411734323,1.178185925473,0.0));
#220=CARTESIAN_POINT('',(1.39774744073761,1.51551339748821,0.0));
#221=CARTESIAN_POINT('',(1.08161914288719,1.87608523319283,0.0));
#222=CARTESIAN_POINT('',(0.807802397096953,2.25591099125558,0.0));
#223=CARTESIAN_POINT('',(0.581508598485699,2.6393988409496,0.0));
#224=CARTESIAN_POINT('',(0.388532088004474,3.04068661865281,0.0));
#225=CARTESIAN_POINT('',(0.225017762208664,3.47944199701275,0.0));
#226=CARTESIAN_POINT('',(0.0,0.0,0.0));
#227=CARTESIAN_POINT('',(5.0,5.0,0.0));
#228=CARTESIAN_POINT('',(4.99999999999999,4.99999999999999,-3.175));
#229=CARTESIAN_POINT('',(1.74012529522254,1.74012529522253,-3.175));
#230=CARTESIAN_POINT('',(5.0,5.0,-3.175));
#231=CARTESIAN_POINT('',(6.27279220613578,6.27279220613578,-3.175));
#232=CARTESIAN_POINT('',(5.0,4.46966991411009,-3.175));
#233=CARTESIAN_POINT('',(5.0,5.0,0.0));
#234=CARTESIAN_POINT('',(6.54856385079854,6.54856385079854,0.0));
#235=CARTESIAN_POINT('',(4.99999999999999,4.99999999999999,4.26685108753951E-15));
#236=CARTESIAN_POINT('',(0.589924175148243,2.64389490492081,4.26685108753951E-15));
#237=CARTESIAN_POINT('',(4.99999999999999,4.99999999999999,4.26685108753951E-15));
#238=CARTESIAN_POINT('',(4.99999999999999,4.99999999999999,4.33680868994202E-15));
#239=CARTESIAN_POINT('',(5.0,5.0,-2.23));
#240=CARTESIAN_POINT('',(6.27279220613578,6.27279220613578,-2.23));
#241=CARTESIAN_POINT('',(5.0,5.0,-30.9206565099015));
#242=CARTESIAN_POINT('',(5.0,5.0,-2.23));
#243=MECHANICAL_DESIGN_GEOMETRIC_PRESENTATION_REPRESENTATION('',(#99,#100,#101,#102),
     #244);
#244=(GEOMETRIC_REPRESENTATION_CONTEXT(3)GLOBAL_UNCERTAINTY_ASSIGNED_CONTEXT((#245))
     GLOBAL_UNIT_ASSIGNED_CONTEXT((#251,#247,#246))REPRESENTATION_CONTEXT('RCMX100300',
     'TOP_LEVEL_ASSEMBLY_PART'));
#245=UNCERTAINTY_MEASURE_WITH_UNIT(LENGTH_MEASURE(2.0E-5),#251,'DISTANCE_ACCURACY_VALUE',
     'Maximum Tolerance applied to model');
#246=(NAMED_UNIT(*)SI_UNIT($,.STERADIAN.)SOLID_ANGLE_UNIT());
#247=(CONVERSION_BASED_UNIT('DEGREE',#249)NAMED_UNIT(#248)PLANE_ANGLE_UNIT());
#248=DIMENSIONAL_EXPONENTS(0.0,0.0,0.0,0.0,0.0,0.0,0.0);
#249=PLANE_ANGLE_MEASURE_WITH_UNIT(PLANE_ANGLE_MEASURE(0.0174532925),#250);
#250=(NAMED_UNIT(*)PLANE_ANGLE_UNIT()SI_UNIT($,.RADIAN.));
#251=(LENGTH_UNIT()NAMED_UNIT(*)SI_UNIT(.MILLI.,.METRE.));
#252=CONSTRUCTIVE_GEOMETRY_REPRESENTATION('supplemental geometry',(#116,#117),#244);
#253=CONSTRUCTIVE_GEOMETRY_REPRESENTATION_RELATIONSHIP('supplemental geometry','contains PCS and MCS coordinate systems',
     #24,#252);
ENDSEC;
END-ISO-10303-21;
