ISO-10303-21;
HEADER;
FILE_DESCRIPTION(
/* description */ (''),
/* implementation_level */ '2;1');
FILE_NAME(
/* name */ 'RCMT2507M0.stp',
/* time_stamp */ '2017-03-21T10:54:13',
/* author */ ('Sandvik Coromant R&D'),
/* organization */ ('Sandvik Machining Solutions'),
/* preprocessor_version */ 'ST-DEVELOPER v15',
/* originating_system */ 'SIEMENS PLM Software NX v8.5.3.3(64 bits)',
/* authorization */ '');
FILE_SCHEMA(('AUTOMOTIVE_DESIGN'));
ENDSEC;
DATA;
#10=GEOMETRICALLY_BOUNDED_WIREFRAME_SHAPE_REPRESENTATION('IsoTurningInsert-None',
     (#25),#219);
#11=SHAPE_REPRESENTATION_RELATIONSHIP('None','relationship between IsoTurningInsert-None and IsoTurningInsert-None',
     #24,#13);
#12=SHAPE_REPRESENTATION_RELATIONSHIP('None','relationship between IsoTurningInsert-None and IsoTurningInsert-None',
     #24,#10);
#13=ADVANCED_BREP_SHAPE_REPRESENTATION('IsoTurningInsert-None',(#31),#219);
#14=SHAPE_DEFINITION_REPRESENTATION(#15,#24);
#15=PRODUCT_DEFINITION_SHAPE('','',#16);
#16=PRODUCT_DEFINITION(' ','',#18,#17);
#17=PRODUCT_DEFINITION_CONTEXT('part definition',#23,'design');
#18=PRODUCT_DEFINITION_FORMATION_WITH_SPECIFIED_SOURCE(' ',' ',#20,.NOT_KNOWN.);
#19=PRODUCT_RELATED_PRODUCT_CATEGORY('part','',(#20));
#20=PRODUCT('IsoTurningInsert','IsoTurningInsert',' ',(#21));
#21=PRODUCT_CONTEXT(' ',#23,'mechanical');
#22=APPLICATION_PROTOCOL_DEFINITION('international standard','automotive_design',
     2010,#23);
#23=APPLICATION_CONTEXT('core data for automotive mechanical design processes');
#24=SHAPE_REPRESENTATION('IsoTurningInsert-None',(#137),#219);
#25=GEOMETRIC_CURVE_SET('geometric curve set',(#110));
#26=SURFACE_STYLE_USAGE(.BOTH.,#27);
#27=SURFACE_SIDE_STYLE('',(#28));
#28=SURFACE_STYLE_FILL_AREA(#29);
#29=FILL_AREA_STYLE('',(#30));
#30=FILL_AREA_STYLE_COLOUR('',#136);
#31=MANIFOLD_SOLID_BREP('CUT',#32);
#32=CLOSED_SHELL('',(#38,#39,#40,#41,#42,#43,#44));
#33=CYLINDRICAL_SURFACE('',#153,3.79999999999999);
#34=TOROIDAL_SURFACE('',#152,9.8,6.00000000000001);
#35=TOROIDAL_SURFACE('',#154,5.20828746432351,0.3);
#36=CONICAL_SURFACE('',#147,12.5,6.99999999999999);
#37=CONICAL_SURFACE('',#149,5.50000000000248,3.99999999985492);
#38=ADVANCED_FACE('',(#47,#48),#45,.F.);
#39=ADVANCED_FACE('',(#49,#50),#46,.F.);
#40=ADVANCED_FACE('',(#51,#52),#36,.T.);
#41=ADVANCED_FACE('',(#53,#54),#37,.F.);
#42=ADVANCED_FACE('',(#55,#56),#34,.T.);
#43=ADVANCED_FACE('',(#57,#58),#33,.F.);
#44=ADVANCED_FACE('',(#59,#60),#35,.F.);
#45=PLANE('',#143);
#46=PLANE('',#146);
#47=FACE_BOUND('',#61,.T.);
#48=FACE_BOUND('',#62,.T.);
#49=FACE_BOUND('',#63,.T.);
#50=FACE_BOUND('',#64,.T.);
#51=FACE_BOUND('',#65,.T.);
#52=FACE_BOUND('',#66,.T.);
#53=FACE_BOUND('',#67,.T.);
#54=FACE_BOUND('',#68,.T.);
#55=FACE_BOUND('',#69,.T.);
#56=FACE_BOUND('',#70,.T.);
#57=FACE_BOUND('',#71,.T.);
#58=FACE_BOUND('',#72,.T.);
#59=FACE_BOUND('',#73,.T.);
#60=FACE_BOUND('',#74,.T.);
#61=EDGE_LOOP('',(#75));
#62=EDGE_LOOP('',(#76));
#63=EDGE_LOOP('',(#77));
#64=EDGE_LOOP('',(#78));
#65=EDGE_LOOP('',(#79));
#66=EDGE_LOOP('',(#80));
#67=EDGE_LOOP('',(#81));
#68=EDGE_LOOP('',(#82));
#69=EDGE_LOOP('',(#83));
#70=EDGE_LOOP('',(#84));
#71=EDGE_LOOP('',(#85));
#72=EDGE_LOOP('',(#86));
#73=EDGE_LOOP('',(#87));
#74=EDGE_LOOP('',(#88));
#75=ORIENTED_EDGE('',*,*,#96,.F.);
#76=ORIENTED_EDGE('',*,*,#97,.F.);
#77=ORIENTED_EDGE('',*,*,#98,.T.);
#78=ORIENTED_EDGE('',*,*,#99,.F.);
#79=ORIENTED_EDGE('',*,*,#99,.T.);
#80=ORIENTED_EDGE('',*,*,#96,.T.);
#81=ORIENTED_EDGE('',*,*,#100,.T.);
#82=ORIENTED_EDGE('',*,*,#97,.T.);
#83=ORIENTED_EDGE('',*,*,#101,.T.);
#84=ORIENTED_EDGE('',*,*,#102,.T.);
#85=ORIENTED_EDGE('',*,*,#102,.F.);
#86=ORIENTED_EDGE('',*,*,#98,.F.);
#87=ORIENTED_EDGE('',*,*,#101,.F.);
#88=ORIENTED_EDGE('',*,*,#100,.F.);
#89=VERTEX_POINT('',#198);
#90=VERTEX_POINT('',#200);
#91=VERTEX_POINT('',#203);
#92=VERTEX_POINT('',#205);
#93=VERTEX_POINT('',#209);
#94=VERTEX_POINT('',#212);
#95=VERTEX_POINT('',#214);
#96=EDGE_CURVE('',#89,#89,#111,.T.);
#97=EDGE_CURVE('',#90,#90,#112,.T.);
#98=EDGE_CURVE('',#91,#91,#113,.T.);
#99=EDGE_CURVE('',#92,#92,#114,.T.);
#100=EDGE_CURVE('',#93,#93,#115,.T.);
#101=EDGE_CURVE('',#94,#94,#116,.T.);
#102=EDGE_CURVE('',#95,#95,#117,.T.);
#103=CURVE_STYLE('',#107,POSITIVE_LENGTH_MEASURE(0.18),#106);
#104=CURVE_STYLE('',#108,POSITIVE_LENGTH_MEASURE(0.18),#135);
#105=CURVE_STYLE('',#109,POSITIVE_LENGTH_MEASURE(0.18),#135);
#106=DRAUGHTING_PRE_DEFINED_COLOUR('blue');
#107=DRAUGHTING_PRE_DEFINED_CURVE_FONT('continuous');
#108=DRAUGHTING_PRE_DEFINED_CURVE_FONT('continuous');
#109=DRAUGHTING_PRE_DEFINED_CURVE_FONT('continuous');
#110=CIRCLE('CUTTING EDGE LINE',#138,12.5);
#111=CIRCLE('',#141,12.5);
#112=CIRCLE('',#142,5.56293413074917);
#113=CIRCLE('',#144,3.79999999999999);
#114=CIRCLE('',#145,11.5253975478332);
#115=CIRCLE('',#148,5.50755667940152);
#116=CIRCLE('',#150,5.42694044221287);
#117=CIRCLE('',#151,3.79999999999999);
#118=PRESENTATION_LAYER_ASSIGNMENT('1','Layer 1',(#110,#139,#140,#31));
#121=STYLED_ITEM('',(#127),#110);
#122=STYLED_ITEM('',(#128),#139);
#123=STYLED_ITEM('',(#129),#140);
#124=STYLED_ITEM('',(#130),#31);
#125=PRESENTATION_STYLE_ASSIGNMENT((#131));
#126=PRESENTATION_STYLE_ASSIGNMENT((#132));
#127=PRESENTATION_STYLE_ASSIGNMENT((#103));
#128=PRESENTATION_STYLE_ASSIGNMENT((#104));
#129=PRESENTATION_STYLE_ASSIGNMENT((#105));
#130=PRESENTATION_STYLE_ASSIGNMENT((#26));
#131=POINT_STYLE('',#133,POSITIVE_LENGTH_MEASURE(3.0),#135);
#132=POINT_STYLE('',#134,POSITIVE_LENGTH_MEASURE(3.0),#135);
#133=PRE_DEFINED_POINT_MARKER_SYMBOL('plus');
#134=PRE_DEFINED_POINT_MARKER_SYMBOL('plus');
#135=COLOUR_RGB('Medium Maroon',0.6,0.4,0.4);
#136=COLOUR_RGB('IsoInsertColor',0.8,0.8,0.8);
#137=AXIS2_PLACEMENT_3D('',#191,#155,#156);
#138=AXIS2_PLACEMENT_3D('',#194,#157,#158);
#139=AXIS2_PLACEMENT_3D('PCS',#195,#159,#160);
#140=AXIS2_PLACEMENT_3D('MCS',#196,#161,#162);
#141=AXIS2_PLACEMENT_3D('',#197,#163,#164);
#142=AXIS2_PLACEMENT_3D('',#199,#165,#166);
#143=AXIS2_PLACEMENT_3D('',#201,#167,#168);
#144=AXIS2_PLACEMENT_3D('',#202,#169,#170);
#145=AXIS2_PLACEMENT_3D('',#204,#171,#172);
#146=AXIS2_PLACEMENT_3D('',#206,#173,#174);
#147=AXIS2_PLACEMENT_3D('',#207,#175,#176);
#148=AXIS2_PLACEMENT_3D('',#208,#177,#178);
#149=AXIS2_PLACEMENT_3D('',#210,#179,#180);
#150=AXIS2_PLACEMENT_3D('',#211,#181,#182);
#151=AXIS2_PLACEMENT_3D('',#213,#183,#184);
#152=AXIS2_PLACEMENT_3D('',#215,#185,#186);
#153=AXIS2_PLACEMENT_3D('',#216,#187,#188);
#154=AXIS2_PLACEMENT_3D('',#217,#189,#190);
#155=DIRECTION('',(0.0,0.0,1.0));
#156=DIRECTION('',(1.0,0.0,0.0));
#157=DIRECTION('',(0.0,0.0,-1.0));
#158=DIRECTION('',(-0.882015164970351,-0.471221019015837,0.0));
#159=DIRECTION('',(0.0,0.0,1.0));
#160=DIRECTION('',(1.0,0.0,0.0));
#161=DIRECTION('',(0.0,0.0,1.0));
#162=DIRECTION('',(1.0,0.0,0.0));
#163=DIRECTION('',(0.0,0.0,-1.0));
#164=DIRECTION('',(-0.882015164970351,-0.471221019015837,0.0));
#165=DIRECTION('',(0.0,0.0,1.0));
#166=DIRECTION('',(-0.707106781186547,-0.707106781186548,0.0));
#167=DIRECTION('',(0.0,0.0,-1.0));
#168=DIRECTION('',(0.707106781186547,0.707106781186548,0.0));
#169=DIRECTION('',(0.0,0.0,1.0));
#170=DIRECTION('',(-0.707106781186548,-0.707106781186548,0.0));
#171=DIRECTION('',(0.0,0.0,1.0));
#172=DIRECTION('',(-0.707106781186547,-0.707106781186548,0.0));
#173=DIRECTION('',(0.0,0.0,1.0));
#174=DIRECTION('',(-0.707106781186547,-0.707106781186548,0.0));
#175=DIRECTION('',(0.0,0.0,1.0));
#176=DIRECTION('',(-0.707106781186547,-0.707106781186548,-2.56455498602215E-17));
#177=DIRECTION('',(0.0,0.0,-1.0));
#178=DIRECTION('',(0.707106781186548,0.707106781186547,0.0));
#179=DIRECTION('',(0.0,0.0,1.0));
#180=DIRECTION('',(-0.707106781186547,-0.707106781186548,4.59975287656188E-17));
#181=DIRECTION('',(0.0,0.0,1.0));
#182=DIRECTION('',(0.707106781186547,0.707106781186548,0.0));
#183=DIRECTION('',(0.0,0.0,-1.0));
#184=DIRECTION('',(-0.707106781186548,-0.707106781186548,0.0));
#185=DIRECTION('',(0.0,0.0,1.0));
#186=DIRECTION('',(-0.707106781186547,-0.707106781186548,0.0));
#187=DIRECTION('',(0.0,0.0,1.0));
#188=DIRECTION('',(-0.707106781186548,-0.707106781186548,0.0));
#189=DIRECTION('',(0.0,0.0,-1.0));
#190=DIRECTION('',(0.707106781186548,0.707106781186547,0.0));
#191=CARTESIAN_POINT('',(0.0,0.0,0.0));
#194=CARTESIAN_POINT('',(12.5,12.5,0.0));
#195=CARTESIAN_POINT('',(0.0,0.0,0.0));
#196=CARTESIAN_POINT('',(12.5,12.5,0.0));
#197=CARTESIAN_POINT('',(12.5,12.5,4.26685108753951E-15));
#198=CARTESIAN_POINT('',(1.47481043787058,6.60973726230202,4.26685108753951E-15));
#199=CARTESIAN_POINT('',(12.5,12.5,0.0));
#200=CARTESIAN_POINT('',(8.56641155285317,8.56641155285317,0.0));
#201=CARTESIAN_POINT('',(12.5,12.5,4.26685108753951E-15));
#202=CARTESIAN_POINT('',(12.5,12.5,-7.9375));
#203=CARTESIAN_POINT('',(9.81299423149112,9.81299423149112,-7.9375));
#204=CARTESIAN_POINT('',(12.5,12.5,-7.9375));
#205=CARTESIAN_POINT('',(4.35031323805632,4.35031323805632,-7.9375));
#206=CARTESIAN_POINT('',(12.5,11.9696699141101,-7.9375));
#207=CARTESIAN_POINT('',(12.5,12.5,3.46944695195361E-15));
#208=CARTESIAN_POINT('',(12.5,12.5,-0.79193444989889));
#209=CARTESIAN_POINT('',(16.3944306757741,16.3944306757741,-0.79193444989889));
#210=CARTESIAN_POINT('',(12.5,12.5,-0.899999999997462));
#211=CARTESIAN_POINT('',(12.5,12.5,-0.976411683148099));
#212=CARTESIAN_POINT('',(16.3374263877842,16.3374263877842,-0.976411683148099));
#213=CARTESIAN_POINT('',(12.5,12.5,-5.08449519058155));
#214=CARTESIAN_POINT('',(9.81299423149112,9.81299423149112,-5.08449519058155));
#215=CARTESIAN_POINT('',(12.5,12.5,-5.08449519058155));
#216=CARTESIAN_POINT('',(12.5,12.5,-29.1328042564319));
#217=CARTESIAN_POINT('',(12.5,12.5,-0.771007507776426));
#218=MECHANICAL_DESIGN_GEOMETRIC_PRESENTATION_REPRESENTATION('',(#121,#122,#123,
     #124),#219);
#219=(GEOMETRIC_REPRESENTATION_CONTEXT(3)GLOBAL_UNCERTAINTY_ASSIGNED_CONTEXT((#220))
     GLOBAL_UNIT_ASSIGNED_CONTEXT((#226,#222,#221))REPRESENTATION_CONTEXT('RCMT2507M0',
     'TOP_LEVEL_ASSEMBLY_PART'));
#220=UNCERTAINTY_MEASURE_WITH_UNIT(LENGTH_MEASURE(2.0E-5),#226,'DISTANCE_ACCURACY_VALUE',
     'Maximum Tolerance applied to model');
#221=(NAMED_UNIT(*)SI_UNIT($,.STERADIAN.)SOLID_ANGLE_UNIT());
#222=(CONVERSION_BASED_UNIT('DEGREE',#224)NAMED_UNIT(#223)PLANE_ANGLE_UNIT());
#223=DIMENSIONAL_EXPONENTS(0.0,0.0,0.0,0.0,0.0,0.0,0.0);
#224=PLANE_ANGLE_MEASURE_WITH_UNIT(PLANE_ANGLE_MEASURE(0.0174532925),#225);
#225=(NAMED_UNIT(*)PLANE_ANGLE_UNIT()SI_UNIT($,.RADIAN.));
#226=(LENGTH_UNIT()NAMED_UNIT(*)SI_UNIT(.MILLI.,.METRE.));
#227=CONSTRUCTIVE_GEOMETRY_REPRESENTATION('supplemental geometry',(#139,#140),#219);
#228=CONSTRUCTIVE_GEOMETRY_REPRESENTATION_RELATIONSHIP('supplemental geometry','contains PCS and MCS coordinate systems',
     #24,#227);
ENDSEC;
END-ISO-10303-21;
