ISO-10303-21;
HEADER;
FILE_DESCRIPTION(
/* description */ (''),
/* implementation_level */ '2;1');
FILE_NAME(
/* name */ 'DNGN150716.stp',
/* time_stamp */ '2017-03-21T10:54:10',
/* author */ ('Sandvik Coromant R&D'),
/* organization */ ('Sandvik Machining Solutions'),
/* preprocessor_version */ 'ST-DEVELOPER v15',
/* originating_system */ 'SIEMENS PLM Software NX v8.5.3.3(64 bits)',
/* authorization */ '');
FILE_SCHEMA(('AUTOMOTIVE_DESIGN'));
ENDSEC;
DATA;
#10=GEOMETRICALLY_BOUNDED_WIREFRAME_SHAPE_REPRESENTATION('IsoTurningInsert-None',
     (#25),#433);
#11=SHAPE_REPRESENTATION_RELATIONSHIP('None','relationship between IsoTurningInsert-None and IsoTurningInsert-None',
     #24,#13);
#12=SHAPE_REPRESENTATION_RELATIONSHIP('None','relationship between IsoTurningInsert-None and IsoTurningInsert-None',
     #24,#10);
#13=ADVANCED_BREP_SHAPE_REPRESENTATION('IsoTurningInsert-None',(#31),#433);
#14=SHAPE_DEFINITION_REPRESENTATION(#15,#24);
#15=PRODUCT_DEFINITION_SHAPE('','',#16);
#16=PRODUCT_DEFINITION(' ','',#18,#17);
#17=PRODUCT_DEFINITION_CONTEXT('part definition',#23,'design');
#18=PRODUCT_DEFINITION_FORMATION_WITH_SPECIFIED_SOURCE(' ',' ',#20,.NOT_KNOWN.);
#19=PRODUCT_RELATED_PRODUCT_CATEGORY('part','',(#20));
#20=PRODUCT('IsoTurningInsert','IsoTurningInsert',' ',(#21));
#21=PRODUCT_CONTEXT(' ',#23,'mechanical');
#22=APPLICATION_PROTOCOL_DEFINITION('international standard','automotive_design',
     2010,#23);
#23=APPLICATION_CONTEXT('core data for automotive mechanical design processes');
#24=SHAPE_REPRESENTATION('IsoTurningInsert-None',(#228),#433);
#25=GEOMETRIC_CURVE_SET('geometric curve set',(#208));
#26=SURFACE_STYLE_USAGE(.BOTH.,#27);
#27=SURFACE_SIDE_STYLE('',(#28));
#28=SURFACE_STYLE_FILL_AREA(#29);
#29=FILL_AREA_STYLE('',(#30));
#30=FILL_AREA_STYLE_COLOUR('',#227);
#31=MANIFOLD_SOLID_BREP('CUT',#32);
#32=CLOSED_SHELL('',(#37,#38,#39,#40,#41,#42,#43,#44,#45,#46));
#33=CYLINDRICAL_SURFACE('',#245,1.5875);
#34=CYLINDRICAL_SURFACE('',#246,1.5875);
#35=CYLINDRICAL_SURFACE('',#247,1.5875);
#36=CYLINDRICAL_SURFACE('',#248,1.5875);
#37=ADVANCED_FACE('',(#53),#47,.F.);
#38=ADVANCED_FACE('',(#54),#48,.T.);
#39=ADVANCED_FACE('',(#55),#49,.T.);
#40=ADVANCED_FACE('',(#56),#50,.T.);
#41=ADVANCED_FACE('',(#57),#51,.T.);
#42=ADVANCED_FACE('',(#58),#52,.T.);
#43=ADVANCED_FACE('',(#59),#33,.T.);
#44=ADVANCED_FACE('',(#60),#34,.T.);
#45=ADVANCED_FACE('',(#61),#35,.T.);
#46=ADVANCED_FACE('',(#62),#36,.T.);
#47=PLANE('',#235);
#48=PLANE('',#236);
#49=PLANE('',#237);
#50=PLANE('',#238);
#51=PLANE('',#239);
#52=PLANE('',#244);
#53=FACE_OUTER_BOUND('',#63,.T.);
#54=FACE_OUTER_BOUND('',#64,.T.);
#55=FACE_OUTER_BOUND('',#65,.T.);
#56=FACE_OUTER_BOUND('',#66,.T.);
#57=FACE_OUTER_BOUND('',#67,.T.);
#58=FACE_OUTER_BOUND('',#68,.T.);
#59=FACE_OUTER_BOUND('',#69,.T.);
#60=FACE_OUTER_BOUND('',#70,.T.);
#61=FACE_OUTER_BOUND('',#71,.T.);
#62=FACE_OUTER_BOUND('',#72,.T.);
#63=EDGE_LOOP('',(#81,#82,#83,#84,#85,#86,#87,#88));
#64=EDGE_LOOP('',(#89,#90,#91,#92));
#65=EDGE_LOOP('',(#93,#94,#95,#96));
#66=EDGE_LOOP('',(#97,#98,#99,#100));
#67=EDGE_LOOP('',(#101,#102,#103,#104));
#68=EDGE_LOOP('',(#105,#106,#107,#108,#109,#110,#111,#112));
#69=EDGE_LOOP('',(#113,#114,#115,#116));
#70=EDGE_LOOP('',(#117,#118,#119,#120));
#71=EDGE_LOOP('',(#121,#122,#123,#124));
#72=EDGE_LOOP('',(#125,#126,#127,#128));
#73=CIRCLE('',#231,1.5875);
#74=CIRCLE('',#232,1.5875);
#75=CIRCLE('',#233,1.5875);
#76=CIRCLE('',#234,1.5875);
#77=CIRCLE('',#240,1.5875);
#78=CIRCLE('',#241,1.5875);
#79=CIRCLE('',#242,1.5875);
#80=CIRCLE('',#243,1.5875);
#81=ORIENTED_EDGE('',*,*,#145,.T.);
#82=ORIENTED_EDGE('',*,*,#146,.T.);
#83=ORIENTED_EDGE('',*,*,#147,.T.);
#84=ORIENTED_EDGE('',*,*,#148,.T.);
#85=ORIENTED_EDGE('',*,*,#149,.T.);
#86=ORIENTED_EDGE('',*,*,#150,.T.);
#87=ORIENTED_EDGE('',*,*,#151,.T.);
#88=ORIENTED_EDGE('',*,*,#152,.T.);
#89=ORIENTED_EDGE('',*,*,#153,.F.);
#90=ORIENTED_EDGE('',*,*,#154,.T.);
#91=ORIENTED_EDGE('',*,*,#145,.F.);
#92=ORIENTED_EDGE('',*,*,#155,.T.);
#93=ORIENTED_EDGE('',*,*,#151,.F.);
#94=ORIENTED_EDGE('',*,*,#156,.T.);
#95=ORIENTED_EDGE('',*,*,#157,.F.);
#96=ORIENTED_EDGE('',*,*,#158,.T.);
#97=ORIENTED_EDGE('',*,*,#149,.F.);
#98=ORIENTED_EDGE('',*,*,#159,.T.);
#99=ORIENTED_EDGE('',*,*,#160,.F.);
#100=ORIENTED_EDGE('',*,*,#161,.T.);
#101=ORIENTED_EDGE('',*,*,#147,.F.);
#102=ORIENTED_EDGE('',*,*,#162,.T.);
#103=ORIENTED_EDGE('',*,*,#163,.F.);
#104=ORIENTED_EDGE('',*,*,#164,.T.);
#105=ORIENTED_EDGE('',*,*,#163,.T.);
#106=ORIENTED_EDGE('',*,*,#165,.T.);
#107=ORIENTED_EDGE('',*,*,#153,.T.);
#108=ORIENTED_EDGE('',*,*,#166,.T.);
#109=ORIENTED_EDGE('',*,*,#157,.T.);
#110=ORIENTED_EDGE('',*,*,#167,.T.);
#111=ORIENTED_EDGE('',*,*,#160,.T.);
#112=ORIENTED_EDGE('',*,*,#168,.T.);
#113=ORIENTED_EDGE('',*,*,#146,.F.);
#114=ORIENTED_EDGE('',*,*,#154,.F.);
#115=ORIENTED_EDGE('',*,*,#165,.F.);
#116=ORIENTED_EDGE('',*,*,#162,.F.);
#117=ORIENTED_EDGE('',*,*,#148,.F.);
#118=ORIENTED_EDGE('',*,*,#164,.F.);
#119=ORIENTED_EDGE('',*,*,#168,.F.);
#120=ORIENTED_EDGE('',*,*,#159,.F.);
#121=ORIENTED_EDGE('',*,*,#150,.F.);
#122=ORIENTED_EDGE('',*,*,#161,.F.);
#123=ORIENTED_EDGE('',*,*,#167,.F.);
#124=ORIENTED_EDGE('',*,*,#156,.F.);
#125=ORIENTED_EDGE('',*,*,#152,.F.);
#126=ORIENTED_EDGE('',*,*,#158,.F.);
#127=ORIENTED_EDGE('',*,*,#166,.F.);
#128=ORIENTED_EDGE('',*,*,#155,.F.);
#129=VERTEX_POINT('',#383);
#130=VERTEX_POINT('',#384);
#131=VERTEX_POINT('',#386);
#132=VERTEX_POINT('',#388);
#133=VERTEX_POINT('',#390);
#134=VERTEX_POINT('',#392);
#135=VERTEX_POINT('',#394);
#136=VERTEX_POINT('',#396);
#137=VERTEX_POINT('',#400);
#138=VERTEX_POINT('',#401);
#139=VERTEX_POINT('',#406);
#140=VERTEX_POINT('',#408);
#141=VERTEX_POINT('',#412);
#142=VERTEX_POINT('',#414);
#143=VERTEX_POINT('',#418);
#144=VERTEX_POINT('',#420);
#145=EDGE_CURVE('',#129,#130,#169,.T.);
#146=EDGE_CURVE('',#130,#131,#73,.T.);
#147=EDGE_CURVE('',#131,#132,#170,.T.);
#148=EDGE_CURVE('',#132,#133,#74,.T.);
#149=EDGE_CURVE('',#133,#134,#171,.T.);
#150=EDGE_CURVE('',#134,#135,#75,.T.);
#151=EDGE_CURVE('',#135,#136,#172,.T.);
#152=EDGE_CURVE('',#136,#129,#76,.T.);
#153=EDGE_CURVE('',#137,#138,#173,.T.);
#154=EDGE_CURVE('',#137,#130,#174,.T.);
#155=EDGE_CURVE('',#129,#138,#175,.T.);
#156=EDGE_CURVE('',#135,#139,#176,.T.);
#157=EDGE_CURVE('',#140,#139,#177,.T.);
#158=EDGE_CURVE('',#140,#136,#178,.T.);
#159=EDGE_CURVE('',#133,#141,#179,.T.);
#160=EDGE_CURVE('',#142,#141,#180,.T.);
#161=EDGE_CURVE('',#142,#134,#181,.T.);
#162=EDGE_CURVE('',#131,#143,#182,.T.);
#163=EDGE_CURVE('',#144,#143,#183,.T.);
#164=EDGE_CURVE('',#144,#132,#184,.T.);
#165=EDGE_CURVE('',#143,#137,#77,.T.);
#166=EDGE_CURVE('',#138,#140,#78,.T.);
#167=EDGE_CURVE('',#139,#142,#79,.T.);
#168=EDGE_CURVE('',#141,#144,#80,.T.);
#169=LINE('',#382,#185);
#170=LINE('',#387,#186);
#171=LINE('',#391,#187);
#172=LINE('',#395,#188);
#173=LINE('',#399,#189);
#174=LINE('',#402,#190);
#175=LINE('',#403,#191);
#176=LINE('',#405,#192);
#177=LINE('',#407,#193);
#178=LINE('',#409,#194);
#179=LINE('',#411,#195);
#180=LINE('',#413,#196);
#181=LINE('',#415,#197);
#182=LINE('',#417,#198);
#183=LINE('',#419,#199);
#184=LINE('',#421,#200);
#185=VECTOR('',#255,1.0);
#186=VECTOR('',#258,1.0);
#187=VECTOR('',#261,1.0);
#188=VECTOR('',#264,1.0);
#189=VECTOR('',#269,1.0);
#190=VECTOR('',#270,1.0);
#191=VECTOR('',#271,1.0);
#192=VECTOR('',#274,1.0);
#193=VECTOR('',#275,1.0);
#194=VECTOR('',#276,1.0);
#195=VECTOR('',#279,1.0);
#196=VECTOR('',#280,1.0);
#197=VECTOR('',#281,1.0);
#198=VECTOR('',#284,1.0);
#199=VECTOR('',#285,1.0);
#200=VECTOR('',#286,1.0);
#201=CURVE_STYLE('',#205,POSITIVE_LENGTH_MEASURE(0.18),#204);
#202=CURVE_STYLE('',#206,POSITIVE_LENGTH_MEASURE(0.18),#226);
#203=CURVE_STYLE('',#207,POSITIVE_LENGTH_MEASURE(0.18),#226);
#204=DRAUGHTING_PRE_DEFINED_COLOUR('blue');
#205=DRAUGHTING_PRE_DEFINED_CURVE_FONT('continuous');
#206=DRAUGHTING_PRE_DEFINED_CURVE_FONT('continuous');
#207=DRAUGHTING_PRE_DEFINED_CURVE_FONT('continuous');
#208=B_SPLINE_CURVE_WITH_KNOTS('CUTTING EDGE LINE',5,(#310,#311,#312,#313,#314,#315,
     #316,#317,#318,#319,#320,#321,#322,#323,#324,#325,#326,#327,#328,#329,#330,
     #331,#332,#333,#334,#335,#336,#337,#338,#339,#340,#341,#342,#343,#344,#345,
     #346,#347,#348,#349,#350,#351,#352,#353,#354,#355,#356,#357,#358,#359,#360,
     #361,#362,#363,#364,#365,#366,#367,#368,#369,#370,#371,#372,#373,#374,#375,
     #376,#377,#378,#379),.UNSPECIFIED.,.T.,.F.,(2,4,1,1,1,4,4,1,1,1,1,1,1,1,1,1,
     1,1,1,1,1,1,4,4,1,1,1,4,4,1,1,1,1,1,1,1,1,1,1,1,1,1,1,1,4,4,1,1),(-0.2058539082,
     0.0,0.00674454179999995,0.0134890836000096,0.0202336254,0.0269781672,0.2328320753,
     0.23666420133125,0.2404963273625,0.24432845339375,0.248160579425,0.25199270545625,
     0.2558248314875,0.25965695751875,0.26348908355,0.26732120958125,0.2711533356125,
     0.27498546164375,0.278817587675,0.28264971370625,0.2864818397375,0.29031396576875,
     0.2941460918,0.5,0.5067445418,0.51348908360001,0.5202336254,0.5269781672,0.7328320753,
     0.73666420133125,0.7404963273625,0.74432845339375,0.748160579425,0.75199270545625,
     0.7558248314875,0.75965695751875,0.76348908355,0.76732120958125,0.7711533356125,
     0.77498546164375,0.778817587675,0.78264971370625,0.7864818397375,0.79031396576875,
     0.7941460918,1.0,1.0067445418,1.01348908360001),.UNSPECIFIED.);
#209=PRESENTATION_LAYER_ASSIGNMENT('1','Layer 1',(#208,#229,#230,#31));
#212=STYLED_ITEM('',(#218),#208);
#213=STYLED_ITEM('',(#219),#229);
#214=STYLED_ITEM('',(#220),#230);
#215=STYLED_ITEM('',(#221),#31);
#216=PRESENTATION_STYLE_ASSIGNMENT((#222));
#217=PRESENTATION_STYLE_ASSIGNMENT((#223));
#218=PRESENTATION_STYLE_ASSIGNMENT((#201));
#219=PRESENTATION_STYLE_ASSIGNMENT((#202));
#220=PRESENTATION_STYLE_ASSIGNMENT((#203));
#221=PRESENTATION_STYLE_ASSIGNMENT((#26));
#222=POINT_STYLE('',#224,POSITIVE_LENGTH_MEASURE(3.0),#226);
#223=POINT_STYLE('',#225,POSITIVE_LENGTH_MEASURE(3.0),#226);
#224=PRE_DEFINED_POINT_MARKER_SYMBOL('plus');
#225=PRE_DEFINED_POINT_MARKER_SYMBOL('plus');
#226=COLOUR_RGB('Medium Maroon',0.6,0.4,0.4);
#227=COLOUR_RGB('IsoInsertColor',0.8,0.8,0.8);
#228=AXIS2_PLACEMENT_3D('',#307,#249,#250);
#229=AXIS2_PLACEMENT_3D('PCS',#380,#251,#252);
#230=AXIS2_PLACEMENT_3D('MCS',#381,#253,#254);
#231=AXIS2_PLACEMENT_3D('',#385,#256,#257);
#232=AXIS2_PLACEMENT_3D('',#389,#259,#260);
#233=AXIS2_PLACEMENT_3D('',#393,#262,#263);
#234=AXIS2_PLACEMENT_3D('',#397,#265,#266);
#235=AXIS2_PLACEMENT_3D('',#398,#267,#268);
#236=AXIS2_PLACEMENT_3D('',#404,#272,#273);
#237=AXIS2_PLACEMENT_3D('',#410,#277,#278);
#238=AXIS2_PLACEMENT_3D('',#416,#282,#283);
#239=AXIS2_PLACEMENT_3D('',#422,#287,#288);
#240=AXIS2_PLACEMENT_3D('',#423,#289,#290);
#241=AXIS2_PLACEMENT_3D('',#424,#291,#292);
#242=AXIS2_PLACEMENT_3D('',#425,#293,#294);
#243=AXIS2_PLACEMENT_3D('',#426,#295,#296);
#244=AXIS2_PLACEMENT_3D('',#427,#297,#298);
#245=AXIS2_PLACEMENT_3D('',#428,#299,#300);
#246=AXIS2_PLACEMENT_3D('',#429,#301,#302);
#247=AXIS2_PLACEMENT_3D('',#430,#303,#304);
#248=AXIS2_PLACEMENT_3D('',#431,#305,#306);
#249=DIRECTION('',(0.0,0.0,1.0));
#250=DIRECTION('',(1.0,0.0,0.0));
#251=DIRECTION('',(0.0,0.0,1.0));
#252=DIRECTION('',(1.0,0.0,0.0));
#253=DIRECTION('',(0.0,0.0,1.0));
#254=DIRECTION('',(1.0,0.0,0.0));
#255=DIRECTION('',(1.0,-1.66533453693773E-16,0.0));
#256=DIRECTION('',(0.0,0.0,-1.0));
#257=DIRECTION('',(-0.887010833178223,-0.461748613235034,0.0));
#258=DIRECTION('',(-0.573576436351046,-0.819152044288992,0.0));
#259=DIRECTION('',(0.0,0.0,-1.0));
#260=DIRECTION('',(-0.887010833178222,-0.461748613235034,0.0));
#261=DIRECTION('',(-1.0,1.66533453693773E-16,0.0));
#262=DIRECTION('',(0.0,0.0,-1.0));
#263=DIRECTION('',(-0.887010833178222,-0.461748613235034,0.0));
#264=DIRECTION('',(0.573576436351046,0.819152044288992,0.0));
#265=DIRECTION('',(0.0,0.0,-1.0));
#266=DIRECTION('',(-0.887010833178222,-0.461748613235034,0.0));
#267=DIRECTION('',(0.0,0.0,1.0));
#268=DIRECTION('',(-0.887010833178222,-0.461748613235034,0.0));
#269=DIRECTION('',(-1.0,1.66533453693773E-16,-8.59314765579595E-17));
#270=DIRECTION('',(8.59314765579594E-17,-4.28422977201317E-16,-1.0));
#271=DIRECTION('',(-8.59314765579594E-17,4.28422977201317E-16,1.0));
#272=DIRECTION('',(1.66533453693773E-16,1.0,-4.28422977201317E-16));
#273=DIRECTION('',(-1.0,1.66533453693773E-16,0.0));
#274=DIRECTION('',(-8.59314765579595E-17,4.28422977201317E-16,1.0));
#275=DIRECTION('',(-0.573576436351046,-0.819152044288992,3.01655287500337E-16));
#276=DIRECTION('',(8.59314765579595E-17,-4.28422977201317E-16,-1.0));
#277=DIRECTION('',(-0.819152044288992,0.573576436351046,-3.16124269205261E-16));
#278=DIRECTION('',(-0.573576436351046,-0.819152044288992,0.0));
#279=DIRECTION('',(-8.59314765579594E-17,4.28422977201317E-16,1.0));
#280=DIRECTION('',(1.0,-1.66533453693773E-16,8.59314765579595E-17));
#281=DIRECTION('',(8.59314765579594E-17,-4.28422977201317E-16,-1.0));
#282=DIRECTION('',(-1.66533453693773E-16,-1.0,4.28422977201317E-16));
#283=DIRECTION('',(1.0,-1.66533453693773E-16,0.0));
#284=DIRECTION('',(-8.59314765579594E-17,4.28422977201317E-16,1.0));
#285=DIRECTION('',(0.573576436351046,0.819152044288992,-3.01655287500337E-16));
#286=DIRECTION('',(8.59314765579594E-17,-4.28422977201317E-16,-1.0));
#287=DIRECTION('',(0.819152044288992,-0.573576436351046,3.16124269205261E-16));
#288=DIRECTION('',(0.573576436351046,0.819152044288992,0.0));
#289=DIRECTION('',(-8.59314765579594E-17,4.28422977201317E-16,1.0));
#290=DIRECTION('',(-0.461748613235034,0.887010833178222,-4.19694562093911E-16));
#291=DIRECTION('',(-8.59314765579594E-17,4.28422977201317E-16,1.0));
#292=DIRECTION('',(-0.461748613235034,0.887010833178222,-4.19694562093911E-16));
#293=DIRECTION('',(-8.59314765579594E-17,4.28422977201317E-16,1.0));
#294=DIRECTION('',(-0.461748613235034,0.887010833178222,-4.19694562093911E-16));
#295=DIRECTION('',(-8.59314765579594E-17,4.28422977201317E-16,1.0));
#296=DIRECTION('',(-0.461748613235034,0.887010833178222,-4.19694562093911E-16));
#297=DIRECTION('',(-8.59314765579594E-17,4.28422977201317E-16,1.0));
#298=DIRECTION('',(-0.461748613235034,0.887010833178222,-4.19694562093911E-16));
#299=DIRECTION('',(-8.59314765579594E-17,4.28422977201317E-16,1.0));
#300=DIRECTION('',(-0.461748613235034,0.887010833178222,-4.19694562093911E-16));
#301=DIRECTION('',(-8.59314765579594E-17,4.28422977201317E-16,1.0));
#302=DIRECTION('',(-0.461748613235034,0.887010833178222,-4.19694562093911E-16));
#303=DIRECTION('',(-8.59314765579594E-17,4.28422977201317E-16,1.0));
#304=DIRECTION('',(-0.461748613235034,0.887010833178222,-4.19694562093911E-16));
#305=DIRECTION('',(-8.59314765579594E-17,4.28422977201317E-16,1.0));
#306=DIRECTION('',(-0.461748613235034,0.887010833178222,-4.19694562093911E-16));
#307=CARTESIAN_POINT('',(0.0,0.0,0.0));
#310=CARTESIAN_POINT('',(12.351861492929,-3.5527136788005E-15,0.0));
#311=CARTESIAN_POINT('',(14.7507396768707,-2.66453525910038E-15,6.86420476303344E-16));
#312=CARTESIAN_POINT('',(14.8973448615729,0.00846184259115734,6.95393228500343E-16));
#313=CARTESIAN_POINT('',(15.1280687274426,0.0476840358067818,6.98654208723445E-16));
#314=CARTESIAN_POINT('',(15.4210665359128,0.159001114784588,6.70087160933937E-16));
#315=CARTESIAN_POINT('',(15.6803087875626,0.335162015100019,5.77302585758363E-16));
#316=CARTESIAN_POINT('',(15.8447755000834,0.501663015683031,4.39860691257984E-16));
#317=CARTESIAN_POINT('',(15.9357963151323,0.616901438916659,3.20385315701138E-16));
#318=CARTESIAN_POINT('',(17.3117363151179,2.58194740729271,5.01847277363352E-17));
#319=CARTESIAN_POINT('',(18.6456316754074,4.48694740729271,-2.95822839457879E-32));
#320=CARTESIAN_POINT('',(19.9795270356969,6.39194740729271,1.57772181044202E-31));
#321=CARTESIAN_POINT('',(21.3134223959864,8.29694740729271,5.01847277363352E-17));
#322=CARTESIAN_POINT('',(22.6709362730381,10.2356781449289,2.63594553528023E-16));
#323=CARTESIAN_POINT('',(22.7159859809797,10.3046712020631,2.82866338445176E-16));
#324=CARTESIAN_POINT('',(22.7793380110353,10.4166059211082,2.96469866963627E-16));
#325=CARTESIAN_POINT('',(22.848185998792,10.5741354849225,2.86223090214825E-16));
#326=CARTESIAN_POINT('',(22.9087589299243,10.7873459002392,2.39739335301557E-16));
#327=CARTESIAN_POINT('',(22.9387746036676,11.0080318954464,1.68621419441133E-16));
#328=CARTESIAN_POINT('',(22.937723429672,11.2313809965328,8.2428482227536E-17));
#329=CARTESIAN_POINT('',(22.9059400026436,11.4495639811991,-1.07379144040416E-17));
#330=CARTESIAN_POINT('',(22.8451781156945,11.6584876587359,-1.05105061329223E-16));
#331=CARTESIAN_POINT('',(22.7608083087945,11.8486083276984,-1.93862896727156E-16));
#332=CARTESIAN_POINT('',(22.6536201049792,12.0264753084338,-2.79357100476714E-16));
#333=CARTESIAN_POINT('',(22.5171879159197,12.1963600655378,-3.63392823863147E-16));
#334=CARTESIAN_POINT('',(22.3567590812613,12.3473623929041,-4.37714517764205E-16));
#335=CARTESIAN_POINT('',(22.1744232465888,12.4764268832585,-4.95752265529073E-16));
#336=CARTESIAN_POINT('',(21.9763049989672,12.5783723704931,-5.28066562674086E-16));
#337=CARTESIAN_POINT('',(21.7671837189063,12.6510731542654,-5.2368134294955E-16));
#338=CARTESIAN_POINT('',(21.5982940975691,12.6850184933153,-4.82874257671662E-16));
#339=CARTESIAN_POINT('',(21.4704467680665,12.697329768511,-4.23237253683601E-16));
#340=CARTESIAN_POINT('',(21.3880915133336,12.7,-3.70528357648143E-16));
#341=CARTESIAN_POINT('',(19.0213382943765,12.7,-6.80121476307091E-17));
#342=CARTESIAN_POINT('',(16.6957627027859,12.7,-3.25405123403667E-31));
#343=CARTESIAN_POINT('',(14.3701871111953,12.7,-1.57772181044202E-31));
#344=CARTESIAN_POINT('',(12.0446115196048,12.7,-6.80121476307092E-17));
#345=CARTESIAN_POINT('',(9.64573333566314,12.7,-4.10529567833231E-16));
#346=CARTESIAN_POINT('',(9.49912815096091,12.6915381574088,-5.25110627420229E-16));
#347=CARTESIAN_POINT('',(9.26840428509117,12.6523159641932,-6.37118326223497E-16));
#348=CARTESIAN_POINT('',(8.97540647662101,12.5409988852154,-6.62205432267631E-16));
#349=CARTESIAN_POINT('',(8.71616422497118,12.3648379849,-5.77625438933902E-16));
#350=CARTESIAN_POINT('',(8.55169751245041,12.198336984317,-4.39860691257984E-16));
#351=CARTESIAN_POINT('',(8.46067669740145,12.0830985610833,-3.20385315701138E-16));
#352=CARTESIAN_POINT('',(7.08473669741593,10.1180525927073,-5.01847277363352E-17));
#353=CARTESIAN_POINT('',(5.75084133712643,8.21305259270728,5.91645678915759E-32));
#354=CARTESIAN_POINT('',(4.41694597683693,6.30805259270729,3.94430452610506E-32));
#355=CARTESIAN_POINT('',(3.08305061654744,4.40305259270729,-5.01847277363351E-17));
#356=CARTESIAN_POINT('',(1.72553673949568,2.46432185507105,-2.63594553528023E-16));
#357=CARTESIAN_POINT('',(1.68048703155412,2.39532879793688,-2.82866338445175E-16));
#358=CARTESIAN_POINT('',(1.61713500149844,2.28339407889174,-2.96469866963626E-16));
#359=CARTESIAN_POINT('',(1.54828701374175,2.12586451507746,-2.86223090214825E-16));
#360=CARTESIAN_POINT('',(1.48771408260949,1.91265409976079,-2.39739335301556E-16));
#361=CARTESIAN_POINT('',(1.45769840886616,1.69196810455357,-1.68621419441134E-16));
#362=CARTESIAN_POINT('',(1.4587495828618,1.46861900346723,-8.24284822275353E-17));
#363=CARTESIAN_POINT('',(1.49053300989022,1.25043601880088,1.07379144040399E-17));
#364=CARTESIAN_POINT('',(1.5512948968393,1.04151234126404,1.05105061329224E-16));
#365=CARTESIAN_POINT('',(1.6356647037393,0.851391672301594,1.9386289672715E-16));
#366=CARTESIAN_POINT('',(1.74285290755463,0.673524691566186,2.79357100476725E-16));
#367=CARTESIAN_POINT('',(1.87928509661403,0.50363993446221,3.63392823863121E-16));
#368=CARTESIAN_POINT('',(2.03971393127253,0.35263760709583,4.37714517764216E-16));
#369=CARTESIAN_POINT('',(2.22204976594498,0.223573116741467,4.95752265529067E-16));
#370=CARTESIAN_POINT('',(2.42016801356658,0.121627629506851,5.28066562674089E-16));
#371=CARTESIAN_POINT('',(2.62928929362743,0.0489268457346164,5.23681342949549E-16));
#372=CARTESIAN_POINT('',(2.79817891496468,0.0149815066846521,4.82874257671663E-16));
#373=CARTESIAN_POINT('',(2.92602624446723,0.0026702314890219,4.23237253683602E-16));
#374=CARTESIAN_POINT('',(3.00838149920022,-7.105427357601E-15,3.70528357648144E-16));
#375=CARTESIAN_POINT('',(5.37513471815729,-1.77635683940025E-15,6.8012147630709E-17));
#376=CARTESIAN_POINT('',(7.70071030974787,-1.77635683940025E-15,0.0));
#377=CARTESIAN_POINT('',(10.0262859013384,-2.66453525910038E-15,0.0));
#378=CARTESIAN_POINT('',(12.351861492929,-3.5527136788005E-15,0.0));
#379=CARTESIAN_POINT('',(14.7507396768707,-2.66453525910038E-15,6.86420476303344E-16));
#380=CARTESIAN_POINT('',(0.0,0.0,0.0));
#381=CARTESIAN_POINT('',(12.1982365062669,6.35,0.0));
#382=CARTESIAN_POINT('',(12.1982365062669,12.7,-7.9375));
#383=CARTESIAN_POINT('',(9.7190359280142,12.7,-7.9375));
#384=CARTESIAN_POINT('',(21.3469138859671,12.7,-7.9375));
#385=CARTESIAN_POINT('',(21.3469138859671,11.1125,-7.9375));
#386=CARTESIAN_POINT('',(22.6473177562758,10.2019474072927,-7.9375));
#387=CARTESIAN_POINT('',(17.399851987502,2.70778962917085,-7.9375));
#388=CARTESIAN_POINT('',(15.9778409548284,0.676947407292707,-7.9375));
#389=CARTESIAN_POINT('',(14.6774370845196,1.58749999999999,-7.9375));
#390=CARTESIAN_POINT('',(14.6774370845196,-7.80625564189563E-15,-7.9375));
#391=CARTESIAN_POINT('',(12.1982365062669,-6.93889390390723E-15,-7.9375));
#392=CARTESIAN_POINT('',(3.04955912656672,-6.07153216591882E-15,-7.9375));
#393=CARTESIAN_POINT('',(3.04955912656672,1.58749999999999,-7.9375));
#394=CARTESIAN_POINT('',(1.74915525625795,2.49805259270728,-7.9375));
#395=CARTESIAN_POINT('',(6.9966210250318,9.99221037082914,-7.9375));
#396=CARTESIAN_POINT('',(8.41863205770543,12.0230525927073,-7.9375));
#397=CARTESIAN_POINT('',(9.71903592801421,11.1125,-7.9375));
#398=CARTESIAN_POINT('',(12.0387631737882,5.84421520759503,-7.9375));
#399=CARTESIAN_POINT('',(12.1982365062669,12.7,-5.65390330310514E-15));
#400=CARTESIAN_POINT('',(21.3469138859671,12.7,-4.8677439473151E-15));
#401=CARTESIAN_POINT('',(9.7190359280142,12.7,-5.86694466947774E-15));
#402=CARTESIAN_POINT('',(21.3469138859671,12.7,-5.20417042793042E-15));
#403=CARTESIAN_POINT('',(9.7190359280142,12.7,-6.93889390390723E-15));
#404=CARTESIAN_POINT('',(12.1982365062669,12.7,-5.65390330310514E-15));
#405=CARTESIAN_POINT('',(1.74915525625795,2.49805259270728,-3.46944695195361E-15));
#406=CARTESIAN_POINT('',(1.74915525625795,2.49805259270728,-2.1810596021089E-15));
#407=CARTESIAN_POINT('',(6.9966210250318,9.99221037082915,-4.94080650733019E-15));
#408=CARTESIAN_POINT('',(8.41863205770543,12.0230525927073,-5.688670470534E-15));
#409=CARTESIAN_POINT('',(8.41863205770543,12.0230525927073,-6.93889390390723E-15));
#410=CARTESIAN_POINT('',(6.9966210250318,9.99221037082914,-4.94080650733019E-15));
#411=CARTESIAN_POINT('',(14.6774370845196,-4.33680868994202E-15,2.88889491658085E-31));
#412=CARTESIAN_POINT('',(14.6774370845196,-4.33680868994202E-15,1.09873724181572E-19));
#413=CARTESIAN_POINT('',(12.1982365062669,-2.60208521396521E-15,-2.12931492648419E-16));
#414=CARTESIAN_POINT('',(3.04955912656672,-2.60208521396521E-15,-9.99090848438459E-16));
#415=CARTESIAN_POINT('',(3.04955912656672,-2.60208521396521E-15,-1.73472347597681E-15));
#416=CARTESIAN_POINT('',(12.1982365062669,-3.46944695195361E-15,-2.12931492648419E-16));
#417=CARTESIAN_POINT('',(22.6473177562758,10.2019474072927,-3.46944695195361E-15));
#418=CARTESIAN_POINT('',(22.6473177562758,10.2019474072927,-3.68577519364466E-15));
#419=CARTESIAN_POINT('',(17.399851987502,2.70778962917086,-9.26028288423377E-16));
#420=CARTESIAN_POINT('',(15.9778409548284,0.676947407292712,-1.78164325219558E-16));
#421=CARTESIAN_POINT('',(15.9778409548284,0.676947407292712,0.0));
#422=CARTESIAN_POINT('',(17.399851987502,2.70778962917086,-9.26028288423375E-16));
#423=CARTESIAN_POINT('',(21.3469138859671,11.1125,-4.18762247100801E-15));
#424=CARTESIAN_POINT('',(9.7190359280142,11.1125,-5.18682319317065E-15));
#425=CARTESIAN_POINT('',(3.04955912656672,1.5875,-1.67921232474555E-15));
#426=CARTESIAN_POINT('',(14.6774370845196,1.5875,-6.80011602582909E-16));
#427=CARTESIAN_POINT('',(12.1982365062669,6.35,-2.93341739787678E-15));
#428=CARTESIAN_POINT('',(21.3469138859671,11.1125,-5.20417042793042E-15));
#429=CARTESIAN_POINT('',(14.6774370845196,1.5875,-1.73472347597681E-15));
#430=CARTESIAN_POINT('',(3.04955912656672,1.5875,-1.73472347597681E-15));
#431=CARTESIAN_POINT('',(9.7190359280142,11.1125,-5.20417042793042E-15));
#432=MECHANICAL_DESIGN_GEOMETRIC_PRESENTATION_REPRESENTATION('',(#212,#213,#214,
     #215),#433);
#433=(GEOMETRIC_REPRESENTATION_CONTEXT(3)GLOBAL_UNCERTAINTY_ASSIGNED_CONTEXT((#434))
     GLOBAL_UNIT_ASSIGNED_CONTEXT((#440,#436,#435))REPRESENTATION_CONTEXT('DNGN150716',
     'TOP_LEVEL_ASSEMBLY_PART'));
#434=UNCERTAINTY_MEASURE_WITH_UNIT(LENGTH_MEASURE(2.0E-5),#440,'DISTANCE_ACCURACY_VALUE',
     'Maximum Tolerance applied to model');
#435=(NAMED_UNIT(*)SI_UNIT($,.STERADIAN.)SOLID_ANGLE_UNIT());
#436=(CONVERSION_BASED_UNIT('DEGREE',#438)NAMED_UNIT(#437)PLANE_ANGLE_UNIT());
#437=DIMENSIONAL_EXPONENTS(0.0,0.0,0.0,0.0,0.0,0.0,0.0);
#438=PLANE_ANGLE_MEASURE_WITH_UNIT(PLANE_ANGLE_MEASURE(0.0174532925),#439);
#439=(NAMED_UNIT(*)PLANE_ANGLE_UNIT()SI_UNIT($,.RADIAN.));
#440=(LENGTH_UNIT()NAMED_UNIT(*)SI_UNIT(.MILLI.,.METRE.));
#441=CONSTRUCTIVE_GEOMETRY_REPRESENTATION('supplemental geometry',(#229,#230),#433);
#442=CONSTRUCTIVE_GEOMETRY_REPRESENTATION_RELATIONSHIP('supplemental geometry','contains PCS and MCS coordinate systems',
     #24,#441);
ENDSEC;
END-ISO-10303-21;
