ISO-10303-21;
HEADER;
FILE_DESCRIPTION(
/* description */ (''),
/* implementation_level */ '2;1');
FILE_NAME(
/* name */ 'DNGN150712.stp',
/* time_stamp */ '2017-03-21T10:54:10',
/* author */ ('Sandvik Coromant R&D'),
/* organization */ ('Sandvik Machining Solutions'),
/* preprocessor_version */ 'ST-DEVELOPER v15',
/* originating_system */ 'SIEMENS PLM Software NX v8.5.3.3(64 bits)',
/* authorization */ '');
FILE_SCHEMA(('AUTOMOTIVE_DESIGN'));
ENDSEC;
DATA;
#10=GEOMETRICALLY_BOUNDED_WIREFRAME_SHAPE_REPRESENTATION('IsoTurningInsert-None',
     (#25),#433);
#11=SHAPE_REPRESENTATION_RELATIONSHIP('None','relationship between IsoTurningInsert-None and IsoTurningInsert-None',
     #24,#13);
#12=SHAPE_REPRESENTATION_RELATIONSHIP('None','relationship between IsoTurningInsert-None and IsoTurningInsert-None',
     #24,#10);
#13=ADVANCED_BREP_SHAPE_REPRESENTATION('IsoTurningInsert-None',(#31),#433);
#14=SHAPE_DEFINITION_REPRESENTATION(#15,#24);
#15=PRODUCT_DEFINITION_SHAPE('','',#16);
#16=PRODUCT_DEFINITION(' ','',#18,#17);
#17=PRODUCT_DEFINITION_CONTEXT('part definition',#23,'design');
#18=PRODUCT_DEFINITION_FORMATION_WITH_SPECIFIED_SOURCE(' ',' ',#20,.NOT_KNOWN.);
#19=PRODUCT_RELATED_PRODUCT_CATEGORY('part','',(#20));
#20=PRODUCT('IsoTurningInsert','IsoTurningInsert',' ',(#21));
#21=PRODUCT_CONTEXT(' ',#23,'mechanical');
#22=APPLICATION_PROTOCOL_DEFINITION('international standard','automotive_design',
     2010,#23);
#23=APPLICATION_CONTEXT('core data for automotive mechanical design processes');
#24=SHAPE_REPRESENTATION('IsoTurningInsert-None',(#228),#433);
#25=GEOMETRIC_CURVE_SET('geometric curve set',(#208));
#26=SURFACE_STYLE_USAGE(.BOTH.,#27);
#27=SURFACE_SIDE_STYLE('',(#28));
#28=SURFACE_STYLE_FILL_AREA(#29);
#29=FILL_AREA_STYLE('',(#30));
#30=FILL_AREA_STYLE_COLOUR('',#227);
#31=MANIFOLD_SOLID_BREP('CUT',#32);
#32=CLOSED_SHELL('',(#37,#38,#39,#40,#41,#42,#43,#44,#45,#46));
#33=CYLINDRICAL_SURFACE('',#245,1.190625);
#34=CYLINDRICAL_SURFACE('',#246,1.190625);
#35=CYLINDRICAL_SURFACE('',#247,1.190625);
#36=CYLINDRICAL_SURFACE('',#248,1.190625);
#37=ADVANCED_FACE('',(#53),#47,.F.);
#38=ADVANCED_FACE('',(#54),#48,.T.);
#39=ADVANCED_FACE('',(#55),#49,.T.);
#40=ADVANCED_FACE('',(#56),#50,.T.);
#41=ADVANCED_FACE('',(#57),#51,.T.);
#42=ADVANCED_FACE('',(#58),#52,.T.);
#43=ADVANCED_FACE('',(#59),#33,.T.);
#44=ADVANCED_FACE('',(#60),#34,.T.);
#45=ADVANCED_FACE('',(#61),#35,.T.);
#46=ADVANCED_FACE('',(#62),#36,.T.);
#47=PLANE('',#235);
#48=PLANE('',#236);
#49=PLANE('',#237);
#50=PLANE('',#238);
#51=PLANE('',#239);
#52=PLANE('',#244);
#53=FACE_OUTER_BOUND('',#63,.T.);
#54=FACE_OUTER_BOUND('',#64,.T.);
#55=FACE_OUTER_BOUND('',#65,.T.);
#56=FACE_OUTER_BOUND('',#66,.T.);
#57=FACE_OUTER_BOUND('',#67,.T.);
#58=FACE_OUTER_BOUND('',#68,.T.);
#59=FACE_OUTER_BOUND('',#69,.T.);
#60=FACE_OUTER_BOUND('',#70,.T.);
#61=FACE_OUTER_BOUND('',#71,.T.);
#62=FACE_OUTER_BOUND('',#72,.T.);
#63=EDGE_LOOP('',(#81,#82,#83,#84,#85,#86,#87,#88));
#64=EDGE_LOOP('',(#89,#90,#91,#92));
#65=EDGE_LOOP('',(#93,#94,#95,#96));
#66=EDGE_LOOP('',(#97,#98,#99,#100));
#67=EDGE_LOOP('',(#101,#102,#103,#104));
#68=EDGE_LOOP('',(#105,#106,#107,#108,#109,#110,#111,#112));
#69=EDGE_LOOP('',(#113,#114,#115,#116));
#70=EDGE_LOOP('',(#117,#118,#119,#120));
#71=EDGE_LOOP('',(#121,#122,#123,#124));
#72=EDGE_LOOP('',(#125,#126,#127,#128));
#73=CIRCLE('',#231,1.190625);
#74=CIRCLE('',#232,1.190625);
#75=CIRCLE('',#233,1.190625);
#76=CIRCLE('',#234,1.190625);
#77=CIRCLE('',#240,1.190625);
#78=CIRCLE('',#241,1.190625);
#79=CIRCLE('',#242,1.190625);
#80=CIRCLE('',#243,1.190625);
#81=ORIENTED_EDGE('',*,*,#145,.T.);
#82=ORIENTED_EDGE('',*,*,#146,.T.);
#83=ORIENTED_EDGE('',*,*,#147,.T.);
#84=ORIENTED_EDGE('',*,*,#148,.T.);
#85=ORIENTED_EDGE('',*,*,#149,.T.);
#86=ORIENTED_EDGE('',*,*,#150,.T.);
#87=ORIENTED_EDGE('',*,*,#151,.T.);
#88=ORIENTED_EDGE('',*,*,#152,.T.);
#89=ORIENTED_EDGE('',*,*,#153,.F.);
#90=ORIENTED_EDGE('',*,*,#154,.T.);
#91=ORIENTED_EDGE('',*,*,#145,.F.);
#92=ORIENTED_EDGE('',*,*,#155,.T.);
#93=ORIENTED_EDGE('',*,*,#151,.F.);
#94=ORIENTED_EDGE('',*,*,#156,.T.);
#95=ORIENTED_EDGE('',*,*,#157,.F.);
#96=ORIENTED_EDGE('',*,*,#158,.T.);
#97=ORIENTED_EDGE('',*,*,#149,.F.);
#98=ORIENTED_EDGE('',*,*,#159,.T.);
#99=ORIENTED_EDGE('',*,*,#160,.F.);
#100=ORIENTED_EDGE('',*,*,#161,.T.);
#101=ORIENTED_EDGE('',*,*,#147,.F.);
#102=ORIENTED_EDGE('',*,*,#162,.T.);
#103=ORIENTED_EDGE('',*,*,#163,.F.);
#104=ORIENTED_EDGE('',*,*,#164,.T.);
#105=ORIENTED_EDGE('',*,*,#163,.T.);
#106=ORIENTED_EDGE('',*,*,#165,.T.);
#107=ORIENTED_EDGE('',*,*,#153,.T.);
#108=ORIENTED_EDGE('',*,*,#166,.T.);
#109=ORIENTED_EDGE('',*,*,#157,.T.);
#110=ORIENTED_EDGE('',*,*,#167,.T.);
#111=ORIENTED_EDGE('',*,*,#160,.T.);
#112=ORIENTED_EDGE('',*,*,#168,.T.);
#113=ORIENTED_EDGE('',*,*,#146,.F.);
#114=ORIENTED_EDGE('',*,*,#154,.F.);
#115=ORIENTED_EDGE('',*,*,#165,.F.);
#116=ORIENTED_EDGE('',*,*,#162,.F.);
#117=ORIENTED_EDGE('',*,*,#148,.F.);
#118=ORIENTED_EDGE('',*,*,#164,.F.);
#119=ORIENTED_EDGE('',*,*,#168,.F.);
#120=ORIENTED_EDGE('',*,*,#159,.F.);
#121=ORIENTED_EDGE('',*,*,#150,.F.);
#122=ORIENTED_EDGE('',*,*,#161,.F.);
#123=ORIENTED_EDGE('',*,*,#167,.F.);
#124=ORIENTED_EDGE('',*,*,#156,.F.);
#125=ORIENTED_EDGE('',*,*,#152,.F.);
#126=ORIENTED_EDGE('',*,*,#158,.F.);
#127=ORIENTED_EDGE('',*,*,#166,.F.);
#128=ORIENTED_EDGE('',*,*,#155,.F.);
#129=VERTEX_POINT('',#383);
#130=VERTEX_POINT('',#384);
#131=VERTEX_POINT('',#386);
#132=VERTEX_POINT('',#388);
#133=VERTEX_POINT('',#390);
#134=VERTEX_POINT('',#392);
#135=VERTEX_POINT('',#394);
#136=VERTEX_POINT('',#396);
#137=VERTEX_POINT('',#400);
#138=VERTEX_POINT('',#401);
#139=VERTEX_POINT('',#406);
#140=VERTEX_POINT('',#408);
#141=VERTEX_POINT('',#412);
#142=VERTEX_POINT('',#414);
#143=VERTEX_POINT('',#418);
#144=VERTEX_POINT('',#420);
#145=EDGE_CURVE('',#129,#130,#169,.T.);
#146=EDGE_CURVE('',#130,#131,#73,.T.);
#147=EDGE_CURVE('',#131,#132,#170,.T.);
#148=EDGE_CURVE('',#132,#133,#74,.T.);
#149=EDGE_CURVE('',#133,#134,#171,.T.);
#150=EDGE_CURVE('',#134,#135,#75,.T.);
#151=EDGE_CURVE('',#135,#136,#172,.T.);
#152=EDGE_CURVE('',#136,#129,#76,.T.);
#153=EDGE_CURVE('',#137,#138,#173,.T.);
#154=EDGE_CURVE('',#137,#130,#174,.T.);
#155=EDGE_CURVE('',#129,#138,#175,.T.);
#156=EDGE_CURVE('',#135,#139,#176,.T.);
#157=EDGE_CURVE('',#140,#139,#177,.T.);
#158=EDGE_CURVE('',#140,#136,#178,.T.);
#159=EDGE_CURVE('',#133,#141,#179,.T.);
#160=EDGE_CURVE('',#142,#141,#180,.T.);
#161=EDGE_CURVE('',#142,#134,#181,.T.);
#162=EDGE_CURVE('',#131,#143,#182,.T.);
#163=EDGE_CURVE('',#144,#143,#183,.T.);
#164=EDGE_CURVE('',#144,#132,#184,.T.);
#165=EDGE_CURVE('',#143,#137,#77,.T.);
#166=EDGE_CURVE('',#138,#140,#78,.T.);
#167=EDGE_CURVE('',#139,#142,#79,.T.);
#168=EDGE_CURVE('',#141,#144,#80,.T.);
#169=LINE('',#382,#185);
#170=LINE('',#387,#186);
#171=LINE('',#391,#187);
#172=LINE('',#395,#188);
#173=LINE('',#399,#189);
#174=LINE('',#402,#190);
#175=LINE('',#403,#191);
#176=LINE('',#405,#192);
#177=LINE('',#407,#193);
#178=LINE('',#409,#194);
#179=LINE('',#411,#195);
#180=LINE('',#413,#196);
#181=LINE('',#415,#197);
#182=LINE('',#417,#198);
#183=LINE('',#419,#199);
#184=LINE('',#421,#200);
#185=VECTOR('',#255,1.0);
#186=VECTOR('',#258,1.0);
#187=VECTOR('',#261,1.0);
#188=VECTOR('',#264,1.0);
#189=VECTOR('',#269,1.0);
#190=VECTOR('',#270,1.0);
#191=VECTOR('',#271,1.0);
#192=VECTOR('',#274,1.0);
#193=VECTOR('',#275,1.0);
#194=VECTOR('',#276,1.0);
#195=VECTOR('',#279,1.0);
#196=VECTOR('',#280,1.0);
#197=VECTOR('',#281,1.0);
#198=VECTOR('',#284,1.0);
#199=VECTOR('',#285,1.0);
#200=VECTOR('',#286,1.0);
#201=CURVE_STYLE('',#205,POSITIVE_LENGTH_MEASURE(0.18),#204);
#202=CURVE_STYLE('',#206,POSITIVE_LENGTH_MEASURE(0.18),#226);
#203=CURVE_STYLE('',#207,POSITIVE_LENGTH_MEASURE(0.18),#226);
#204=DRAUGHTING_PRE_DEFINED_COLOUR('blue');
#205=DRAUGHTING_PRE_DEFINED_CURVE_FONT('continuous');
#206=DRAUGHTING_PRE_DEFINED_CURVE_FONT('continuous');
#207=DRAUGHTING_PRE_DEFINED_CURVE_FONT('continuous');
#208=B_SPLINE_CURVE_WITH_KNOTS('CUTTING EDGE LINE',5,(#310,#311,#312,#313,#314,#315,
     #316,#317,#318,#319,#320,#321,#322,#323,#324,#325,#326,#327,#328,#329,#330,
     #331,#332,#333,#334,#335,#336,#337,#338,#339,#340,#341,#342,#343,#344,#345,
     #346,#347,#348,#349,#350,#351,#352,#353,#354,#355,#356,#357,#358,#359,#360,
     #361,#362,#363,#364,#365,#366,#367,#368,#369,#370,#371,#372,#373,#374,#375,
     #376,#377,#378,#379),.UNSPECIFIED.,.T.,.F.,(2,4,1,1,1,4,4,1,1,1,1,1,1,1,1,1,
     1,1,1,1,1,1,4,4,1,1,1,4,4,1,1,1,1,1,1,1,1,1,1,1,1,1,1,1,4,4,1,1),(-0.2176813297,
     0.0,0.004937574625,0.00987514925000255,0.014812723875,0.0197502985,0.2374316281,
     0.2402370682375,0.243042508375,0.2458479485125,0.248653388650009,0.2514588287875,
     0.254264268925,0.2570697090625,0.2598751492,0.2626805893375,0.265486029475,
     0.2682914696125,0.271096909750007,0.2739023498875,0.276707790025,0.2795132301625,
     0.2823186703,0.5,0.504937574625,0.509875149250003,0.514812723875,0.5197502985,
     0.7374316281,0.7402370682375,0.743042508375,0.7458479485125,0.748653388650009,
     0.7514588287875,0.754264268925,0.7570697090625,0.7598751492,0.7626805893375,
     0.765486029475,0.7682914696125,0.771096909750027,0.7739023498875,0.776707790025,
     0.7795132301625,0.7823186703,1.0,1.004937574625,1.00987514925),.UNSPECIFIED.);
#209=PRESENTATION_LAYER_ASSIGNMENT('1','Layer 1',(#208,#229,#230,#31));
#212=STYLED_ITEM('',(#218),#208);
#213=STYLED_ITEM('',(#219),#229);
#214=STYLED_ITEM('',(#220),#230);
#215=STYLED_ITEM('',(#221),#31);
#216=PRESENTATION_STYLE_ASSIGNMENT((#222));
#217=PRESENTATION_STYLE_ASSIGNMENT((#223));
#218=PRESENTATION_STYLE_ASSIGNMENT((#201));
#219=PRESENTATION_STYLE_ASSIGNMENT((#202));
#220=PRESENTATION_STYLE_ASSIGNMENT((#203));
#221=PRESENTATION_STYLE_ASSIGNMENT((#26));
#222=POINT_STYLE('',#224,POSITIVE_LENGTH_MEASURE(3.0),#226);
#223=POINT_STYLE('',#225,POSITIVE_LENGTH_MEASURE(3.0),#226);
#224=PRE_DEFINED_POINT_MARKER_SYMBOL('plus');
#225=PRE_DEFINED_POINT_MARKER_SYMBOL('plus');
#226=COLOUR_RGB('Medium Maroon',0.6,0.4,0.4);
#227=COLOUR_RGB('IsoInsertColor',0.8,0.8,0.8);
#228=AXIS2_PLACEMENT_3D('',#307,#249,#250);
#229=AXIS2_PLACEMENT_3D('PCS',#380,#251,#252);
#230=AXIS2_PLACEMENT_3D('MCS',#381,#253,#254);
#231=AXIS2_PLACEMENT_3D('',#385,#256,#257);
#232=AXIS2_PLACEMENT_3D('',#389,#259,#260);
#233=AXIS2_PLACEMENT_3D('',#393,#262,#263);
#234=AXIS2_PLACEMENT_3D('',#397,#265,#266);
#235=AXIS2_PLACEMENT_3D('',#398,#267,#268);
#236=AXIS2_PLACEMENT_3D('',#404,#272,#273);
#237=AXIS2_PLACEMENT_3D('',#410,#277,#278);
#238=AXIS2_PLACEMENT_3D('',#416,#282,#283);
#239=AXIS2_PLACEMENT_3D('',#422,#287,#288);
#240=AXIS2_PLACEMENT_3D('',#423,#289,#290);
#241=AXIS2_PLACEMENT_3D('',#424,#291,#292);
#242=AXIS2_PLACEMENT_3D('',#425,#293,#294);
#243=AXIS2_PLACEMENT_3D('',#426,#295,#296);
#244=AXIS2_PLACEMENT_3D('',#427,#297,#298);
#245=AXIS2_PLACEMENT_3D('',#428,#299,#300);
#246=AXIS2_PLACEMENT_3D('',#429,#301,#302);
#247=AXIS2_PLACEMENT_3D('',#430,#303,#304);
#248=AXIS2_PLACEMENT_3D('',#431,#305,#306);
#249=DIRECTION('',(0.0,0.0,1.0));
#250=DIRECTION('',(1.0,0.0,0.0));
#251=DIRECTION('',(0.0,0.0,1.0));
#252=DIRECTION('',(1.0,0.0,0.0));
#253=DIRECTION('',(0.0,0.0,1.0));
#254=DIRECTION('',(1.0,0.0,0.0));
#255=DIRECTION('',(1.0,-1.66533453693773E-16,0.0));
#256=DIRECTION('',(0.0,0.0,-1.0));
#257=DIRECTION('',(-0.887010833178223,-0.461748613235033,0.0));
#258=DIRECTION('',(-0.573576436351046,-0.819152044288992,0.0));
#259=DIRECTION('',(0.0,0.0,-1.0));
#260=DIRECTION('',(-0.887010833178221,-0.461748613235034,0.0));
#261=DIRECTION('',(-1.0,1.66533453693773E-16,0.0));
#262=DIRECTION('',(0.0,0.0,-1.0));
#263=DIRECTION('',(-0.887010833178222,-0.461748613235034,0.0));
#264=DIRECTION('',(0.573576436351046,0.819152044288992,0.0));
#265=DIRECTION('',(0.0,0.0,-1.0));
#266=DIRECTION('',(-0.887010833178221,-0.461748613235033,0.0));
#267=DIRECTION('',(0.0,0.0,1.0));
#268=DIRECTION('',(-0.887010833178222,-0.461748613235034,0.0));
#269=DIRECTION('',(-1.0,1.66533453693773E-16,-8.59314765579595E-17));
#270=DIRECTION('',(8.59314765579594E-17,-4.28422977201317E-16,-1.0));
#271=DIRECTION('',(-8.59314765579594E-17,4.28422977201317E-16,1.0));
#272=DIRECTION('',(1.66533453693773E-16,1.0,-4.28422977201317E-16));
#273=DIRECTION('',(-1.0,1.66533453693773E-16,0.0));
#274=DIRECTION('',(-8.59314765579595E-17,4.28422977201317E-16,1.0));
#275=DIRECTION('',(-0.573576436351046,-0.819152044288992,3.01655287500337E-16));
#276=DIRECTION('',(8.59314765579595E-17,-4.28422977201317E-16,-1.0));
#277=DIRECTION('',(-0.819152044288992,0.573576436351046,-3.16124269205261E-16));
#278=DIRECTION('',(-0.573576436351046,-0.819152044288992,0.0));
#279=DIRECTION('',(-8.59314765579594E-17,4.28422977201317E-16,1.0));
#280=DIRECTION('',(1.0,-1.66533453693773E-16,8.59314765579595E-17));
#281=DIRECTION('',(8.59314765579594E-17,-4.28422977201317E-16,-1.0));
#282=DIRECTION('',(-1.66533453693773E-16,-1.0,4.28422977201317E-16));
#283=DIRECTION('',(1.0,-1.66533453693773E-16,0.0));
#284=DIRECTION('',(-8.59314765579594E-17,4.28422977201317E-16,1.0));
#285=DIRECTION('',(0.573576436351046,0.819152044288992,-3.01655287500337E-16));
#286=DIRECTION('',(8.59314765579594E-17,-4.28422977201317E-16,-1.0));
#287=DIRECTION('',(0.819152044288992,-0.573576436351046,3.16124269205261E-16));
#288=DIRECTION('',(0.573576436351046,0.819152044288992,0.0));
#289=DIRECTION('',(-8.59314765579594E-17,4.28422977201317E-16,1.0));
#290=DIRECTION('',(-0.461748613235035,0.887010833178221,-4.19694562093911E-16));
#291=DIRECTION('',(-8.59314765579594E-17,4.28422977201317E-16,1.0));
#292=DIRECTION('',(-0.461748613235033,0.887010833178221,-4.19694562093911E-16));
#293=DIRECTION('',(-8.59314765579594E-17,4.28422977201317E-16,1.0));
#294=DIRECTION('',(-0.461748613235034,0.887010833178222,-4.19694562093911E-16));
#295=DIRECTION('',(-8.59314765579594E-17,4.28422977201317E-16,1.0));
#296=DIRECTION('',(-0.461748613235033,0.887010833178222,-4.19694562093911E-16));
#297=DIRECTION('',(-8.59314765579594E-17,4.28422977201317E-16,1.0));
#298=DIRECTION('',(-0.461748613235034,0.887010833178222,-4.19694562093911E-16));
#299=DIRECTION('',(-8.59314765579594E-17,4.28422977201317E-16,1.0));
#300=DIRECTION('',(-0.461748613235035,0.887010833178221,-4.19694562093911E-16));
#301=DIRECTION('',(-8.59314765579594E-17,4.28422977201317E-16,1.0));
#302=DIRECTION('',(-0.461748613235033,0.887010833178222,-4.19694562093911E-16));
#303=DIRECTION('',(-8.59314765579594E-17,4.28422977201317E-16,1.0));
#304=DIRECTION('',(-0.461748613235034,0.887010833178222,-4.19694562093911E-16));
#305=DIRECTION('',(-8.59314765579594E-17,4.28422977201317E-16,1.0));
#306=DIRECTION('',(-0.461748613235033,0.887010833178221,-4.19694562093911E-16));
#307=CARTESIAN_POINT('',(0.0,0.0,0.0));
#310=CARTESIAN_POINT('',(12.3646635751509,-1.77635683940025E-15,-8.87468518373638E-32));
#311=CARTESIAN_POINT('',(14.9390140769706,-4.44089209850063E-15,5.14815357227508E-16));
#312=CARTESIAN_POINT('',(15.0489679654972,0.00634638194337356,5.21544921375254E-16));
#313=CARTESIAN_POINT('',(15.2220108648995,0.0357630268550633,5.23990656542583E-16));
#314=CARTESIAN_POINT('',(15.4417592212522,0.119250836088415,5.02565370700467E-16));
#315=CARTESIAN_POINT('',(15.6361909099896,0.251371511324978,4.32976939318795E-16));
#316=CARTESIAN_POINT('',(15.7595409443801,0.376247261762228,3.29895518443527E-16));
#317=CARTESIAN_POINT('',(15.8278065556669,0.462676079187489,2.40288986775852E-16));
#318=CARTESIAN_POINT('',(17.3043933424192,2.57146055546953,3.76385458022513E-17));
#319=CARTESIAN_POINT('',(18.7494466493995,4.63521055546953,7.39557098644699E-32));
#320=CARTESIAN_POINT('',(20.1944999563798,6.69896055546953,1.18329135783152E-31));
#321=CARTESIAN_POINT('',(21.63955326336,8.76271055546953,3.76385458022515E-17));
#322=CARTESIAN_POINT('',(23.102320457912,10.8517586086967,1.97695915146017E-16));
#323=CARTESIAN_POINT('',(23.1361077388682,10.9035034015473,2.12149753833881E-16));
#324=CARTESIAN_POINT('',(23.1835965152072,10.9874198410276,2.22338612697888E-16));
#325=CARTESIAN_POINT('',(23.2352940802102,11.1056480490292,2.14687718675993E-16));
#326=CARTESIAN_POINT('',(23.2806601139975,11.2654804021898,1.79788150362852E-16));
#327=CARTESIAN_POINT('',(23.3032154042949,11.4310297254489,1.26477650490754E-16));
#328=CARTESIAN_POINT('',(23.3023947060953,11.5985498931516,6.18065186455473E-17));
#329=CARTESIAN_POINT('',(23.278597684681,11.7621303037246,-8.0274592771599E-18));
#330=CARTESIAN_POINT('',(23.2329640276691,11.9189439495084,-7.88707397769737E-17));
#331=CARTESIAN_POINT('',(23.1697486958463,12.0614077406274,-1.45370864545044E-16));
#332=CARTESIAN_POINT('',(23.0893080148751,12.1949045825191,-2.09544602753005E-16));
#333=CARTESIAN_POINT('',(22.9870281867155,12.3222300980857,-2.72520171881127E-16));
#334=CARTESIAN_POINT('',(22.8666803697317,12.4355493457712,-3.2830731833452E-16));
#335=CARTESIAN_POINT('',(22.7299266150452,12.5323072431901,-3.71794931014909E-16));
#336=CARTESIAN_POINT('',(22.581379365438,12.6087862219073,-3.96080624587507E-16));
#337=CARTESIAN_POINT('',(22.4244314786116,12.6633006141293,-3.92701702509341E-16));
#338=CARTESIAN_POINT('',(22.2979320952323,12.6887653622937,-3.62226149390234E-16));
#339=CARTESIAN_POINT('',(22.2019533291833,12.6979973263832,-3.17427940262701E-16));
#340=CARTESIAN_POINT('',(22.1401868881336,12.7,-2.77896268236108E-16));
#341=CARTESIAN_POINT('',(19.5899301100523,12.7,-5.10091107230317E-17));
#342=CARTESIAN_POINT('',(17.0705565524958,12.7,-1.97215226305253E-32));
#343=CARTESIAN_POINT('',(14.5511829949394,12.7,-1.57772181044202E-31));
#344=CARTESIAN_POINT('',(12.0318094373829,12.7,-5.1009110723032E-17));
#345=CARTESIAN_POINT('',(9.45745893556318,12.7,-3.07897175874923E-16));
#346=CARTESIAN_POINT('',(9.34750504703656,12.6936536180566,-3.93832970565133E-16));
#347=CARTESIAN_POINT('',(9.17446214763426,12.6642369731449,-4.77838744667605E-16));
#348=CARTESIAN_POINT('',(8.95471379128164,12.5807491639116,-4.96654074200728E-16));
#349=CARTESIAN_POINT('',(8.76028210254424,12.448628488675,-4.33219079200452E-16));
#350=CARTESIAN_POINT('',(8.63693206815366,12.3237527382378,-3.29895518443527E-16));
#351=CARTESIAN_POINT('',(8.56866645686691,12.2373239208125,-2.40288986775853E-16));
#352=CARTESIAN_POINT('',(7.09207967011461,10.1285394445305,-3.76385458022514E-17));
#353=CARTESIAN_POINT('',(5.64702636313432,8.06478944453046,9.86076131526265E-33));
#354=CARTESIAN_POINT('',(4.20197305615403,6.00103944453046,-7.88860905221012E-32));
#355=CARTESIAN_POINT('',(2.75691974917374,3.93728944453046,-3.76385458022513E-17));
#356=CARTESIAN_POINT('',(1.29415255462176,1.84824139130329,-1.97695915146017E-16));
#357=CARTESIAN_POINT('',(1.26036527366558,1.79649659845265,-2.12149753833881E-16));
#358=CARTESIAN_POINT('',(1.21287649732656,1.71258015897235,-2.22338612697887E-16));
#359=CARTESIAN_POINT('',(1.16117893232353,1.59435195097078,-2.14687718675992E-16));
#360=CARTESIAN_POINT('',(1.11581289853628,1.43451959781022,-1.79788150362852E-16));
#361=CARTESIAN_POINT('',(1.09325760823889,1.26897027455111,-1.26477650490754E-16));
#362=CARTESIAN_POINT('',(1.09407830643849,1.10145010684838,-6.18065186455466E-17));
#363=CARTESIAN_POINT('',(1.11787532785278,0.937869696275373,8.02745927716005E-18));
#364=CARTESIAN_POINT('',(1.16350898486466,0.781056050491547,7.88707397769739E-17));
#365=CARTESIAN_POINT('',(1.22672431668752,0.638592259372597,1.45370864545044E-16));
#366=CARTESIAN_POINT('',(1.30716499765872,0.505095417480906,2.09544602753005E-16));
#367=CARTESIAN_POINT('',(1.40944482581844,0.377769901914164,2.72520171881215E-16));
#368=CARTESIAN_POINT('',(1.52979264280223,0.264450654228606,3.28307318334598E-16));
#369=CARTESIAN_POINT('',(1.66654639748875,0.167692756809807,3.71794931014957E-16));
#370=CARTESIAN_POINT('',(1.81509364709597,0.0912137780925626,3.96080624587517E-16));
#371=CARTESIAN_POINT('',(1.97204153392244,0.0366993858706852,3.92701702509286E-16));
#372=CARTESIAN_POINT('',(2.09854091730143,0.0112346377063099,3.62226149390234E-16));
#373=CARTESIAN_POINT('',(2.19451968335042,0.00200267361676953,3.17427940262701E-16));
#374=CARTESIAN_POINT('',(2.25628612440016,-3.5527136788005E-15,2.77896268236108E-16));
#375=CARTESIAN_POINT('',(4.80654290248149,-1.77635683940025E-15,5.10091107230318E-17));
#376=CARTESIAN_POINT('',(7.32591646003795,-8.88178419700125E-16,-4.93038065763132E-32));
#377=CARTESIAN_POINT('',(9.84529001759441,0.0,-1.28189897098414E-31));
#378=CARTESIAN_POINT('',(12.3646635751509,-1.77635683940025E-15,-8.87468518373638E-32));
#379=CARTESIAN_POINT('',(14.9390140769706,-4.44089209850063E-15,5.14815357227508E-16));
#380=CARTESIAN_POINT('',(0.0,0.0,0.0));
#381=CARTESIAN_POINT('',(12.1982365062669,6.35,0.0));
#382=CARTESIAN_POINT('',(12.1982365062669,12.7,-7.9375));
#383=CARTESIAN_POINT('',(9.51243587982648,12.7,-7.9375));
#384=CARTESIAN_POINT('',(22.1093036676087,12.7,-7.9375));
#385=CARTESIAN_POINT('',(22.1093036676087,11.509375,-7.9375));
#386=CARTESIAN_POINT('',(23.0846065703403,10.8264605554695,-7.9375));
#387=CARTESIAN_POINT('',(17.399851987502,2.70778962917085,-7.9375));
#388=CARTESIAN_POINT('',(15.8593400354389,0.507710555469529,-7.9375));
#389=CARTESIAN_POINT('',(14.8840371327073,1.19062499999999,-7.9375));
#390=CARTESIAN_POINT('',(14.8840371327073,-6.93889390390723E-15,-7.9375));
#391=CARTESIAN_POINT('',(12.1982365062669,-6.07153216591882E-15,-7.9375));
#392=CARTESIAN_POINT('',(2.28716934492503,-6.07153216591882E-15,-7.9375));
#393=CARTESIAN_POINT('',(2.28716934492504,1.19062499999999,-7.9375));
#394=CARTESIAN_POINT('',(1.31186644219346,1.87353944453046,-7.9375));
#395=CARTESIAN_POINT('',(6.9966210250318,9.99221037082914,-7.9375));
#396=CARTESIAN_POINT('',(8.5371329770949,12.1922894445305,-7.9375));
#397=CARTESIAN_POINT('',(9.51243587982648,11.509375,-7.9375));
#398=CARTESIAN_POINT('',(12.0387631737882,5.84421520759503,-7.9375));
#399=CARTESIAN_POINT('',(12.1982365062669,12.7,-5.65390330310514E-15));
#400=CARTESIAN_POINT('',(22.1093036676087,12.7,-4.80223066766593E-15));
#401=CARTESIAN_POINT('',(9.51243587982648,12.7,-5.88469811667546E-15));
#402=CARTESIAN_POINT('',(22.1093036676087,12.7,-5.20417042793042E-15));
#403=CARTESIAN_POINT('',(9.51243587982648,12.7,-6.93889390390723E-15));
#404=CARTESIAN_POINT('',(12.1982365062669,12.7,-5.65390330310514E-15));
#405=CARTESIAN_POINT('',(1.31186644219346,1.87353944453046,-1.73472347597681E-15));
#406=CARTESIAN_POINT('',(1.31186644219346,1.87353944453046,-1.95108069334046E-15));
#407=CARTESIAN_POINT('',(6.9966210250318,9.99221037082915,-4.94080650733019E-15));
#408=CARTESIAN_POINT('',(8.5371329770949,12.1922894445305,-5.75099246746766E-15));
#409=CARTESIAN_POINT('',(8.5371329770949,12.1922894445305,-6.93889390390723E-15));
#410=CARTESIAN_POINT('',(6.9966210250318,9.99221037082914,-4.94080650733019E-15));
#411=CARTESIAN_POINT('',(14.8840371327073,-3.46944695195361E-15,-9.62964972193618E-32));
#412=CARTESIAN_POINT('',(14.8840371327073,-3.46944695195361E-15,1.78633209218982E-17));
#413=CARTESIAN_POINT('',(12.1982365062669,-2.60208521396521E-15,-2.12931492648419E-16));
#414=CARTESIAN_POINT('',(2.28716934492504,-1.73472347597681E-15,-1.06460412808763E-15));
#415=CARTESIAN_POINT('',(2.28716934492504,-1.73472347597681E-15,-1.73472347597681E-15));
#416=CARTESIAN_POINT('',(12.1982365062669,-3.46944695195361E-15,-2.12931492648419E-16));
#417=CARTESIAN_POINT('',(23.0846065703403,10.8264605554695,-5.20417042793042E-15));
#418=CARTESIAN_POINT('',(23.0846065703403,10.8264605554695,-3.9157541024131E-15));
#419=CARTESIAN_POINT('',(17.399851987502,2.70778962917086,-9.26028288423377E-16));
#420=CARTESIAN_POINT('',(15.8593400354389,0.507710555469534,-1.15842328285906E-16));
#421=CARTESIAN_POINT('',(15.8593400354389,0.507710555469534,3.85185988877447E-31));
#422=CARTESIAN_POINT('',(17.399851987502,2.70778962917085,-9.26028288423375E-16));
#423=CARTESIAN_POINT('',(22.1093036676087,11.509375,-4.29213956043562E-15));
#424=CARTESIAN_POINT('',(9.51243587982648,11.509375,-5.37460700944514E-15));
#425=CARTESIAN_POINT('',(2.28716934492504,1.190625,-1.57469523531795E-15));
#426=CARTESIAN_POINT('',(14.8840371327073,1.190625,-4.9222778630842E-16));
#427=CARTESIAN_POINT('',(12.1982365062669,6.35,-2.93341739787678E-15));
#428=CARTESIAN_POINT('',(22.1093036676087,11.509375,-5.20417042793042E-15));
#429=CARTESIAN_POINT('',(14.8840371327073,1.190625,-1.73472347597681E-15));
#430=CARTESIAN_POINT('',(2.28716934492504,1.190625,-1.73472347597681E-15));
#431=CARTESIAN_POINT('',(9.51243587982648,11.509375,-5.20417042793042E-15));
#432=MECHANICAL_DESIGN_GEOMETRIC_PRESENTATION_REPRESENTATION('',(#212,#213,#214,
     #215),#433);
#433=(GEOMETRIC_REPRESENTATION_CONTEXT(3)GLOBAL_UNCERTAINTY_ASSIGNED_CONTEXT((#434))
     GLOBAL_UNIT_ASSIGNED_CONTEXT((#440,#436,#435))REPRESENTATION_CONTEXT('DNGN150712',
     'TOP_LEVEL_ASSEMBLY_PART'));
#434=UNCERTAINTY_MEASURE_WITH_UNIT(LENGTH_MEASURE(2.0E-5),#440,'DISTANCE_ACCURACY_VALUE',
     'Maximum Tolerance applied to model');
#435=(NAMED_UNIT(*)SI_UNIT($,.STERADIAN.)SOLID_ANGLE_UNIT());
#436=(CONVERSION_BASED_UNIT('DEGREE',#438)NAMED_UNIT(#437)PLANE_ANGLE_UNIT());
#437=DIMENSIONAL_EXPONENTS(0.0,0.0,0.0,0.0,0.0,0.0,0.0);
#438=PLANE_ANGLE_MEASURE_WITH_UNIT(PLANE_ANGLE_MEASURE(0.0174532925),#439);
#439=(NAMED_UNIT(*)PLANE_ANGLE_UNIT()SI_UNIT($,.RADIAN.));
#440=(LENGTH_UNIT()NAMED_UNIT(*)SI_UNIT(.MILLI.,.METRE.));
#441=CONSTRUCTIVE_GEOMETRY_REPRESENTATION('supplemental geometry',(#229,#230),#433);
#442=CONSTRUCTIVE_GEOMETRY_REPRESENTATION_RELATIONSHIP('supplemental geometry','contains PCS and MCS coordinate systems',
     #24,#441);
ENDSEC;
END-ISO-10303-21;
