ISO-10303-21;
HEADER;
FILE_DESCRIPTION(
/* description */ (''),
/* implementation_level */ '2;1');
FILE_NAME(
/* name */ 'DNGN150408.stp',
/* time_stamp */ '2017-03-21T10:54:04',
/* author */ ('Sandvik Coromant R&D'),
/* organization */ ('Sandvik Machining Solutions'),
/* preprocessor_version */ 'ST-DEVELOPER v15',
/* originating_system */ 'SIEMENS PLM Software NX v8.5.3.3(64 bits)',
/* authorization */ '');
FILE_SCHEMA(('AUTOMOTIVE_DESIGN'));
ENDSEC;
DATA;
#10=GEOMETRICALLY_BOUNDED_WIREFRAME_SHAPE_REPRESENTATION('IsoTurningInsert-None',
     (#25),#429);
#11=SHAPE_REPRESENTATION_RELATIONSHIP('None','relationship between IsoTurningInsert-None and IsoTurningInsert-None',
     #24,#13);
#12=SHAPE_REPRESENTATION_RELATIONSHIP('None','relationship between IsoTurningInsert-None and IsoTurningInsert-None',
     #24,#10);
#13=ADVANCED_BREP_SHAPE_REPRESENTATION('IsoTurningInsert-None',(#31),#429);
#14=SHAPE_DEFINITION_REPRESENTATION(#15,#24);
#15=PRODUCT_DEFINITION_SHAPE('','',#16);
#16=PRODUCT_DEFINITION(' ','',#18,#17);
#17=PRODUCT_DEFINITION_CONTEXT('part definition',#23,'design');
#18=PRODUCT_DEFINITION_FORMATION_WITH_SPECIFIED_SOURCE(' ',' ',#20,.NOT_KNOWN.);
#19=PRODUCT_RELATED_PRODUCT_CATEGORY('part','',(#20));
#20=PRODUCT('IsoTurningInsert','IsoTurningInsert',' ',(#21));
#21=PRODUCT_CONTEXT(' ',#23,'mechanical');
#22=APPLICATION_PROTOCOL_DEFINITION('international standard','automotive_design',
     2010,#23);
#23=APPLICATION_CONTEXT('core data for automotive mechanical design processes');
#24=SHAPE_REPRESENTATION('IsoTurningInsert-None',(#228),#429);
#25=GEOMETRIC_CURVE_SET('geometric curve set',(#208));
#26=SURFACE_STYLE_USAGE(.BOTH.,#27);
#27=SURFACE_SIDE_STYLE('',(#28));
#28=SURFACE_STYLE_FILL_AREA(#29);
#29=FILL_AREA_STYLE('',(#30));
#30=FILL_AREA_STYLE_COLOUR('',#227);
#31=MANIFOLD_SOLID_BREP('CUT',#32);
#32=CLOSED_SHELL('',(#37,#38,#39,#40,#41,#42,#43,#44,#45,#46));
#33=CYLINDRICAL_SURFACE('',#245,0.793750000000002);
#34=CYLINDRICAL_SURFACE('',#246,0.793750000000002);
#35=CYLINDRICAL_SURFACE('',#247,0.793750000000002);
#36=CYLINDRICAL_SURFACE('',#248,0.793750000000002);
#37=ADVANCED_FACE('',(#53),#47,.F.);
#38=ADVANCED_FACE('',(#54),#48,.T.);
#39=ADVANCED_FACE('',(#55),#49,.T.);
#40=ADVANCED_FACE('',(#56),#50,.T.);
#41=ADVANCED_FACE('',(#57),#51,.T.);
#42=ADVANCED_FACE('',(#58),#52,.T.);
#43=ADVANCED_FACE('',(#59),#33,.T.);
#44=ADVANCED_FACE('',(#60),#34,.T.);
#45=ADVANCED_FACE('',(#61),#35,.T.);
#46=ADVANCED_FACE('',(#62),#36,.T.);
#47=PLANE('',#235);
#48=PLANE('',#236);
#49=PLANE('',#237);
#50=PLANE('',#238);
#51=PLANE('',#239);
#52=PLANE('',#244);
#53=FACE_OUTER_BOUND('',#63,.T.);
#54=FACE_OUTER_BOUND('',#64,.T.);
#55=FACE_OUTER_BOUND('',#65,.T.);
#56=FACE_OUTER_BOUND('',#66,.T.);
#57=FACE_OUTER_BOUND('',#67,.T.);
#58=FACE_OUTER_BOUND('',#68,.T.);
#59=FACE_OUTER_BOUND('',#69,.T.);
#60=FACE_OUTER_BOUND('',#70,.T.);
#61=FACE_OUTER_BOUND('',#71,.T.);
#62=FACE_OUTER_BOUND('',#72,.T.);
#63=EDGE_LOOP('',(#81,#82,#83,#84,#85,#86,#87,#88));
#64=EDGE_LOOP('',(#89,#90,#91,#92));
#65=EDGE_LOOP('',(#93,#94,#95,#96));
#66=EDGE_LOOP('',(#97,#98,#99,#100));
#67=EDGE_LOOP('',(#101,#102,#103,#104));
#68=EDGE_LOOP('',(#105,#106,#107,#108,#109,#110,#111,#112));
#69=EDGE_LOOP('',(#113,#114,#115,#116));
#70=EDGE_LOOP('',(#117,#118,#119,#120));
#71=EDGE_LOOP('',(#121,#122,#123,#124));
#72=EDGE_LOOP('',(#125,#126,#127,#128));
#73=CIRCLE('',#231,0.793750000000002);
#74=CIRCLE('',#232,0.793750000000002);
#75=CIRCLE('',#233,0.793750000000002);
#76=CIRCLE('',#234,0.793750000000002);
#77=CIRCLE('',#240,0.793750000000002);
#78=CIRCLE('',#241,0.793750000000002);
#79=CIRCLE('',#242,0.793750000000002);
#80=CIRCLE('',#243,0.793750000000002);
#81=ORIENTED_EDGE('',*,*,#145,.T.);
#82=ORIENTED_EDGE('',*,*,#146,.T.);
#83=ORIENTED_EDGE('',*,*,#147,.T.);
#84=ORIENTED_EDGE('',*,*,#148,.T.);
#85=ORIENTED_EDGE('',*,*,#149,.T.);
#86=ORIENTED_EDGE('',*,*,#150,.T.);
#87=ORIENTED_EDGE('',*,*,#151,.T.);
#88=ORIENTED_EDGE('',*,*,#152,.T.);
#89=ORIENTED_EDGE('',*,*,#153,.F.);
#90=ORIENTED_EDGE('',*,*,#154,.T.);
#91=ORIENTED_EDGE('',*,*,#145,.F.);
#92=ORIENTED_EDGE('',*,*,#155,.T.);
#93=ORIENTED_EDGE('',*,*,#151,.F.);
#94=ORIENTED_EDGE('',*,*,#156,.T.);
#95=ORIENTED_EDGE('',*,*,#157,.F.);
#96=ORIENTED_EDGE('',*,*,#158,.T.);
#97=ORIENTED_EDGE('',*,*,#149,.F.);
#98=ORIENTED_EDGE('',*,*,#159,.T.);
#99=ORIENTED_EDGE('',*,*,#160,.F.);
#100=ORIENTED_EDGE('',*,*,#161,.T.);
#101=ORIENTED_EDGE('',*,*,#147,.F.);
#102=ORIENTED_EDGE('',*,*,#162,.T.);
#103=ORIENTED_EDGE('',*,*,#163,.F.);
#104=ORIENTED_EDGE('',*,*,#164,.T.);
#105=ORIENTED_EDGE('',*,*,#163,.T.);
#106=ORIENTED_EDGE('',*,*,#165,.T.);
#107=ORIENTED_EDGE('',*,*,#153,.T.);
#108=ORIENTED_EDGE('',*,*,#166,.T.);
#109=ORIENTED_EDGE('',*,*,#157,.T.);
#110=ORIENTED_EDGE('',*,*,#167,.T.);
#111=ORIENTED_EDGE('',*,*,#160,.T.);
#112=ORIENTED_EDGE('',*,*,#168,.T.);
#113=ORIENTED_EDGE('',*,*,#146,.F.);
#114=ORIENTED_EDGE('',*,*,#154,.F.);
#115=ORIENTED_EDGE('',*,*,#165,.F.);
#116=ORIENTED_EDGE('',*,*,#162,.F.);
#117=ORIENTED_EDGE('',*,*,#148,.F.);
#118=ORIENTED_EDGE('',*,*,#164,.F.);
#119=ORIENTED_EDGE('',*,*,#168,.F.);
#120=ORIENTED_EDGE('',*,*,#159,.F.);
#121=ORIENTED_EDGE('',*,*,#150,.F.);
#122=ORIENTED_EDGE('',*,*,#161,.F.);
#123=ORIENTED_EDGE('',*,*,#167,.F.);
#124=ORIENTED_EDGE('',*,*,#156,.F.);
#125=ORIENTED_EDGE('',*,*,#152,.F.);
#126=ORIENTED_EDGE('',*,*,#158,.F.);
#127=ORIENTED_EDGE('',*,*,#166,.F.);
#128=ORIENTED_EDGE('',*,*,#155,.F.);
#129=VERTEX_POINT('',#379);
#130=VERTEX_POINT('',#380);
#131=VERTEX_POINT('',#382);
#132=VERTEX_POINT('',#384);
#133=VERTEX_POINT('',#386);
#134=VERTEX_POINT('',#388);
#135=VERTEX_POINT('',#390);
#136=VERTEX_POINT('',#392);
#137=VERTEX_POINT('',#396);
#138=VERTEX_POINT('',#397);
#139=VERTEX_POINT('',#402);
#140=VERTEX_POINT('',#404);
#141=VERTEX_POINT('',#408);
#142=VERTEX_POINT('',#410);
#143=VERTEX_POINT('',#414);
#144=VERTEX_POINT('',#416);
#145=EDGE_CURVE('',#129,#130,#169,.T.);
#146=EDGE_CURVE('',#130,#131,#73,.T.);
#147=EDGE_CURVE('',#131,#132,#170,.T.);
#148=EDGE_CURVE('',#132,#133,#74,.T.);
#149=EDGE_CURVE('',#133,#134,#171,.T.);
#150=EDGE_CURVE('',#134,#135,#75,.T.);
#151=EDGE_CURVE('',#135,#136,#172,.T.);
#152=EDGE_CURVE('',#136,#129,#76,.T.);
#153=EDGE_CURVE('',#137,#138,#173,.T.);
#154=EDGE_CURVE('',#137,#130,#174,.T.);
#155=EDGE_CURVE('',#129,#138,#175,.T.);
#156=EDGE_CURVE('',#135,#139,#176,.T.);
#157=EDGE_CURVE('',#140,#139,#177,.T.);
#158=EDGE_CURVE('',#140,#136,#178,.T.);
#159=EDGE_CURVE('',#133,#141,#179,.T.);
#160=EDGE_CURVE('',#142,#141,#180,.T.);
#161=EDGE_CURVE('',#142,#134,#181,.T.);
#162=EDGE_CURVE('',#131,#143,#182,.T.);
#163=EDGE_CURVE('',#144,#143,#183,.T.);
#164=EDGE_CURVE('',#144,#132,#184,.T.);
#165=EDGE_CURVE('',#143,#137,#77,.T.);
#166=EDGE_CURVE('',#138,#140,#78,.T.);
#167=EDGE_CURVE('',#139,#142,#79,.T.);
#168=EDGE_CURVE('',#141,#144,#80,.T.);
#169=LINE('',#378,#185);
#170=LINE('',#383,#186);
#171=LINE('',#387,#187);
#172=LINE('',#391,#188);
#173=LINE('',#395,#189);
#174=LINE('',#398,#190);
#175=LINE('',#399,#191);
#176=LINE('',#401,#192);
#177=LINE('',#403,#193);
#178=LINE('',#405,#194);
#179=LINE('',#407,#195);
#180=LINE('',#409,#196);
#181=LINE('',#411,#197);
#182=LINE('',#413,#198);
#183=LINE('',#415,#199);
#184=LINE('',#417,#200);
#185=VECTOR('',#255,1.0);
#186=VECTOR('',#258,1.0);
#187=VECTOR('',#261,1.0);
#188=VECTOR('',#264,1.0);
#189=VECTOR('',#269,1.0);
#190=VECTOR('',#270,1.0);
#191=VECTOR('',#271,1.0);
#192=VECTOR('',#274,1.0);
#193=VECTOR('',#275,1.0);
#194=VECTOR('',#276,1.0);
#195=VECTOR('',#279,1.0);
#196=VECTOR('',#280,1.0);
#197=VECTOR('',#281,1.0);
#198=VECTOR('',#284,1.0);
#199=VECTOR('',#285,1.0);
#200=VECTOR('',#286,1.0);
#201=CURVE_STYLE('',#205,POSITIVE_LENGTH_MEASURE(0.18),#204);
#202=CURVE_STYLE('',#206,POSITIVE_LENGTH_MEASURE(0.18),#226);
#203=CURVE_STYLE('',#207,POSITIVE_LENGTH_MEASURE(0.18),#226);
#204=DRAUGHTING_PRE_DEFINED_COLOUR('blue');
#205=DRAUGHTING_PRE_DEFINED_CURVE_FONT('continuous');
#206=DRAUGHTING_PRE_DEFINED_CURVE_FONT('continuous');
#207=DRAUGHTING_PRE_DEFINED_CURVE_FONT('continuous');
#208=B_SPLINE_CURVE_WITH_KNOTS('CUTTING EDGE LINE',5,(#310,#311,#312,#313,#314,#315,
     #316,#317,#318,#319,#320,#321,#322,#323,#324,#325,#326,#327,#328,#329,#330,
     #331,#332,#333,#334,#335,#336,#337,#338,#339,#340,#341,#342,#343,#344,#345,
     #346,#347,#348,#349,#350,#351,#352,#353,#354,#355,#356,#357,#358,#359,#360,
     #361,#362,#363,#364,#365,#366,#367,#368,#369,#370,#371,#372,#373,#374,#375),
     .UNSPECIFIED.,.T.,.F.,(2,4,1,4,4,1,1,1,1,1,1,1,1,1,1,1,1,1,1,1,4,4,1,4,4,1,
     1,1,1,1,1,1,1,1,1,1,1,1,1,1,4,4,1,1),(-0.2289568833,0.0,0.00642984120000001,
     0.0128596824,0.2418165656,0.24364322504375,0.2454698844875,0.24729654393125,
     0.249123203375006,0.25094986281875,0.2527765222625,0.25460318170625,0.25642984115,
     0.25825650059375,0.2600831600375,0.26190981948125,0.263736478925017,0.26556313836875,
     0.2673897978125,0.26921645725625,0.2710431167,0.5,0.5064298412,0.5128596824,
     0.7418165656,0.74364322504375,0.7454698844875,0.74729654393125,0.749123203375006,
     0.75094986281875,0.7527765222625,0.75460318170625,0.75642984115,0.75825650059375,
     0.7600831600375,0.76190981948125,0.763736478925017,0.76556313836875,0.7673897978125,
     0.76921645725625,0.7710431167,1.0,1.0064298412,1.0128596824),.UNSPECIFIED.);
#209=PRESENTATION_LAYER_ASSIGNMENT('1','Layer 1',(#208,#229,#230,#31));
#212=STYLED_ITEM('',(#218),#208);
#213=STYLED_ITEM('',(#219),#229);
#214=STYLED_ITEM('',(#220),#230);
#215=STYLED_ITEM('',(#221),#31);
#216=PRESENTATION_STYLE_ASSIGNMENT((#222));
#217=PRESENTATION_STYLE_ASSIGNMENT((#223));
#218=PRESENTATION_STYLE_ASSIGNMENT((#201));
#219=PRESENTATION_STYLE_ASSIGNMENT((#202));
#220=PRESENTATION_STYLE_ASSIGNMENT((#203));
#221=PRESENTATION_STYLE_ASSIGNMENT((#26));
#222=POINT_STYLE('',#224,POSITIVE_LENGTH_MEASURE(3.0),#226);
#223=POINT_STYLE('',#225,POSITIVE_LENGTH_MEASURE(3.0),#226);
#224=PRE_DEFINED_POINT_MARKER_SYMBOL('plus');
#225=PRE_DEFINED_POINT_MARKER_SYMBOL('plus');
#226=COLOUR_RGB('Medium Maroon',0.6,0.4,0.4);
#227=COLOUR_RGB('IsoInsertColor',0.8,0.8,0.8);
#228=AXIS2_PLACEMENT_3D('',#307,#249,#250);
#229=AXIS2_PLACEMENT_3D('PCS',#376,#251,#252);
#230=AXIS2_PLACEMENT_3D('MCS',#377,#253,#254);
#231=AXIS2_PLACEMENT_3D('',#381,#256,#257);
#232=AXIS2_PLACEMENT_3D('',#385,#259,#260);
#233=AXIS2_PLACEMENT_3D('',#389,#262,#263);
#234=AXIS2_PLACEMENT_3D('',#393,#265,#266);
#235=AXIS2_PLACEMENT_3D('',#394,#267,#268);
#236=AXIS2_PLACEMENT_3D('',#400,#272,#273);
#237=AXIS2_PLACEMENT_3D('',#406,#277,#278);
#238=AXIS2_PLACEMENT_3D('',#412,#282,#283);
#239=AXIS2_PLACEMENT_3D('',#418,#287,#288);
#240=AXIS2_PLACEMENT_3D('',#419,#289,#290);
#241=AXIS2_PLACEMENT_3D('',#420,#291,#292);
#242=AXIS2_PLACEMENT_3D('',#421,#293,#294);
#243=AXIS2_PLACEMENT_3D('',#422,#295,#296);
#244=AXIS2_PLACEMENT_3D('',#423,#297,#298);
#245=AXIS2_PLACEMENT_3D('',#424,#299,#300);
#246=AXIS2_PLACEMENT_3D('',#425,#301,#302);
#247=AXIS2_PLACEMENT_3D('',#426,#303,#304);
#248=AXIS2_PLACEMENT_3D('',#427,#305,#306);
#249=DIRECTION('',(0.0,0.0,1.0));
#250=DIRECTION('',(1.0,0.0,0.0));
#251=DIRECTION('',(0.0,0.0,1.0));
#252=DIRECTION('',(1.0,0.0,0.0));
#253=DIRECTION('',(0.0,0.0,1.0));
#254=DIRECTION('',(1.0,0.0,0.0));
#255=DIRECTION('',(1.0,-2.22044604925031E-16,0.0));
#256=DIRECTION('',(0.0,0.0,-1.0));
#257=DIRECTION('',(-0.887010833178222,-0.461748613235033,0.0));
#258=DIRECTION('',(-0.573576436351046,-0.819152044288992,0.0));
#259=DIRECTION('',(0.0,0.0,-1.0));
#260=DIRECTION('',(-0.887010833178222,-0.461748613235034,0.0));
#261=DIRECTION('',(-1.0,2.22044604925031E-16,0.0));
#262=DIRECTION('',(0.0,0.0,-1.0));
#263=DIRECTION('',(-0.887010833178222,-0.461748613235034,0.0));
#264=DIRECTION('',(0.573576436351046,0.819152044288992,0.0));
#265=DIRECTION('',(0.0,0.0,-1.0));
#266=DIRECTION('',(-0.887010833178222,-0.461748613235033,0.0));
#267=DIRECTION('',(0.0,0.0,1.0));
#268=DIRECTION('',(-0.887010833178222,-0.461748613235034,0.0));
#269=DIRECTION('',(-1.0,2.22044604925031E-16,-8.59314765579595E-17));
#270=DIRECTION('',(8.59314765579594E-17,-4.28422977201317E-16,-1.0));
#271=DIRECTION('',(-8.59314765579594E-17,4.28422977201317E-16,1.0));
#272=DIRECTION('',(2.22044604925031E-16,1.0,-4.28422977201317E-16));
#273=DIRECTION('',(-1.0,2.22044604925031E-16,0.0));
#274=DIRECTION('',(-8.59314765579594E-17,4.28422977201317E-16,1.0));
#275=DIRECTION('',(-0.573576436351046,-0.819152044288992,3.01655287500337E-16));
#276=DIRECTION('',(8.59314765579594E-17,-4.28422977201317E-16,-1.0));
#277=DIRECTION('',(-0.819152044288992,0.573576436351046,-3.16124269205261E-16));
#278=DIRECTION('',(-0.573576436351046,-0.819152044288992,0.0));
#279=DIRECTION('',(-8.59314765579594E-17,4.28422977201317E-16,1.0));
#280=DIRECTION('',(1.0,-2.22044604925031E-16,8.59314765579595E-17));
#281=DIRECTION('',(8.59314765579594E-17,-4.28422977201317E-16,-1.0));
#282=DIRECTION('',(-2.22044604925031E-16,-1.0,4.28422977201317E-16));
#283=DIRECTION('',(1.0,-2.22044604925031E-16,0.0));
#284=DIRECTION('',(-8.59314765579594E-17,4.28422977201317E-16,1.0));
#285=DIRECTION('',(0.573576436351046,0.819152044288992,-3.01655287500337E-16));
#286=DIRECTION('',(8.59314765579594E-17,-4.28422977201317E-16,-1.0));
#287=DIRECTION('',(0.819152044288992,-0.573576436351046,3.16124269205261E-16));
#288=DIRECTION('',(0.573576436351046,0.819152044288992,0.0));
#289=DIRECTION('',(-8.59314765579594E-17,4.28422977201317E-16,1.0));
#290=DIRECTION('',(-0.461748613235036,0.887010833178222,-4.19694562093911E-16));
#291=DIRECTION('',(-8.59314765579594E-17,4.28422977201317E-16,1.0));
#292=DIRECTION('',(-0.461748613235033,0.887010833178222,-4.19694562093911E-16));
#293=DIRECTION('',(-8.59314765579594E-17,4.28422977201317E-16,1.0));
#294=DIRECTION('',(-0.461748613235034,0.887010833178222,-4.19694562093911E-16));
#295=DIRECTION('',(-8.59314765579594E-17,4.28422977201317E-16,1.0));
#296=DIRECTION('',(-0.461748613235033,0.887010833178222,-4.19694562093911E-16));
#297=DIRECTION('',(-8.59314765579594E-17,4.28422977201317E-16,1.0));
#298=DIRECTION('',(-0.461748613235034,0.887010833178222,-4.19694562093911E-16));
#299=DIRECTION('',(-8.59314765579594E-17,4.28422977201317E-16,1.0));
#300=DIRECTION('',(-0.461748613235036,0.887010833178222,-4.19694562093911E-16));
#301=DIRECTION('',(-8.59314765579594E-17,4.28422977201317E-16,1.0));
#302=DIRECTION('',(-0.461748613235033,0.887010833178222,-4.19694562093911E-16));
#303=DIRECTION('',(-8.59314765579594E-17,4.28422977201317E-16,1.0));
#304=DIRECTION('',(-0.461748613235034,0.887010833178222,-4.19694562093911E-16));
#305=DIRECTION('',(-8.59314765579594E-17,4.28422977201317E-16,1.0));
#306=DIRECTION('',(-0.461748613235033,0.887010833178222,-4.19694562093911E-16));
#307=CARTESIAN_POINT('',(0.0,0.0,0.0));
#310=CARTESIAN_POINT('',(12.3774656573727,-7.99360577730113E-15,0.0));
#311=CARTESIAN_POINT('',(15.1639397732461,-5.32907051820075E-15,3.46359738149799E-16));
#312=CARTESIAN_POINT('',(15.3105449579482,0.0169236851823111,3.51707242551278E-16));
#313=CARTESIAN_POINT('',(15.4676866164039,0.0694447734028358,3.44871837045439E-16));
#314=CARTESIAN_POINT('',(15.6008421256474,0.168042825554987,2.94950893435238E-16));
#315=CARTESIAN_POINT('',(15.6987944763534,0.278427735270298,1.949234963603E-16));
#316=CARTESIAN_POINT('',(17.2970503697205,2.56097370364635,2.50923638681676E-17));
#317=CARTESIAN_POINT('',(18.8532616233916,4.78347370364635,-3.45126646034193E-32));
#318=CARTESIAN_POINT('',(20.4094728770627,7.00597370364634,-2.16936748935778E-31));
#319=CARTESIAN_POINT('',(21.9656841307337,9.22847370364635,2.50923638681676E-17));
#320=CARTESIAN_POINT('',(23.5337046427859,11.4678390724645,1.31797276764011E-16));
#321=CARTESIAN_POINT('',(23.5562294967567,11.5023356010316,1.41433169222587E-16));
#322=CARTESIAN_POINT('',(23.5878886809828,11.5582798940184,1.48225741798591E-16));
#323=CARTESIAN_POINT('',(23.6223537243181,11.6370986993528,1.43125145783995E-16));
#324=CARTESIAN_POINT('',(23.6525977468429,11.7436536014598,1.19858766908567E-16));
#325=CARTESIAN_POINT('',(23.6676346070412,11.8540198169659,8.43184336605019E-17));
#326=CARTESIAN_POINT('',(23.6670874749081,11.9656999287677,4.12043457636974E-17));
#327=CARTESIAN_POINT('',(23.6512227939653,12.0747535358164,-5.35163951810701E-18));
#328=CARTESIAN_POINT('',(23.6208003559573,12.179295966339,-5.25804931846498E-17));
#329=CARTESIAN_POINT('',(23.5786568014088,12.2742718270849,-9.69139096966959E-17));
#330=CARTESIAN_POINT('',(23.5250296807613,12.3632697216794,-1.39696401835337E-16));
#331=CARTESIAN_POINT('',(23.4568431286548,12.4481533987239,-1.81680114587477E-16));
#332=CARTESIAN_POINT('',(23.3766112506656,12.5236995638476,-2.18871545556399E-16));
#333=CARTESIAN_POINT('',(23.2854420808746,12.5882048287935,-2.47863287343305E-16));
#334=CARTESIAN_POINT('',(23.1864105811365,12.6391908146049,-2.64053749725011E-16));
#335=CARTESIAN_POINT('',(23.0817786565855,12.6755337427529,-2.61801135006191E-16));
#336=CARTESIAN_POINT('',(22.9974457343328,12.6925102415291,-2.41484099593489E-16));
#337=CARTESIAN_POINT('',(22.9334598903002,12.6986648842555,-2.11618626841801E-16));
#338=CARTESIAN_POINT('',(22.8922822629337,12.7,-1.85264178824072E-16));
#339=CARTESIAN_POINT('',(20.1585219257281,12.7,-3.40060738153546E-17));
#340=CARTESIAN_POINT('',(17.4453504022058,12.7,4.93038065763132E-32));
#341=CARTESIAN_POINT('',(14.7321788786834,12.7,-7.88860905221012E-32));
#342=CARTESIAN_POINT('',(12.0190073551611,12.7,-3.40060738153546E-17));
#343=CARTESIAN_POINT('',(9.2325332392877,12.7,-2.40499198756458E-16));
#344=CARTESIAN_POINT('',(9.08592805458557,12.6830763148177,-3.28723658570922E-16));
#345=CARTESIAN_POINT('',(8.92878639612986,12.6305552265972,-3.47802427385212E-16));
#346=CARTESIAN_POINT('',(8.79563088688641,12.531957174445,-2.94950893435238E-16));
#347=CARTESIAN_POINT('',(8.69767853618038,12.4215722647297,-1.949234963603E-16));
#348=CARTESIAN_POINT('',(7.09942264281329,10.1390262963536,-2.50923638681676E-17));
#349=CARTESIAN_POINT('',(5.54321138914221,7.91652629635364,9.86076131526265E-33));
#350=CARTESIAN_POINT('',(3.98700013547113,5.69402629635364,-7.88860905221012E-32));
#351=CARTESIAN_POINT('',(2.43078888180005,3.47152629635364,-2.50923638681677E-17));
#352=CARTESIAN_POINT('',(0.86276836974784,1.23216092753553,-1.31797276764012E-16));
#353=CARTESIAN_POINT('',(0.840243515777058,1.19766439896844,-1.41433169222588E-16));
#354=CARTESIAN_POINT('',(0.808584331551055,1.14172010598157,-1.48225741798592E-16));
#355=CARTESIAN_POINT('',(0.774119288215687,1.06290130064719,-1.43125145783996E-16));
#356=CARTESIAN_POINT('',(0.743875265690859,0.956346398540153,-1.19858766908569E-16));
#357=CARTESIAN_POINT('',(0.728838405492601,0.845980183034079,-8.43184336605033E-17));
#358=CARTESIAN_POINT('',(0.729385537625662,0.734300071232257,-4.12043457636987E-17));
#359=CARTESIAN_POINT('',(0.745250218568524,0.625246464183588,5.35163951810571E-18));
#360=CARTESIAN_POINT('',(0.775672656576452,0.52070403366104,5.25804931846486E-17));
#361=CARTESIAN_POINT('',(0.81781621112501,0.425728172915067,9.69139096966949E-17));
#362=CARTESIAN_POINT('',(0.871443331772483,0.336730278320607,1.39696401835336E-16));
#363=CARTESIAN_POINT('',(0.939629883878967,0.251846601276114,1.81680114587477E-16));
#364=CARTESIAN_POINT('',(1.01986176186816,0.176300436152406,2.18871545556399E-16));
#365=CARTESIAN_POINT('',(1.11103093165916,0.111795171206538,2.47863287343305E-16));
#366=CARTESIAN_POINT('',(1.21006243139733,0.0608091853950521,2.64053749725011E-16));
#367=CARTESIAN_POINT('',(1.31469435594828,0.0244662572471173,2.61801135006191E-16));
#368=CARTESIAN_POINT('',(1.39902727820097,0.00748975847087863,2.41484099593489E-16));
#369=CARTESIAN_POINT('',(1.46301312223362,0.00133511574451184,2.11618626841801E-16));
#370=CARTESIAN_POINT('',(1.50419074960011,-8.88178419700125E-16,1.85264178824072E-16));
#371=CARTESIAN_POINT('',(4.23795108680569,-2.66453525910038E-15,3.40060738153546E-17));
#372=CARTESIAN_POINT('',(6.95112261032803,-3.5527136788005E-15,6.90253292068385E-32));
#373=CARTESIAN_POINT('',(9.66429413385036,-7.105427357601E-15,0.0));
#374=CARTESIAN_POINT('',(12.3774656573727,-7.99360577730113E-15,0.0));
#375=CARTESIAN_POINT('',(15.1639397732461,-5.32907051820075E-15,3.46359738149799E-16));
#376=CARTESIAN_POINT('',(0.0,0.0,0.0));
#377=CARTESIAN_POINT('',(12.1982365062669,6.35,0.0));
#378=CARTESIAN_POINT('',(12.1982365062669,12.7,-4.7625));
#379=CARTESIAN_POINT('',(9.30583583163876,12.7,-4.7625));
#380=CARTESIAN_POINT('',(22.8716934492504,12.7,-4.7625));
#381=CARTESIAN_POINT('',(22.8716934492504,11.90625,-4.7625));
#382=CARTESIAN_POINT('',(23.5218953844048,11.4509737036463,-4.7625));
#383=CARTESIAN_POINT('',(17.399851987502,2.70778962917085,-4.7625));
#384=CARTESIAN_POINT('',(15.7408391160494,0.338473703646351,-4.7625));
#385=CARTESIAN_POINT('',(15.090637180895,0.793749999999995,-4.7625));
#386=CARTESIAN_POINT('',(15.090637180895,-6.07153216591882E-15,-4.7625));
#387=CARTESIAN_POINT('',(12.1982365062669,-6.07153216591882E-15,-4.7625));
#388=CARTESIAN_POINT('',(1.52477956328336,-2.60208521396521E-15,-4.7625));
#389=CARTESIAN_POINT('',(1.52477956328336,0.793749999999999,-4.7625));
#390=CARTESIAN_POINT('',(0.874577628128976,1.24902629635364,-4.7625));
#391=CARTESIAN_POINT('',(6.9966210250318,9.99221037082914,-4.7625));
#392=CARTESIAN_POINT('',(8.65563389648437,12.3615262963536,-4.7625));
#393=CARTESIAN_POINT('',(9.30583583163876,11.90625,-4.7625));
#394=CARTESIAN_POINT('',(12.0387631737882,5.84421520759503,-4.7625));
#395=CARTESIAN_POINT('',(12.1982365062669,12.7,-5.65390330310514E-15));
#396=CARTESIAN_POINT('',(22.8716934492504,12.7,-4.73671738801676E-15));
#397=CARTESIAN_POINT('',(9.30583583163876,12.7,-5.90245156387318E-15));
#398=CARTESIAN_POINT('',(22.8716934492504,12.7,-4.33680868994202E-15));
#399=CARTESIAN_POINT('',(9.30583583163876,12.7,-5.20417042793042E-15));
#400=CARTESIAN_POINT('',(12.1982365062669,12.7,-5.65390330310514E-15));
#401=CARTESIAN_POINT('',(0.874577628128974,1.24902629635365,-1.73472347597681E-15));
#402=CARTESIAN_POINT('',(0.874577628128974,1.24902629635365,-1.72110178457202E-15));
#403=CARTESIAN_POINT('',(6.9966210250318,9.99221037082914,-4.94080650733019E-15));
#404=CARTESIAN_POINT('',(8.65563389648437,12.3615262963536,-5.81331446440131E-15));
#405=CARTESIAN_POINT('',(8.65563389648437,12.3615262963536,-5.20417042793042E-15));
#406=CARTESIAN_POINT('',(6.9966210250318,9.99221037082914,-4.94080650733019E-15));
#407=CARTESIAN_POINT('',(15.090637180895,-4.33680868994202E-15,1.92592994438724E-31));
#408=CARTESIAN_POINT('',(15.090637180895,-4.33680868994202E-15,3.56167681196155E-17));
#409=CARTESIAN_POINT('',(12.1982365062669,-5.20417042793042E-15,-2.12931492648418E-16));
#410=CARTESIAN_POINT('',(1.52477956328336,-8.67361737988404E-16,-1.1301174077368E-15));
#411=CARTESIAN_POINT('',(1.52477956328336,-8.67361737988404E-16,-8.67361737988404E-16));
#412=CARTESIAN_POINT('',(12.1982365062669,-4.33680868994202E-15,-2.12931492648419E-16));
#413=CARTESIAN_POINT('',(23.5218953844048,11.4509737036464,-3.46944695195361E-15));
#414=CARTESIAN_POINT('',(23.5218953844048,11.4509737036464,-4.14573301118154E-15));
#415=CARTESIAN_POINT('',(17.399851987502,2.70778962917086,-9.26028288423377E-16));
#416=CARTESIAN_POINT('',(15.7408391160494,0.338473703646353,-5.35203313522541E-17));
#417=CARTESIAN_POINT('',(15.7408391160494,0.338473703646353,0.0));
#418=CARTESIAN_POINT('',(17.399851987502,2.70778962917085,-9.26028288423375E-16));
#419=CARTESIAN_POINT('',(22.8716934492504,11.90625,-4.39665664986322E-15));
#420=CARTESIAN_POINT('',(9.30583583163876,11.90625,-5.56239082571963E-15));
#421=CARTESIAN_POINT('',(1.52477956328336,0.793750000000001,-1.47017814589035E-15));
#422=CARTESIAN_POINT('',(15.090637180895,0.793749999999997,-3.0444397003393E-16));
#423=CARTESIAN_POINT('',(12.1982365062669,6.35,-2.93341739787678E-15));
#424=CARTESIAN_POINT('',(22.8716934492504,11.90625,-4.33680868994202E-15));
#425=CARTESIAN_POINT('',(15.090637180895,0.793749999999997,0.0));
#426=CARTESIAN_POINT('',(1.52477956328336,0.793750000000001,-8.67361737988404E-16));
#427=CARTESIAN_POINT('',(9.30583583163876,11.90625,-5.20417042793042E-15));
#428=MECHANICAL_DESIGN_GEOMETRIC_PRESENTATION_REPRESENTATION('',(#212,#213,#214,
     #215),#429);
#429=(GEOMETRIC_REPRESENTATION_CONTEXT(3)GLOBAL_UNCERTAINTY_ASSIGNED_CONTEXT((#430))
     GLOBAL_UNIT_ASSIGNED_CONTEXT((#436,#432,#431))REPRESENTATION_CONTEXT('DNGN150408',
     'TOP_LEVEL_ASSEMBLY_PART'));
#430=UNCERTAINTY_MEASURE_WITH_UNIT(LENGTH_MEASURE(2.0E-5),#436,'DISTANCE_ACCURACY_VALUE',
     'Maximum Tolerance applied to model');
#431=(NAMED_UNIT(*)SI_UNIT($,.STERADIAN.)SOLID_ANGLE_UNIT());
#432=(CONVERSION_BASED_UNIT('DEGREE',#434)NAMED_UNIT(#433)PLANE_ANGLE_UNIT());
#433=DIMENSIONAL_EXPONENTS(0.0,0.0,0.0,0.0,0.0,0.0,0.0);
#434=PLANE_ANGLE_MEASURE_WITH_UNIT(PLANE_ANGLE_MEASURE(0.0174532925),#435);
#435=(NAMED_UNIT(*)PLANE_ANGLE_UNIT()SI_UNIT($,.RADIAN.));
#436=(LENGTH_UNIT()NAMED_UNIT(*)SI_UNIT(.MILLI.,.METRE.));
#437=CONSTRUCTIVE_GEOMETRY_REPRESENTATION('supplemental geometry',(#229,#230),#429);
#438=CONSTRUCTIVE_GEOMETRY_REPRESENTATION_RELATIONSHIP('supplemental geometry','contains PCS and MCS coordinate systems',
     #24,#437);
ENDSEC;
END-ISO-10303-21;
