ISO-10303-21;
HEADER;
FILE_DESCRIPTION(
/* description */ (''),
/* implementation_level */ '2;1');
FILE_NAME(
/* name */ 'CNMG190616.stp',
/* time_stamp */ '2017-03-21T10:53:58',
/* author */ ('Sandvik Coromant R&D'),
/* organization */ ('Sandvik Machining Solutions'),
/* preprocessor_version */ 'ST-DEVELOPER v15',
/* originating_system */ 'SIEMENS PLM Software NX v8.5.3.3(64 bits)',
/* authorization */ '');
FILE_SCHEMA(('AUTOMOTIVE_DESIGN'));
ENDSEC;
DATA;
#10=GEOMETRICALLY_BOUNDED_WIREFRAME_SHAPE_REPRESENTATION('IsoTurningInsert-None',
     (#25),#475);
#11=SHAPE_REPRESENTATION_RELATIONSHIP('None','relationship between IsoTurningInsert-None and IsoTurningInsert-None',
     #24,#13);
#12=SHAPE_REPRESENTATION_RELATIONSHIP('None','relationship between IsoTurningInsert-None and IsoTurningInsert-None',
     #24,#10);
#13=ADVANCED_BREP_SHAPE_REPRESENTATION('IsoTurningInsert-None',(#31),#475);
#14=SHAPE_DEFINITION_REPRESENTATION(#15,#24);
#15=PRODUCT_DEFINITION_SHAPE('','',#16);
#16=PRODUCT_DEFINITION(' ','',#18,#17);
#17=PRODUCT_DEFINITION_CONTEXT('part definition',#23,'design');
#18=PRODUCT_DEFINITION_FORMATION_WITH_SPECIFIED_SOURCE(' ',' ',#20,.NOT_KNOWN.);
#19=PRODUCT_RELATED_PRODUCT_CATEGORY('part','',(#20));
#20=PRODUCT('IsoTurningInsert','IsoTurningInsert',' ',(#21));
#21=PRODUCT_CONTEXT(' ',#23,'mechanical');
#22=APPLICATION_PROTOCOL_DEFINITION('international standard','automotive_design',
     2010,#23);
#23=APPLICATION_CONTEXT('core data for automotive mechanical design processes');
#24=SHAPE_REPRESENTATION('IsoTurningInsert-None',(#248),#475);
#25=GEOMETRIC_CURVE_SET('geometric curve set',(#228));
#26=SURFACE_STYLE_USAGE(.BOTH.,#27);
#27=SURFACE_SIDE_STYLE('',(#28));
#28=SURFACE_STYLE_FILL_AREA(#29);
#29=FILL_AREA_STYLE('',(#30));
#30=FILL_AREA_STYLE_COLOUR('',#247);
#31=MANIFOLD_SOLID_BREP('CUT',#32);
#32=CLOSED_SHELL('',(#46,#47,#48,#49,#50,#51,#52,#53,#54,#55,#56));
#33=CYLINDRICAL_SURFACE('',#267,1.5875);
#34=CYLINDRICAL_SURFACE('',#268,1.5875);
#35=CYLINDRICAL_SURFACE('',#269,1.5875);
#36=CYLINDRICAL_SURFACE('',#270,1.5875);
#37=CYLINDRICAL_SURFACE('',#271,3.9625);
#38=FACE_OUTER_BOUND('',#103,.T.);
#39=FACE_OUTER_BOUND('',#104,.T.);
#40=FACE_OUTER_BOUND('',#105,.T.);
#41=FACE_OUTER_BOUND('',#106,.T.);
#42=FACE_OUTER_BOUND('',#109,.T.);
#43=FACE_OUTER_BOUND('',#110,.T.);
#44=FACE_OUTER_BOUND('',#111,.T.);
#45=FACE_OUTER_BOUND('',#112,.T.);
#46=ADVANCED_FACE('',(#95,#96),#57,.F.);
#47=ADVANCED_FACE('',(#38),#58,.T.);
#48=ADVANCED_FACE('',(#39),#59,.T.);
#49=ADVANCED_FACE('',(#40),#60,.T.);
#50=ADVANCED_FACE('',(#41),#61,.T.);
#51=ADVANCED_FACE('',(#97,#98),#62,.T.);
#52=ADVANCED_FACE('',(#42),#33,.T.);
#53=ADVANCED_FACE('',(#43),#34,.T.);
#54=ADVANCED_FACE('',(#44),#35,.T.);
#55=ADVANCED_FACE('',(#45),#36,.T.);
#56=ADVANCED_FACE('',(#99,#100),#37,.F.);
#57=PLANE('',#256);
#58=PLANE('',#257);
#59=PLANE('',#258);
#60=PLANE('',#259);
#61=PLANE('',#260);
#62=PLANE('',#266);
#63=LINE('',#421,#79);
#64=LINE('',#426,#80);
#65=LINE('',#430,#81);
#66=LINE('',#434,#82);
#67=LINE('',#438,#83);
#68=LINE('',#441,#84);
#69=LINE('',#442,#85);
#70=LINE('',#444,#86);
#71=LINE('',#446,#87);
#72=LINE('',#448,#88);
#73=LINE('',#450,#89);
#74=LINE('',#452,#90);
#75=LINE('',#454,#91);
#76=LINE('',#456,#92);
#77=LINE('',#458,#93);
#78=LINE('',#460,#94);
#79=VECTOR('',#280,1.0);
#80=VECTOR('',#283,1.0);
#81=VECTOR('',#286,1.0);
#82=VECTOR('',#289,1.0);
#83=VECTOR('',#294,1.0);
#84=VECTOR('',#295,1.0);
#85=VECTOR('',#296,1.0);
#86=VECTOR('',#299,1.0);
#87=VECTOR('',#300,1.0);
#88=VECTOR('',#301,1.0);
#89=VECTOR('',#304,1.0);
#90=VECTOR('',#305,1.0);
#91=VECTOR('',#306,1.0);
#92=VECTOR('',#309,1.0);
#93=VECTOR('',#310,1.0);
#94=VECTOR('',#311,1.0);
#95=FACE_BOUND('',#101,.T.);
#96=FACE_BOUND('',#102,.T.);
#97=FACE_BOUND('',#107,.T.);
#98=FACE_BOUND('',#108,.T.);
#99=FACE_BOUND('',#113,.T.);
#100=FACE_BOUND('',#114,.T.);
#101=EDGE_LOOP('',(#115));
#102=EDGE_LOOP('',(#116,#117,#118,#119,#120,#121,#122,#123));
#103=EDGE_LOOP('',(#124,#125,#126,#127));
#104=EDGE_LOOP('',(#128,#129,#130,#131));
#105=EDGE_LOOP('',(#132,#133,#134,#135));
#106=EDGE_LOOP('',(#136,#137,#138,#139));
#107=EDGE_LOOP('',(#140));
#108=EDGE_LOOP('',(#141,#142,#143,#144,#145,#146,#147,#148));
#109=EDGE_LOOP('',(#149,#150,#151,#152));
#110=EDGE_LOOP('',(#153,#154,#155,#156));
#111=EDGE_LOOP('',(#157,#158,#159,#160));
#112=EDGE_LOOP('',(#161,#162,#163,#164));
#113=EDGE_LOOP('',(#165));
#114=EDGE_LOOP('',(#166));
#115=ORIENTED_EDGE('',*,*,#185,.T.);
#116=ORIENTED_EDGE('',*,*,#186,.T.);
#117=ORIENTED_EDGE('',*,*,#187,.T.);
#118=ORIENTED_EDGE('',*,*,#188,.T.);
#119=ORIENTED_EDGE('',*,*,#189,.T.);
#120=ORIENTED_EDGE('',*,*,#190,.T.);
#121=ORIENTED_EDGE('',*,*,#191,.T.);
#122=ORIENTED_EDGE('',*,*,#192,.T.);
#123=ORIENTED_EDGE('',*,*,#193,.T.);
#124=ORIENTED_EDGE('',*,*,#194,.F.);
#125=ORIENTED_EDGE('',*,*,#195,.T.);
#126=ORIENTED_EDGE('',*,*,#186,.F.);
#127=ORIENTED_EDGE('',*,*,#196,.T.);
#128=ORIENTED_EDGE('',*,*,#192,.F.);
#129=ORIENTED_EDGE('',*,*,#197,.T.);
#130=ORIENTED_EDGE('',*,*,#198,.F.);
#131=ORIENTED_EDGE('',*,*,#199,.T.);
#132=ORIENTED_EDGE('',*,*,#190,.F.);
#133=ORIENTED_EDGE('',*,*,#200,.T.);
#134=ORIENTED_EDGE('',*,*,#201,.F.);
#135=ORIENTED_EDGE('',*,*,#202,.T.);
#136=ORIENTED_EDGE('',*,*,#188,.F.);
#137=ORIENTED_EDGE('',*,*,#203,.T.);
#138=ORIENTED_EDGE('',*,*,#204,.F.);
#139=ORIENTED_EDGE('',*,*,#205,.T.);
#140=ORIENTED_EDGE('',*,*,#206,.F.);
#141=ORIENTED_EDGE('',*,*,#204,.T.);
#142=ORIENTED_EDGE('',*,*,#207,.T.);
#143=ORIENTED_EDGE('',*,*,#194,.T.);
#144=ORIENTED_EDGE('',*,*,#208,.T.);
#145=ORIENTED_EDGE('',*,*,#198,.T.);
#146=ORIENTED_EDGE('',*,*,#209,.T.);
#147=ORIENTED_EDGE('',*,*,#201,.T.);
#148=ORIENTED_EDGE('',*,*,#210,.T.);
#149=ORIENTED_EDGE('',*,*,#187,.F.);
#150=ORIENTED_EDGE('',*,*,#195,.F.);
#151=ORIENTED_EDGE('',*,*,#207,.F.);
#152=ORIENTED_EDGE('',*,*,#203,.F.);
#153=ORIENTED_EDGE('',*,*,#189,.F.);
#154=ORIENTED_EDGE('',*,*,#205,.F.);
#155=ORIENTED_EDGE('',*,*,#210,.F.);
#156=ORIENTED_EDGE('',*,*,#200,.F.);
#157=ORIENTED_EDGE('',*,*,#191,.F.);
#158=ORIENTED_EDGE('',*,*,#202,.F.);
#159=ORIENTED_EDGE('',*,*,#209,.F.);
#160=ORIENTED_EDGE('',*,*,#197,.F.);
#161=ORIENTED_EDGE('',*,*,#193,.F.);
#162=ORIENTED_EDGE('',*,*,#199,.F.);
#163=ORIENTED_EDGE('',*,*,#208,.F.);
#164=ORIENTED_EDGE('',*,*,#196,.F.);
#165=ORIENTED_EDGE('',*,*,#185,.F.);
#166=ORIENTED_EDGE('',*,*,#206,.T.);
#167=VERTEX_POINT('',#420);
#168=VERTEX_POINT('',#422);
#169=VERTEX_POINT('',#423);
#170=VERTEX_POINT('',#425);
#171=VERTEX_POINT('',#427);
#172=VERTEX_POINT('',#429);
#173=VERTEX_POINT('',#431);
#174=VERTEX_POINT('',#433);
#175=VERTEX_POINT('',#435);
#176=VERTEX_POINT('',#439);
#177=VERTEX_POINT('',#440);
#178=VERTEX_POINT('',#445);
#179=VERTEX_POINT('',#447);
#180=VERTEX_POINT('',#451);
#181=VERTEX_POINT('',#453);
#182=VERTEX_POINT('',#457);
#183=VERTEX_POINT('',#459);
#184=VERTEX_POINT('',#463);
#185=EDGE_CURVE('',#167,#167,#211,.T.);
#186=EDGE_CURVE('',#168,#169,#63,.T.);
#187=EDGE_CURVE('',#169,#170,#212,.T.);
#188=EDGE_CURVE('',#170,#171,#64,.T.);
#189=EDGE_CURVE('',#171,#172,#213,.T.);
#190=EDGE_CURVE('',#172,#173,#65,.T.);
#191=EDGE_CURVE('',#173,#174,#214,.T.);
#192=EDGE_CURVE('',#174,#175,#66,.T.);
#193=EDGE_CURVE('',#175,#168,#215,.T.);
#194=EDGE_CURVE('',#176,#177,#67,.T.);
#195=EDGE_CURVE('',#176,#169,#68,.T.);
#196=EDGE_CURVE('',#168,#177,#69,.T.);
#197=EDGE_CURVE('',#174,#178,#70,.T.);
#198=EDGE_CURVE('',#179,#178,#71,.T.);
#199=EDGE_CURVE('',#179,#175,#72,.T.);
#200=EDGE_CURVE('',#172,#180,#73,.T.);
#201=EDGE_CURVE('',#181,#180,#74,.T.);
#202=EDGE_CURVE('',#181,#173,#75,.T.);
#203=EDGE_CURVE('',#170,#182,#76,.T.);
#204=EDGE_CURVE('',#183,#182,#77,.T.);
#205=EDGE_CURVE('',#183,#171,#78,.T.);
#206=EDGE_CURVE('',#184,#184,#216,.T.);
#207=EDGE_CURVE('',#182,#176,#217,.T.);
#208=EDGE_CURVE('',#177,#179,#218,.T.);
#209=EDGE_CURVE('',#178,#181,#219,.T.);
#210=EDGE_CURVE('',#180,#183,#220,.T.);
#211=CIRCLE('',#251,3.9625);
#212=CIRCLE('',#252,1.5875);
#213=CIRCLE('',#253,1.5875);
#214=CIRCLE('',#254,1.5875);
#215=CIRCLE('',#255,1.5875);
#216=CIRCLE('',#261,3.9625);
#217=CIRCLE('',#262,1.5875);
#218=CIRCLE('',#263,1.5875);
#219=CIRCLE('',#264,1.5875);
#220=CIRCLE('',#265,1.5875);
#221=CURVE_STYLE('',#225,POSITIVE_LENGTH_MEASURE(0.18),#224);
#222=CURVE_STYLE('',#226,POSITIVE_LENGTH_MEASURE(0.18),#246);
#223=CURVE_STYLE('',#227,POSITIVE_LENGTH_MEASURE(0.18),#246);
#224=DRAUGHTING_PRE_DEFINED_COLOUR('blue');
#225=DRAUGHTING_PRE_DEFINED_CURVE_FONT('continuous');
#226=DRAUGHTING_PRE_DEFINED_CURVE_FONT('continuous');
#227=DRAUGHTING_PRE_DEFINED_CURVE_FONT('continuous');
#228=B_SPLINE_CURVE_WITH_KNOTS('CUTTING EDGE LINE',5,(#339,#340,#341,#342,#343,#344,
     #345,#346,#347,#348,#349,#350,#351,#352,#353,#354,#355,#356,#357,#358,#359,
     #360,#361,#362,#363,#364,#365,#366,#367,#368,#369,#370,#371,#372,#373,#374,
     #375,#376,#377,#378,#379,#380,#381,#382,#383,#384,#385,#386,#387,#388,#389,
     #390,#391,#392,#393,#394,#395,#396,#397,#398,#399,#400,#401,#402,#403,#404,
     #405,#406,#407,#408,#409,#410,#411,#412,#413,#414,#415,#416),.UNSPECIFIED.,
     .T.,.F.,(2,4,1,1,1,1,1,1,1,4,4,1,1,1,1,1,1,1,1,1,1,1,1,1,1,1,4,4,1,1,1,1,1,
     1,1,4,4,1,1,1,1,1,1,1,1,1,1,1,1,1,1,1,4,4,1,1),(-0.2165077194,0.0,0.00372136451250005,
     0.00744272902499998,0.0111640935375,0.01488545805,0.0186068225625,0.022328187075,
     0.0260495515875,0.0297709161,0.2462786354,0.248604488225,0.25093034105,0.253256193875,
     0.2555820467,0.257907899525,0.26023375235,0.262559605175,0.264885458,0.267211310825,
     0.26953716365,0.271863016475,0.2741888693,0.276514722125,0.27884057495,0.281166427775,
     0.2834922806,0.5,0.5037213645125,0.507442729025,0.5111640935375,0.51488545805,
     0.5186068225625,0.522328187075,0.5260495515875,0.5297709161,0.7462786354,0.748604488225,
     0.75093034105,0.753256193875,0.7555820467,0.757907899525,0.76023375235,0.762559605175,
     0.764885458,0.767211310825,0.76953716365,0.771863016475,0.7741888693,0.776514722125,
     0.77884057495,0.781166427775,0.7834922806,1.0,1.0037213645125,1.007442729025),
     .UNSPECIFIED.);
#229=PRESENTATION_LAYER_ASSIGNMENT('1','Layer 1',(#228,#249,#250,#31));
#232=STYLED_ITEM('',(#238),#228);
#233=STYLED_ITEM('',(#239),#249);
#234=STYLED_ITEM('',(#240),#250);
#235=STYLED_ITEM('',(#241),#31);
#236=PRESENTATION_STYLE_ASSIGNMENT((#242));
#237=PRESENTATION_STYLE_ASSIGNMENT((#243));
#238=PRESENTATION_STYLE_ASSIGNMENT((#221));
#239=PRESENTATION_STYLE_ASSIGNMENT((#222));
#240=PRESENTATION_STYLE_ASSIGNMENT((#223));
#241=PRESENTATION_STYLE_ASSIGNMENT((#26));
#242=POINT_STYLE('',#244,POSITIVE_LENGTH_MEASURE(3.0),#246);
#243=POINT_STYLE('',#245,POSITIVE_LENGTH_MEASURE(3.0),#246);
#244=PRE_DEFINED_POINT_MARKER_SYMBOL('plus');
#245=PRE_DEFINED_POINT_MARKER_SYMBOL('plus');
#246=COLOUR_RGB('Medium Maroon',0.6,0.4,0.4);
#247=COLOUR_RGB('IsoInsertColor',0.8,0.8,0.8);
#248=AXIS2_PLACEMENT_3D('',#336,#272,#273);
#249=AXIS2_PLACEMENT_3D('PCS',#417,#274,#275);
#250=AXIS2_PLACEMENT_3D('MCS',#418,#276,#277);
#251=AXIS2_PLACEMENT_3D('',#419,#278,#279);
#252=AXIS2_PLACEMENT_3D('',#424,#281,#282);
#253=AXIS2_PLACEMENT_3D('',#428,#284,#285);
#254=AXIS2_PLACEMENT_3D('',#432,#287,#288);
#255=AXIS2_PLACEMENT_3D('',#436,#290,#291);
#256=AXIS2_PLACEMENT_3D('',#437,#292,#293);
#257=AXIS2_PLACEMENT_3D('',#443,#297,#298);
#258=AXIS2_PLACEMENT_3D('',#449,#302,#303);
#259=AXIS2_PLACEMENT_3D('',#455,#307,#308);
#260=AXIS2_PLACEMENT_3D('',#461,#312,#313);
#261=AXIS2_PLACEMENT_3D('',#462,#314,#315);
#262=AXIS2_PLACEMENT_3D('',#464,#316,#317);
#263=AXIS2_PLACEMENT_3D('',#465,#318,#319);
#264=AXIS2_PLACEMENT_3D('',#466,#320,#321);
#265=AXIS2_PLACEMENT_3D('',#467,#322,#323);
#266=AXIS2_PLACEMENT_3D('',#468,#324,#325);
#267=AXIS2_PLACEMENT_3D('',#469,#326,#327);
#268=AXIS2_PLACEMENT_3D('',#470,#328,#329);
#269=AXIS2_PLACEMENT_3D('',#471,#330,#331);
#270=AXIS2_PLACEMENT_3D('',#472,#332,#333);
#271=AXIS2_PLACEMENT_3D('',#473,#334,#335);
#272=DIRECTION('',(0.0,0.0,1.0));
#273=DIRECTION('',(1.0,0.0,0.0));
#274=DIRECTION('',(0.0,0.0,1.0));
#275=DIRECTION('',(1.0,0.0,0.0));
#276=DIRECTION('',(0.0,0.0,1.0));
#277=DIRECTION('',(1.0,0.0,0.0));
#278=DIRECTION('',(0.0,0.0,1.0));
#279=DIRECTION('',(-0.766044443118978,-0.64278760968654,0.0));
#280=DIRECTION('',(1.0,9.43689570931383E-16,0.0));
#281=DIRECTION('',(0.0,0.0,-1.0));
#282=DIRECTION('',(-0.766044443118977,-0.642787609686539,0.0));
#283=DIRECTION('',(-0.173648177666928,-0.984807753012209,0.0));
#284=DIRECTION('',(0.0,0.0,-1.0));
#285=DIRECTION('',(-0.766044443118977,-0.64278760968654,0.0));
#286=DIRECTION('',(-1.0,9.99200722162641E-16,0.0));
#287=DIRECTION('',(0.0,0.0,-1.0));
#288=DIRECTION('',(-0.766044443118978,-0.64278760968654,0.0));
#289=DIRECTION('',(0.17364817766693,0.984807753012208,0.0));
#290=DIRECTION('',(0.0,0.0,-1.0));
#291=DIRECTION('',(-0.766044443118978,-0.642787609686539,0.0));
#292=DIRECTION('',(0.0,0.0,1.0));
#293=DIRECTION('',(-0.766044443118978,-0.64278760968654,0.0));
#294=DIRECTION('',(-1.0,-9.43689570931383E-16,-6.88728341558126E-17));
#295=DIRECTION('',(6.88728341558128E-17,-2.57646211930159E-16,-1.0));
#296=DIRECTION('',(-6.88728341558128E-17,2.57646211930159E-16,1.0));
#297=DIRECTION('',(-9.43689570931383E-16,1.0,-2.5764621193016E-16));
#298=DIRECTION('',(-1.0,-9.43689570931383E-16,0.0));
#299=DIRECTION('',(-6.88728341558128E-17,2.57646211930159E-16,1.0));
#300=DIRECTION('',(-0.17364817766693,-0.984807753012208,2.41772344901134E-16));
#301=DIRECTION('',(6.88728341558128E-17,-2.57646211930159E-16,-1.0));
#302=DIRECTION('',(-0.984807753012208,0.17364817766693,-1.12566296233028E-16));
#303=DIRECTION('',(-0.17364817766693,-0.984807753012208,0.0));
#304=DIRECTION('',(-6.88728341558128E-17,2.57646211930159E-16,1.0));
#305=DIRECTION('',(1.0,-9.99200722162641E-16,6.88728341558131E-17));
#306=DIRECTION('',(6.88728341558128E-17,-2.57646211930159E-16,-1.0));
#307=DIRECTION('',(-9.99200722162641E-16,-1.0,2.57646211930159E-16));
#308=DIRECTION('',(1.0,-9.99200722162641E-16,0.0));
#309=DIRECTION('',(-6.88728341558128E-17,2.57646211930159E-16,1.0));
#310=DIRECTION('',(0.173648177666928,0.984807753012209,-2.41772344901134E-16));
#311=DIRECTION('',(6.88728341558128E-17,-2.57646211930159E-16,-1.0));
#312=DIRECTION('',(0.984807753012209,-0.173648177666928,1.12566296233028E-16));
#313=DIRECTION('',(0.173648177666928,0.984807753012209,0.0));
#314=DIRECTION('',(0.0,0.0,1.0));
#315=DIRECTION('',(-0.766044443118978,-0.64278760968654,0.0));
#316=DIRECTION('',(-6.88728341558128E-17,2.57646211930159E-16,1.0));
#317=DIRECTION('',(-0.642787609686539,0.766044443118977,-2.41639053379106E-16));
#318=DIRECTION('',(-6.88728341558128E-17,2.57646211930159E-16,1.0));
#319=DIRECTION('',(-0.64278760968654,0.766044443118977,-2.41639053379105E-16));
#320=DIRECTION('',(-6.88728341558128E-17,2.57646211930159E-16,1.0));
#321=DIRECTION('',(-0.64278760968654,0.766044443118978,-2.41639053379106E-16));
#322=DIRECTION('',(-6.88728341558128E-17,2.57646211930159E-16,1.0));
#323=DIRECTION('',(-0.642787609686539,0.766044443118978,-2.41639053379106E-16));
#324=DIRECTION('',(-6.88728341558128E-17,2.57646211930159E-16,1.0));
#325=DIRECTION('',(-0.64278760968654,0.766044443118978,-2.41639053379106E-16));
#326=DIRECTION('',(-6.88728341558128E-17,2.57646211930159E-16,1.0));
#327=DIRECTION('',(-0.642787609686539,0.766044443118977,-2.41639053379105E-16));
#328=DIRECTION('',(-6.88728341558128E-17,2.57646211930159E-16,1.0));
#329=DIRECTION('',(-0.642787609686539,0.766044443118978,-2.41639053379106E-16));
#330=DIRECTION('',(-6.88728341558128E-17,2.57646211930159E-16,1.0));
#331=DIRECTION('',(-0.64278760968654,0.766044443118978,-2.41639053379106E-16));
#332=DIRECTION('',(-6.88728341558128E-17,2.57646211930159E-16,1.0));
#333=DIRECTION('',(-0.64278760968654,0.766044443118977,-2.41639053379105E-16));
#334=DIRECTION('',(0.0,0.0,1.0));
#335=DIRECTION('',(-0.766044443118978,-0.64278760968654,0.0));
#336=CARTESIAN_POINT('',(0.0,0.0,0.0));
#339=CARTESIAN_POINT('',(14.7878267991922,9.59232693276135E-14,0.0));
#340=CARTESIAN_POINT('',(18.0628275584483,9.59232693276135E-14,4.12527340666502E-16));
#341=CARTESIAN_POINT('',(18.164870091486,0.00409947974370795,4.18219866514316E-16));
#342=CARTESIAN_POINT('',(18.3268136137812,0.0232577077308918,4.23132456545193E-16));
#343=CARTESIAN_POINT('',(18.539491693703,0.0773864093849852,4.20147416543562E-16));
#344=CARTESIAN_POINT('',(18.8017083423477,0.195140457967993,3.99847861109762E-16));
#345=CARTESIAN_POINT('',(19.0406742319158,0.361342936216158,3.62164563996724E-16));
#346=CARTESIAN_POINT('',(19.2458477123128,0.567817639497095,3.09034944555329E-16));
#347=CARTESIAN_POINT('',(19.4073462554968,0.805602852101705,2.42697703162507E-16));
#348=CARTESIAN_POINT('',(19.4975837815544,1.00565052370247,1.83745766825034E-16));
#349=CARTESIAN_POINT('',(19.5445721505417,1.16180696863185,1.36112995491336E-16));
#350=CARTESIAN_POINT('',(19.566328849883,1.26158737911756,1.05107313188996E-16));
#351=CARTESIAN_POINT('',(20.1350267635857,4.48683351795383,5.36096985809796E-17));
#352=CARTESIAN_POINT('',(20.694864927335,7.66183351795382,3.57397990539863E-17));
#353=CARTESIAN_POINT('',(21.2547030910844,10.8368335179538,3.57397990539862E-17));
#354=CARTESIAN_POINT('',(21.8145412548338,14.0118335179538,5.36096985809793E-17));
#355=CARTESIAN_POINT('',(22.3796587380013,17.2167740261898,8.34348595457078E-17));
#356=CARTESIAN_POINT('',(22.3887838918402,17.2769078047434,7.1613624232825E-17));
#357=CARTESIAN_POINT('',(22.3987021855027,17.3720010116534,5.30969519052603E-17));
#358=CARTESIAN_POINT('',(22.4022775868077,17.5009439163111,2.83762845357963E-17));
#359=CARTESIAN_POINT('',(22.3896524109532,17.6691334503447,-3.19055293871704E-18));
#360=CARTESIAN_POINT('',(22.3579938642553,17.8398862481051,-3.44994882361838E-17));
#361=CARTESIAN_POINT('',(22.3063150166889,18.0106046096894,-6.5016610969904E-17));
#362=CARTESIAN_POINT('',(22.234200984132,18.1776389525018,-9.40299271084788E-17));
#363=CARTESIAN_POINT('',(22.1420874275835,18.3374213945993,-1.2087637782411E-16));
#364=CARTESIAN_POINT('',(22.0312465480044,18.4864108528063,-1.44930824208392E-16));
#365=CARTESIAN_POINT('',(21.9037678911949,18.6214395582758,-1.65671350772298E-16));
#366=CARTESIAN_POINT('',(21.7624082546551,18.7398996328157,-1.82708945515141E-16));
#367=CARTESIAN_POINT('',(21.610434009172,18.8399233004159,-1.95815669155636E-16));
#368=CARTESIAN_POINT('',(21.4512831808058,18.9204619625494,-2.04926475265591E-16));
#369=CARTESIAN_POINT('',(21.2886219506652,18.9812904569491,-2.10142238189333E-16));
#370=CARTESIAN_POINT('',(21.1251799323511,19.0229296341015,-2.11669310342423E-16));
#371=CARTESIAN_POINT('',(20.997575098232,19.041799251593,-2.10261440455419E-16));
#372=CARTESIAN_POINT('',(20.9022042771851,19.0485444011859,-2.07806580392071E-16));
#373=CARTESIAN_POINT('',(20.8413994995125,19.05,-2.05699141046918E-16));
#374=CARTESIAN_POINT('',(17.587017617939,19.05,-1.22704008431738E-16));
#375=CARTESIAN_POINT('',(14.3630381252018,19.05,-8.18026722878256E-17));
#376=CARTESIAN_POINT('',(11.1390586324646,19.05,-8.18026722878256E-17));
#377=CARTESIAN_POINT('',(7.91507913972738,19.05,-1.22704008431739E-16));
#378=CARTESIAN_POINT('',(4.64007838047129,19.05,-2.15853720264234E-16));
#379=CARTESIAN_POINT('',(4.53803584743356,19.0459005202564,-2.37101391082804E-16));
#380=CARTESIAN_POINT('',(4.37609232513835,19.0267422922692,-2.66357798974987E-16));
#381=CARTESIAN_POINT('',(4.16341424521658,18.9726135906151,-2.94558945897907E-16));
#382=CARTESIAN_POINT('',(3.90119759657196,18.8548595420321,-3.11328625156216E-16));
#383=CARTESIAN_POINT('',(3.66223170700373,18.6886570637839,-3.0583344920534E-16));
#384=CARTESIAN_POINT('',(3.45705822660684,18.482182360503,-2.78613761694153E-16));
#385=CARTESIAN_POINT('',(3.29555968342276,18.2443971478984,-2.30633643585188E-16));
#386=CARTESIAN_POINT('',(3.20532215736522,18.0443494762976,-1.80120034943608E-16));
#387=CARTESIAN_POINT('',(3.15833378837789,17.8881930313682,-1.35473912114087E-16));
#388=CARTESIAN_POINT('',(3.13657708903655,17.7884126208825,-1.05107313188996E-16));
#389=CARTESIAN_POINT('',(2.56787917533392,14.5631664820463,-5.36096985809798E-17));
#390=CARTESIAN_POINT('',(2.00804101158455,11.3881664820463,-3.57397990539865E-17));
#391=CARTESIAN_POINT('',(1.44820284783518,8.21316648204632,-3.57397990539866E-17));
#392=CARTESIAN_POINT('',(0.888364684085811,5.03816648204634,-5.360969858098E-17));
#393=CARTESIAN_POINT('',(0.323247200918301,1.8332259738103,-8.34348595457088E-17));
#394=CARTESIAN_POINT('',(0.314122047079417,1.77309219525669,-7.16136242328261E-17));
#395=CARTESIAN_POINT('',(0.304203753416827,1.6779989883467,-5.30969519052614E-17));
#396=CARTESIAN_POINT('',(0.300628352111815,1.54905608368907,-2.83762845357975E-17));
#397=CARTESIAN_POINT('',(0.31325352796641,1.38086654965541,3.19055293871576E-18));
#398=CARTESIAN_POINT('',(0.344912074664226,1.21011375189507,3.44994882361825E-17));
#399=CARTESIAN_POINT('',(0.396590922230635,1.03939539031074,6.50166109699026E-17));
#400=CARTESIAN_POINT('',(0.468704954787563,0.872361047498336,9.40299271084778E-17));
#401=CARTESIAN_POINT('',(0.560818511336073,0.712578605400809,1.20876377824108E-16));
#402=CARTESIAN_POINT('',(0.671659390915195,0.563589147193801,1.44930824208391E-16));
#403=CARTESIAN_POINT('',(0.799138047724622,0.428560441724354,1.65671350772297E-16));
#404=CARTESIAN_POINT('',(0.940497684264443,0.31010036718445,1.8270894551514E-16));
#405=CARTESIAN_POINT('',(1.09247192974761,0.210076699584233,1.95815669155636E-16));
#406=CARTESIAN_POINT('',(1.25162275811376,0.129538037450708,2.04926475265591E-16));
#407=CARTESIAN_POINT('',(1.41428398825436,0.0687095430509714,2.10142238189333E-16));
#408=CARTESIAN_POINT('',(1.57772600656848,0.0270703658986484,2.11669310342422E-16));
#409=CARTESIAN_POINT('',(1.70533084068757,0.00820074840705587,2.10261440455418E-16));
#410=CARTESIAN_POINT('',(1.80070166173446,0.00145559881421065,2.07806580392071E-16));
#411=CARTESIAN_POINT('',(1.86150643940703,1.11910480882216E-13,2.05699141046918E-16));
#412=CARTESIAN_POINT('',(5.11588832098054,1.06581410364015E-13,1.22704008431738E-16));
#413=CARTESIAN_POINT('',(8.33986781371776,1.03028696685215E-13,6.13520042158692E-17));
#414=CARTESIAN_POINT('',(11.563847306455,9.9475983006414E-14,2.04506680719564E-17));
#415=CARTESIAN_POINT('',(14.7878267991922,9.59232693276135E-14,0.0));
#416=CARTESIAN_POINT('',(18.0628275584483,9.59232693276135E-14,4.12527340666502E-16));
#417=CARTESIAN_POINT('',(0.0,0.0,0.0));
#418=CARTESIAN_POINT('',(11.3514529694598,9.525,0.0));
#419=CARTESIAN_POINT('',(11.3514529694598,9.525,-6.35));
#420=CARTESIAN_POINT('',(8.31600186360089,6.97795409661709,-6.35));
#421=CARTESIAN_POINT('',(11.3514529694598,19.05,-6.35));
#422=CARTESIAN_POINT('',(4.69109964699016,19.05,-6.35));
#423=CARTESIAN_POINT('',(20.8109971106762,19.05,-6.35));
#424=CARTESIAN_POINT('',(20.8109971106762,17.4625,-6.35));
#425=CARTESIAN_POINT('',(22.3743794185831,17.1868335179538,-6.35));
#426=CARTESIAN_POINT('',(20.731746816901,7.87100110772257,-6.35));
#427=CARTESIAN_POINT('',(19.5751885998363,1.31183351795385,-6.35));
#428=CARTESIAN_POINT('',(18.0118062919294,1.58750000000009,-6.35));
#429=CARTESIAN_POINT('',(18.0118062919294,9.19403442267708E-14,-6.35));
#430=CARTESIAN_POINT('',(11.3514529694598,1.00613961606655E-13,-6.35));
#431=CARTESIAN_POINT('',(1.89190882824332,1.09287578986539E-13,-6.35));
#432=CARTESIAN_POINT('',(1.89190882824332,1.58750000000011,-6.35));
#433=CARTESIAN_POINT('',(0.328526520336443,1.86316648204636,-6.35));
#434=CARTESIAN_POINT('',(1.97115912201856,11.1789988922775,-6.35));
#435=CARTESIAN_POINT('',(3.12771733908329,17.7381664820462,-6.35));
#436=CARTESIAN_POINT('',(4.69109964699017,17.4625,-6.35));
#437=CARTESIAN_POINT('',(11.3052316569227,8.99668798019793,-6.35));
#438=CARTESIAN_POINT('',(11.3514529694598,19.05,-5.38749756651153E-15));
#439=CARTESIAN_POINT('',(20.8109971106762,19.05,-4.73599195168394E-15));
#440=CARTESIAN_POINT('',(4.69109964699016,19.05,-5.8462149763091E-15));
#441=CARTESIAN_POINT('',(20.8109971106762,19.05,-4.33680868994202E-15));
#442=CARTESIAN_POINT('',(4.69109964699016,19.05,-5.20417042793042E-15));
#443=CARTESIAN_POINT('',(11.3514529694598,19.05,-5.38749756651153E-15));
#444=CARTESIAN_POINT('',(0.328526520336441,1.86316648204637,-1.73472347597681E-15));
#445=CARTESIAN_POINT('',(0.328526520336441,1.86316648204637,-1.71855520077868E-15));
#446=CARTESIAN_POINT('',(1.97115912201856,11.1789988922775,-4.00561136949636E-15));
#447=CARTESIAN_POINT('',(3.12771733908329,17.7381664820462,-5.6159006101399E-15));
#448=CARTESIAN_POINT('',(3.12771733908329,17.7381664820462,-5.20417042793042E-15));
#449=CARTESIAN_POINT('',(1.97115912201856,11.1789988922775,-4.00561136949636E-15));
#450=CARTESIAN_POINT('',(18.0118062919294,9.36750677027476E-14,5.77778983316171E-31));
#451=CARTESIAN_POINT('',(18.0118062919294,9.36750677027476E-14,-2.06198194444519E-17));
#452=CARTESIAN_POINT('',(11.3514529694598,1.00613961606655E-13,-4.79337229242019E-16));
#453=CARTESIAN_POINT('',(1.89190882824332,1.11022302462516E-13,-1.13084284406962E-15));
#454=CARTESIAN_POINT('',(1.89190882824332,1.11022302462516E-13,-8.67361737988403E-16));
#455=CARTESIAN_POINT('',(11.3514529694598,1.00613961606655E-13,-4.79337229242023E-16));
#456=CARTESIAN_POINT('',(22.3743794185831,17.1868335179538,-3.46944695195362E-15));
#457=CARTESIAN_POINT('',(22.3743794185831,17.1868335179538,-4.14827959497488E-15));
#458=CARTESIAN_POINT('',(20.731746816901,7.87100110772254,-1.86122342625718E-15));
#459=CARTESIAN_POINT('',(19.5751885998363,1.31183351795385,-2.50934185613649E-16));
#460=CARTESIAN_POINT('',(19.5751885998363,1.31183351795385,7.70371977754894E-31));
#461=CARTESIAN_POINT('',(20.731746816901,7.87100110772257,-1.86122342625719E-15));
#462=CARTESIAN_POINT('',(11.3514529694598,9.525,-6.93889390390723E-15));
#463=CARTESIAN_POINT('',(8.31600186360089,6.97795409661709,-6.93889390390723E-15));
#464=CARTESIAN_POINT('',(20.8109971106762,17.4625,-4.32697859024481E-15));
#465=CARTESIAN_POINT('',(4.69109964699017,17.4625,-5.43720161486997E-15));
#466=CARTESIAN_POINT('',(1.89190882824332,1.58750000000011,-1.53985620550875E-15));
#467=CARTESIAN_POINT('',(18.0118062919294,1.5875000000001,-4.2963318088358E-16));
#468=CARTESIAN_POINT('',(11.3514529694598,9.525,-2.93341739787676E-15));
#469=CARTESIAN_POINT('',(20.8109971106762,17.4625,-4.33680868994202E-15));
#470=CARTESIAN_POINT('',(18.0118062919294,1.5875000000001,0.0));
#471=CARTESIAN_POINT('',(1.89190882824332,1.58750000000011,-8.67361737988404E-16));
#472=CARTESIAN_POINT('',(4.69109964699017,17.4625,-5.20417042793042E-15));
#473=CARTESIAN_POINT('',(11.3514529694598,9.525,-33.3676978394524));
#474=MECHANICAL_DESIGN_GEOMETRIC_PRESENTATION_REPRESENTATION('',(#232,#233,#234,
     #235),#475);
#475=(GEOMETRIC_REPRESENTATION_CONTEXT(3)GLOBAL_UNCERTAINTY_ASSIGNED_CONTEXT((#476))
     GLOBAL_UNIT_ASSIGNED_CONTEXT((#482,#478,#477))REPRESENTATION_CONTEXT('CNMG190616',
     'TOP_LEVEL_ASSEMBLY_PART'));
#476=UNCERTAINTY_MEASURE_WITH_UNIT(LENGTH_MEASURE(2.0E-5),#482,'DISTANCE_ACCURACY_VALUE',
     'Maximum Tolerance applied to model');
#477=(NAMED_UNIT(*)SI_UNIT($,.STERADIAN.)SOLID_ANGLE_UNIT());
#478=(CONVERSION_BASED_UNIT('DEGREE',#480)NAMED_UNIT(#479)PLANE_ANGLE_UNIT());
#479=DIMENSIONAL_EXPONENTS(0.0,0.0,0.0,0.0,0.0,0.0,0.0);
#480=PLANE_ANGLE_MEASURE_WITH_UNIT(PLANE_ANGLE_MEASURE(0.0174532925),#481);
#481=(NAMED_UNIT(*)PLANE_ANGLE_UNIT()SI_UNIT($,.RADIAN.));
#482=(LENGTH_UNIT()NAMED_UNIT(*)SI_UNIT(.MILLI.,.METRE.));
#483=CONSTRUCTIVE_GEOMETRY_REPRESENTATION('supplemental geometry',(#249,#250),#475);
#484=CONSTRUCTIVE_GEOMETRY_REPRESENTATION_RELATIONSHIP('supplemental geometry','contains PCS and MCS coordinate systems',
     #24,#483);
ENDSEC;
END-ISO-10303-21;
