ISO-10303-21;
HEADER;
FILE_DESCRIPTION(
/* description */ (''),
/* implementation_level */ '2;1');
FILE_NAME(
/* name */ 'CNMG160604.stp',
/* time_stamp */ '2017-03-21T10:53:56',
/* author */ ('Sandvik Coromant R&D'),
/* organization */ ('Sandvik Machining Solutions'),
/* preprocessor_version */ 'ST-DEVELOPER v15',
/* originating_system */ 'SIEMENS PLM Software NX v8.5.3.3(64 bits)',
/* authorization */ '');
FILE_SCHEMA(('AUTOMOTIVE_DESIGN'));
ENDSEC;
DATA;
#10=GEOMETRICALLY_BOUNDED_WIREFRAME_SHAPE_REPRESENTATION('IsoTurningInsert-None',
     (#25),#451);
#11=SHAPE_REPRESENTATION_RELATIONSHIP('None','relationship between IsoTurningInsert-None and IsoTurningInsert-None',
     #24,#13);
#12=SHAPE_REPRESENTATION_RELATIONSHIP('None','relationship between IsoTurningInsert-None and IsoTurningInsert-None',
     #24,#10);
#13=ADVANCED_BREP_SHAPE_REPRESENTATION('IsoTurningInsert-None',(#31),#451);
#14=SHAPE_DEFINITION_REPRESENTATION(#15,#24);
#15=PRODUCT_DEFINITION_SHAPE('','',#16);
#16=PRODUCT_DEFINITION(' ','',#18,#17);
#17=PRODUCT_DEFINITION_CONTEXT('part definition',#23,'design');
#18=PRODUCT_DEFINITION_FORMATION_WITH_SPECIFIED_SOURCE(' ',' ',#20,.NOT_KNOWN.);
#19=PRODUCT_RELATED_PRODUCT_CATEGORY('part','',(#20));
#20=PRODUCT('IsoTurningInsert','IsoTurningInsert',' ',(#21));
#21=PRODUCT_CONTEXT(' ',#23,'mechanical');
#22=APPLICATION_PROTOCOL_DEFINITION('international standard','automotive_design',
     2010,#23);
#23=APPLICATION_CONTEXT('core data for automotive mechanical design processes');
#24=SHAPE_REPRESENTATION('IsoTurningInsert-None',(#248),#451);
#25=GEOMETRIC_CURVE_SET('geometric curve set',(#228));
#26=SURFACE_STYLE_USAGE(.BOTH.,#27);
#27=SURFACE_SIDE_STYLE('',(#28));
#28=SURFACE_STYLE_FILL_AREA(#29);
#29=FILL_AREA_STYLE('',(#30));
#30=FILL_AREA_STYLE_COLOUR('',#247);
#31=MANIFOLD_SOLID_BREP('CUT',#32);
#32=CLOSED_SHELL('',(#46,#47,#48,#49,#50,#51,#52,#53,#54,#55,#56));
#33=CYLINDRICAL_SURFACE('',#267,0.396874999999996);
#34=CYLINDRICAL_SURFACE('',#268,0.396874999999996);
#35=CYLINDRICAL_SURFACE('',#269,0.396874999999996);
#36=CYLINDRICAL_SURFACE('',#270,0.396874999999996);
#37=CYLINDRICAL_SURFACE('',#271,3.175);
#38=FACE_OUTER_BOUND('',#103,.T.);
#39=FACE_OUTER_BOUND('',#104,.T.);
#40=FACE_OUTER_BOUND('',#105,.T.);
#41=FACE_OUTER_BOUND('',#106,.T.);
#42=FACE_OUTER_BOUND('',#109,.T.);
#43=FACE_OUTER_BOUND('',#110,.T.);
#44=FACE_OUTER_BOUND('',#111,.T.);
#45=FACE_OUTER_BOUND('',#112,.T.);
#46=ADVANCED_FACE('',(#95,#96),#57,.F.);
#47=ADVANCED_FACE('',(#38),#58,.T.);
#48=ADVANCED_FACE('',(#39),#59,.T.);
#49=ADVANCED_FACE('',(#40),#60,.T.);
#50=ADVANCED_FACE('',(#41),#61,.T.);
#51=ADVANCED_FACE('',(#97,#98),#62,.T.);
#52=ADVANCED_FACE('',(#42),#33,.T.);
#53=ADVANCED_FACE('',(#43),#34,.T.);
#54=ADVANCED_FACE('',(#44),#35,.T.);
#55=ADVANCED_FACE('',(#45),#36,.T.);
#56=ADVANCED_FACE('',(#99,#100),#37,.F.);
#57=PLANE('',#256);
#58=PLANE('',#257);
#59=PLANE('',#258);
#60=PLANE('',#259);
#61=PLANE('',#260);
#62=PLANE('',#266);
#63=LINE('',#397,#79);
#64=LINE('',#402,#80);
#65=LINE('',#406,#81);
#66=LINE('',#410,#82);
#67=LINE('',#414,#83);
#68=LINE('',#417,#84);
#69=LINE('',#418,#85);
#70=LINE('',#420,#86);
#71=LINE('',#422,#87);
#72=LINE('',#424,#88);
#73=LINE('',#426,#89);
#74=LINE('',#428,#90);
#75=LINE('',#430,#91);
#76=LINE('',#432,#92);
#77=LINE('',#434,#93);
#78=LINE('',#436,#94);
#79=VECTOR('',#280,1.0);
#80=VECTOR('',#283,1.0);
#81=VECTOR('',#286,1.0);
#82=VECTOR('',#289,1.0);
#83=VECTOR('',#294,1.0);
#84=VECTOR('',#295,1.0);
#85=VECTOR('',#296,1.0);
#86=VECTOR('',#299,1.0);
#87=VECTOR('',#300,1.0);
#88=VECTOR('',#301,1.0);
#89=VECTOR('',#304,1.0);
#90=VECTOR('',#305,1.0);
#91=VECTOR('',#306,1.0);
#92=VECTOR('',#309,1.0);
#93=VECTOR('',#310,1.0);
#94=VECTOR('',#311,1.0);
#95=FACE_BOUND('',#101,.T.);
#96=FACE_BOUND('',#102,.T.);
#97=FACE_BOUND('',#107,.T.);
#98=FACE_BOUND('',#108,.T.);
#99=FACE_BOUND('',#113,.T.);
#100=FACE_BOUND('',#114,.T.);
#101=EDGE_LOOP('',(#115));
#102=EDGE_LOOP('',(#116,#117,#118,#119,#120,#121,#122,#123));
#103=EDGE_LOOP('',(#124,#125,#126,#127));
#104=EDGE_LOOP('',(#128,#129,#130,#131));
#105=EDGE_LOOP('',(#132,#133,#134,#135));
#106=EDGE_LOOP('',(#136,#137,#138,#139));
#107=EDGE_LOOP('',(#140));
#108=EDGE_LOOP('',(#141,#142,#143,#144,#145,#146,#147,#148));
#109=EDGE_LOOP('',(#149,#150,#151,#152));
#110=EDGE_LOOP('',(#153,#154,#155,#156));
#111=EDGE_LOOP('',(#157,#158,#159,#160));
#112=EDGE_LOOP('',(#161,#162,#163,#164));
#113=EDGE_LOOP('',(#165));
#114=EDGE_LOOP('',(#166));
#115=ORIENTED_EDGE('',*,*,#185,.T.);
#116=ORIENTED_EDGE('',*,*,#186,.T.);
#117=ORIENTED_EDGE('',*,*,#187,.T.);
#118=ORIENTED_EDGE('',*,*,#188,.T.);
#119=ORIENTED_EDGE('',*,*,#189,.T.);
#120=ORIENTED_EDGE('',*,*,#190,.T.);
#121=ORIENTED_EDGE('',*,*,#191,.T.);
#122=ORIENTED_EDGE('',*,*,#192,.T.);
#123=ORIENTED_EDGE('',*,*,#193,.T.);
#124=ORIENTED_EDGE('',*,*,#194,.F.);
#125=ORIENTED_EDGE('',*,*,#195,.T.);
#126=ORIENTED_EDGE('',*,*,#186,.F.);
#127=ORIENTED_EDGE('',*,*,#196,.T.);
#128=ORIENTED_EDGE('',*,*,#192,.F.);
#129=ORIENTED_EDGE('',*,*,#197,.T.);
#130=ORIENTED_EDGE('',*,*,#198,.F.);
#131=ORIENTED_EDGE('',*,*,#199,.T.);
#132=ORIENTED_EDGE('',*,*,#190,.F.);
#133=ORIENTED_EDGE('',*,*,#200,.T.);
#134=ORIENTED_EDGE('',*,*,#201,.F.);
#135=ORIENTED_EDGE('',*,*,#202,.T.);
#136=ORIENTED_EDGE('',*,*,#188,.F.);
#137=ORIENTED_EDGE('',*,*,#203,.T.);
#138=ORIENTED_EDGE('',*,*,#204,.F.);
#139=ORIENTED_EDGE('',*,*,#205,.T.);
#140=ORIENTED_EDGE('',*,*,#206,.F.);
#141=ORIENTED_EDGE('',*,*,#204,.T.);
#142=ORIENTED_EDGE('',*,*,#207,.T.);
#143=ORIENTED_EDGE('',*,*,#194,.T.);
#144=ORIENTED_EDGE('',*,*,#208,.T.);
#145=ORIENTED_EDGE('',*,*,#198,.T.);
#146=ORIENTED_EDGE('',*,*,#209,.T.);
#147=ORIENTED_EDGE('',*,*,#201,.T.);
#148=ORIENTED_EDGE('',*,*,#210,.T.);
#149=ORIENTED_EDGE('',*,*,#187,.F.);
#150=ORIENTED_EDGE('',*,*,#195,.F.);
#151=ORIENTED_EDGE('',*,*,#207,.F.);
#152=ORIENTED_EDGE('',*,*,#203,.F.);
#153=ORIENTED_EDGE('',*,*,#189,.F.);
#154=ORIENTED_EDGE('',*,*,#205,.F.);
#155=ORIENTED_EDGE('',*,*,#210,.F.);
#156=ORIENTED_EDGE('',*,*,#200,.F.);
#157=ORIENTED_EDGE('',*,*,#191,.F.);
#158=ORIENTED_EDGE('',*,*,#202,.F.);
#159=ORIENTED_EDGE('',*,*,#209,.F.);
#160=ORIENTED_EDGE('',*,*,#197,.F.);
#161=ORIENTED_EDGE('',*,*,#193,.F.);
#162=ORIENTED_EDGE('',*,*,#199,.F.);
#163=ORIENTED_EDGE('',*,*,#208,.F.);
#164=ORIENTED_EDGE('',*,*,#196,.F.);
#165=ORIENTED_EDGE('',*,*,#185,.F.);
#166=ORIENTED_EDGE('',*,*,#206,.T.);
#167=VERTEX_POINT('',#396);
#168=VERTEX_POINT('',#398);
#169=VERTEX_POINT('',#399);
#170=VERTEX_POINT('',#401);
#171=VERTEX_POINT('',#403);
#172=VERTEX_POINT('',#405);
#173=VERTEX_POINT('',#407);
#174=VERTEX_POINT('',#409);
#175=VERTEX_POINT('',#411);
#176=VERTEX_POINT('',#415);
#177=VERTEX_POINT('',#416);
#178=VERTEX_POINT('',#421);
#179=VERTEX_POINT('',#423);
#180=VERTEX_POINT('',#427);
#181=VERTEX_POINT('',#429);
#182=VERTEX_POINT('',#433);
#183=VERTEX_POINT('',#435);
#184=VERTEX_POINT('',#439);
#185=EDGE_CURVE('',#167,#167,#211,.T.);
#186=EDGE_CURVE('',#168,#169,#63,.T.);
#187=EDGE_CURVE('',#169,#170,#212,.T.);
#188=EDGE_CURVE('',#170,#171,#64,.T.);
#189=EDGE_CURVE('',#171,#172,#213,.T.);
#190=EDGE_CURVE('',#172,#173,#65,.T.);
#191=EDGE_CURVE('',#173,#174,#214,.T.);
#192=EDGE_CURVE('',#174,#175,#66,.T.);
#193=EDGE_CURVE('',#175,#168,#215,.T.);
#194=EDGE_CURVE('',#176,#177,#67,.T.);
#195=EDGE_CURVE('',#176,#169,#68,.T.);
#196=EDGE_CURVE('',#168,#177,#69,.T.);
#197=EDGE_CURVE('',#174,#178,#70,.T.);
#198=EDGE_CURVE('',#179,#178,#71,.T.);
#199=EDGE_CURVE('',#179,#175,#72,.T.);
#200=EDGE_CURVE('',#172,#180,#73,.T.);
#201=EDGE_CURVE('',#181,#180,#74,.T.);
#202=EDGE_CURVE('',#181,#173,#75,.T.);
#203=EDGE_CURVE('',#170,#182,#76,.T.);
#204=EDGE_CURVE('',#183,#182,#77,.T.);
#205=EDGE_CURVE('',#183,#171,#78,.T.);
#206=EDGE_CURVE('',#184,#184,#216,.T.);
#207=EDGE_CURVE('',#182,#176,#217,.T.);
#208=EDGE_CURVE('',#177,#179,#218,.T.);
#209=EDGE_CURVE('',#178,#181,#219,.T.);
#210=EDGE_CURVE('',#180,#183,#220,.T.);
#211=CIRCLE('',#251,3.175);
#212=CIRCLE('',#252,0.396874999999996);
#213=CIRCLE('',#253,0.396874999999996);
#214=CIRCLE('',#254,0.396874999999996);
#215=CIRCLE('',#255,0.396874999999996);
#216=CIRCLE('',#261,3.175);
#217=CIRCLE('',#262,0.396874999999996);
#218=CIRCLE('',#263,0.396874999999996);
#219=CIRCLE('',#264,0.396874999999996);
#220=CIRCLE('',#265,0.396874999999996);
#221=CURVE_STYLE('',#225,POSITIVE_LENGTH_MEASURE(0.18),#224);
#222=CURVE_STYLE('',#226,POSITIVE_LENGTH_MEASURE(0.18),#246);
#223=CURVE_STYLE('',#227,POSITIVE_LENGTH_MEASURE(0.18),#246);
#224=DRAUGHTING_PRE_DEFINED_COLOUR('blue');
#225=DRAUGHTING_PRE_DEFINED_CURVE_FONT('continuous');
#226=DRAUGHTING_PRE_DEFINED_CURVE_FONT('continuous');
#227=DRAUGHTING_PRE_DEFINED_CURVE_FONT('continuous');
#228=B_SPLINE_CURVE_WITH_KNOTS('CUTTING EDGE LINE',5,(#339,#340,#341,#342,#343,#344,
     #345,#346,#347,#348,#349,#350,#351,#352,#353,#354,#355,#356,#357,#358,#359,
     #360,#361,#362,#363,#364,#365,#366,#367,#368,#369,#370,#371,#372,#373,#374,
     #375,#376,#377,#378,#379,#380,#381,#382,#383,#384,#385,#386,#387,#388,#389,
     #390,#391,#392),.UNSPECIFIED.,.T.,.F.,(2,4,1,1,1,4,4,1,1,1,1,1,1,1,4,4,1,1,
     1,4,4,1,1,1,1,1,1,1,4,4,1,1),(-0.2402209078,0.0,0.00217313159999999,0.00434626319999998,
     0.00651939479999997,0.00869252639999996,0.2489134341,0.2502716413625,0.251629848625,
     0.2529880558875,0.25434626315,0.2557044704125,0.257062677675,0.2584208849375,
     0.2597790922,0.5,0.5021731316,0.5043462632,0.5065193948,0.5086925264,0.7489134341,
     0.7502716413625,0.751629848625,0.7529880558875,0.75434626315,0.7557044704125,
     0.757062677675,0.7584208849375,0.7597790922,1.0,1.0021731316,1.0043462632),
     .UNSPECIFIED.);
#229=PRESENTATION_LAYER_ASSIGNMENT('1','Layer 1',(#228,#249,#250,#31));
#232=STYLED_ITEM('',(#238),#228);
#233=STYLED_ITEM('',(#239),#249);
#234=STYLED_ITEM('',(#240),#250);
#235=STYLED_ITEM('',(#241),#31);
#236=PRESENTATION_STYLE_ASSIGNMENT((#242));
#237=PRESENTATION_STYLE_ASSIGNMENT((#243));
#238=PRESENTATION_STYLE_ASSIGNMENT((#221));
#239=PRESENTATION_STYLE_ASSIGNMENT((#222));
#240=PRESENTATION_STYLE_ASSIGNMENT((#223));
#241=PRESENTATION_STYLE_ASSIGNMENT((#26));
#242=POINT_STYLE('',#244,POSITIVE_LENGTH_MEASURE(3.0),#246);
#243=POINT_STYLE('',#245,POSITIVE_LENGTH_MEASURE(3.0),#246);
#244=PRE_DEFINED_POINT_MARKER_SYMBOL('plus');
#245=PRE_DEFINED_POINT_MARKER_SYMBOL('plus');
#246=COLOUR_RGB('Medium Maroon',0.6,0.4,0.4);
#247=COLOUR_RGB('IsoInsertColor',0.8,0.8,0.8);
#248=AXIS2_PLACEMENT_3D('',#336,#272,#273);
#249=AXIS2_PLACEMENT_3D('PCS',#393,#274,#275);
#250=AXIS2_PLACEMENT_3D('MCS',#394,#276,#277);
#251=AXIS2_PLACEMENT_3D('',#395,#278,#279);
#252=AXIS2_PLACEMENT_3D('',#400,#281,#282);
#253=AXIS2_PLACEMENT_3D('',#404,#284,#285);
#254=AXIS2_PLACEMENT_3D('',#408,#287,#288);
#255=AXIS2_PLACEMENT_3D('',#412,#290,#291);
#256=AXIS2_PLACEMENT_3D('',#413,#292,#293);
#257=AXIS2_PLACEMENT_3D('',#419,#297,#298);
#258=AXIS2_PLACEMENT_3D('',#425,#302,#303);
#259=AXIS2_PLACEMENT_3D('',#431,#307,#308);
#260=AXIS2_PLACEMENT_3D('',#437,#312,#313);
#261=AXIS2_PLACEMENT_3D('',#438,#314,#315);
#262=AXIS2_PLACEMENT_3D('',#440,#316,#317);
#263=AXIS2_PLACEMENT_3D('',#441,#318,#319);
#264=AXIS2_PLACEMENT_3D('',#442,#320,#321);
#265=AXIS2_PLACEMENT_3D('',#443,#322,#323);
#266=AXIS2_PLACEMENT_3D('',#444,#324,#325);
#267=AXIS2_PLACEMENT_3D('',#445,#326,#327);
#268=AXIS2_PLACEMENT_3D('',#446,#328,#329);
#269=AXIS2_PLACEMENT_3D('',#447,#330,#331);
#270=AXIS2_PLACEMENT_3D('',#448,#332,#333);
#271=AXIS2_PLACEMENT_3D('',#449,#334,#335);
#272=DIRECTION('',(0.0,0.0,1.0));
#273=DIRECTION('',(1.0,0.0,0.0));
#274=DIRECTION('',(0.0,0.0,1.0));
#275=DIRECTION('',(1.0,0.0,0.0));
#276=DIRECTION('',(0.0,0.0,1.0));
#277=DIRECTION('',(1.0,0.0,0.0));
#278=DIRECTION('',(0.0,0.0,1.0));
#279=DIRECTION('',(-0.766044443118978,-0.642787609686539,0.0));
#280=DIRECTION('',(1.0,7.21644966006352E-16,0.0));
#281=DIRECTION('',(0.0,0.0,-1.0));
#282=DIRECTION('',(-0.76604444311898,-0.642787609686539,0.0));
#283=DIRECTION('',(-0.173648177666928,-0.984807753012209,0.0));
#284=DIRECTION('',(0.0,0.0,-1.0));
#285=DIRECTION('',(-0.76604444311898,-0.642787609686539,0.0));
#286=DIRECTION('',(-1.0,1.0547118733939E-15,0.0));
#287=DIRECTION('',(0.0,0.0,-1.0));
#288=DIRECTION('',(-0.766044443118978,-0.642787609686539,0.0));
#289=DIRECTION('',(0.17364817766693,0.984807753012208,0.0));
#290=DIRECTION('',(0.0,0.0,-1.0));
#291=DIRECTION('',(-0.766044443118978,-0.642787609686539,0.0));
#292=DIRECTION('',(0.0,0.0,1.0));
#293=DIRECTION('',(-0.766044443118978,-0.642787609686539,0.0));
#294=DIRECTION('',(-1.0,-7.21644966006352E-16,-8.26474009869751E-17));
#295=DIRECTION('',(8.26474009869754E-17,-3.09175454316191E-16,-1.0));
#296=DIRECTION('',(-8.26474009869754E-17,3.09175454316191E-16,1.0));
#297=DIRECTION('',(-8.32667268468867E-16,1.0,-3.09175454316192E-16));
#298=DIRECTION('',(-1.0,-7.21644966006352E-16,0.0));
#299=DIRECTION('',(-8.26474009869754E-17,3.09175454316191E-16,1.0));
#300=DIRECTION('',(-0.17364817766693,-0.984807753012208,2.90126813881361E-16));
#301=DIRECTION('',(8.26474009869754E-17,-3.09175454316191E-16,-1.0));
#302=DIRECTION('',(-0.984807753012208,0.17364817766693,-1.35079555479634E-16));
#303=DIRECTION('',(-0.17364817766693,-0.984807753012208,0.0));
#304=DIRECTION('',(-8.26474009869754E-17,3.09175454316191E-16,1.0));
#305=DIRECTION('',(1.0,-1.0547118733939E-15,8.26474009869757E-17));
#306=DIRECTION('',(8.26474009869754E-17,-3.09175454316191E-16,-1.0));
#307=DIRECTION('',(-1.0547118733939E-15,-1.0,3.09175454316191E-16));
#308=DIRECTION('',(1.0,-1.0547118733939E-15,0.0));
#309=DIRECTION('',(-8.26474009869754E-17,3.09175454316191E-16,1.0));
#310=DIRECTION('',(0.173648177666928,0.984807753012209,-2.90126813881361E-16));
#311=DIRECTION('',(8.26474009869754E-17,-3.09175454316191E-16,-1.0));
#312=DIRECTION('',(0.984807753012209,-0.173648177666928,1.35079555479633E-16));
#313=DIRECTION('',(0.173648177666928,0.984807753012209,0.0));
#314=DIRECTION('',(0.0,0.0,1.0));
#315=DIRECTION('',(-0.766044443118978,-0.642787609686539,0.0));
#316=DIRECTION('',(-8.26474009869754E-17,3.09175454316191E-16,1.0));
#317=DIRECTION('',(-0.642787609686539,0.76604444311898,-2.89966864054927E-16));
#318=DIRECTION('',(-8.26474009869754E-17,3.09175454316191E-16,1.0));
#319=DIRECTION('',(-0.64278760968654,0.76604444311898,-2.89966864054927E-16));
#320=DIRECTION('',(-8.26474009869754E-17,3.09175454316191E-16,1.0));
#321=DIRECTION('',(-0.642787609686539,0.766044443118978,-2.89966864054927E-16));
#322=DIRECTION('',(-8.26474009869754E-17,3.09175454316191E-16,1.0));
#323=DIRECTION('',(-0.642787609686539,0.766044443118978,-2.89966864054927E-16));
#324=DIRECTION('',(-8.26474009869754E-17,3.09175454316191E-16,1.0));
#325=DIRECTION('',(-0.642787609686539,0.766044443118978,-2.89966864054927E-16));
#326=DIRECTION('',(-8.26474009869754E-17,3.09175454316191E-16,1.0));
#327=DIRECTION('',(-0.642787609686539,0.76604444311898,-2.89966864054927E-16));
#328=DIRECTION('',(-8.26474009869754E-17,3.09175454316191E-16,1.0));
#329=DIRECTION('',(-0.642787609686539,0.766044443118978,-2.89966864054927E-16));
#330=DIRECTION('',(-8.26474009869754E-17,3.09175454316191E-16,1.0));
#331=DIRECTION('',(-0.642787609686539,0.766044443118978,-2.89966864054927E-16));
#332=DIRECTION('',(-8.26474009869754E-17,3.09175454316191E-16,1.0));
#333=DIRECTION('',(-0.64278760968654,0.76604444311898,-2.89966864054927E-16));
#334=DIRECTION('',(0.0,0.0,1.0));
#335=DIRECTION('',(-0.766044443118978,-0.642787609686539,0.0));
#336=CARTESIAN_POINT('',(0.0,0.0,0.0));
#339=CARTESIAN_POINT('',(12.7240992794623,8.61533067109121E-14,0.0));
#340=CARTESIAN_POINT('',(15.8123904308221,8.34887714518118E-14,1.24812395968161E-16));
#341=CARTESIAN_POINT('',(15.863411697341,0.00409947974368752,1.27426651912689E-16));
#342=CARTESIAN_POINT('',(15.9480686755604,0.0237257408398497,1.26751270098227E-16));
#343=CARTESIAN_POINT('',(16.0500541815772,0.0832359823714945,1.11917081956893E-16));
#344=CARTESIAN_POINT('',(16.1263699260901,0.173338254397858,8.30026875201423E-17));
#345=CARTESIAN_POINT('',(16.1603985501747,0.253301038420945,5.45569787208794E-17));
#346=CARTESIAN_POINT('',(16.1732954995627,0.302835310070373,3.62595386229072E-17));
#347=CARTESIAN_POINT('',(16.7095716301013,3.3442083794885,1.60829095742937E-17));
#348=CARTESIAN_POINT('',(17.2414178856632,6.36045837948849,1.07219397161959E-17));
#349=CARTESIAN_POINT('',(17.7732641412251,9.37670837948847,1.0721939716196E-17));
#350=CARTESIAN_POINT('',(18.305110396787,12.3929583794885,1.60829095742941E-17));
#351=CARTESIAN_POINT('',(18.8395963120579,15.4241786336065,2.32560664369355E-17));
#352=CARTESIAN_POINT('',(18.8434421464787,15.454371903924,1.61681497685856E-17));
#353=CARTESIAN_POINT('',(18.8452340385765,15.5044760556916,4.62216428742579E-18));
#354=CARTESIAN_POINT('',(18.8366159251142,15.5721526817345,-1.04536686600633E-17));
#355=CARTESIAN_POINT('',(18.8057954018735,15.6584081645771,-2.87345312217626E-17));
#356=CARTESIAN_POINT('',(18.7542942144946,15.7367213583727,-4.42251652196668E-17));
#357=CARTESIAN_POINT('',(18.6861138614176,15.8010390703827,-5.57292029051453E-17));
#358=CARTESIAN_POINT('',(18.6065207208697,15.8463694680314,-6.23526037074798E-17));
#359=CARTESIAN_POINT('',(18.5413687745432,15.8666085757685,-6.39159160826144E-17));
#360=CARTESIAN_POINT('',(18.4917146586266,15.8735444011859,-6.31654552336394E-17));
#361=CARTESIAN_POINT('',(18.4613122697903,15.875,-6.20674804122814E-17));
#362=CARTESIAN_POINT('',(15.3833305572718,15.875,-3.68112025295212E-17));
#363=CARTESIAN_POINT('',(12.3205500391714,15.875,-2.45408016863475E-17));
#364=CARTESIAN_POINT('',(9.25776952107107,15.875,-2.45408016863475E-17));
#365=CARTESIAN_POINT('',(6.19498900297071,15.875,-3.68112025295212E-17));
#366=CARTESIAN_POINT('',(3.10669785161092,15.875,-6.81602279426706E-17));
#367=CARTESIAN_POINT('',(3.05567658509206,15.8709005202564,-8.00409854713504E-17));
#368=CARTESIAN_POINT('',(2.9710196068726,15.8512742591602,-9.43244440748858E-17));
#369=CARTESIAN_POINT('',(2.86903410085583,15.7917640176286,-9.63459160383568E-17));
#370=CARTESIAN_POINT('',(2.79271835634291,15.7016617456022,-7.85642531240215E-17));
#371=CARTESIAN_POINT('',(2.75868973225835,15.6216989615791,-5.37900786681812E-17));
#372=CARTESIAN_POINT('',(2.74579278287027,15.5721646899297,-3.62595386229073E-17));
#373=CARTESIAN_POINT('',(2.20951665233174,12.5307916205116,-1.60829095742938E-17));
#374=CARTESIAN_POINT('',(1.67767039676983,9.5145416205116,-1.07219397161958E-17));
#375=CARTESIAN_POINT('',(1.14582414120793,6.49829162051162,-1.07219397161958E-17));
#376=CARTESIAN_POINT('',(0.613977885646026,3.48204162051164,-1.60829095742938E-17));
#377=CARTESIAN_POINT('',(0.0794919703750523,0.450821366393627,-2.3256066436935E-17));
#378=CARTESIAN_POINT('',(0.0756461359543081,0.420628096076078,-1.61681497685851E-17));
#379=CARTESIAN_POINT('',(0.0738542438564451,0.370523944308492,-4.62216428742531E-18));
#380=CARTESIAN_POINT('',(0.0824723573187534,0.302847318265607,1.04536686600636E-17));
#381=CARTESIAN_POINT('',(0.113292880559474,0.216591835422967,2.87345312217629E-17));
#382=CARTESIAN_POINT('',(0.164794067938359,0.138278641627368,4.42251652196668E-17));
#383=CARTESIAN_POINT('',(0.232974421015381,0.0739609296174137,5.57292029051453E-17));
#384=CARTESIAN_POINT('',(0.312567561563291,0.0286305319686644,6.23526037074796E-17));
#385=CARTESIAN_POINT('',(0.377719507889793,0.0083914242316494,6.39159160826142E-17));
#386=CARTESIAN_POINT('',(0.427373623806416,0.00145559881419821,6.31654552336393E-17));
#387=CARTESIAN_POINT('',(0.457776012642702,1.00364161426114E-13,6.20674804122813E-17));
#388=CARTESIAN_POINT('',(3.53575772516121,9.59232693276135E-14,3.68112025295212E-17));
#389=CARTESIAN_POINT('',(6.59853824326157,9.2370555648813E-14,1.84056012647606E-17));
#390=CARTESIAN_POINT('',(9.66131876136193,8.88178419700125E-14,6.13520042158686E-18));
#391=CARTESIAN_POINT('',(12.7240992794623,8.61533067109121E-14,0.0));
#392=CARTESIAN_POINT('',(15.8123904308221,8.34887714518118E-14,1.24812395968161E-16));
#393=CARTESIAN_POINT('',(0.0,0.0,0.0));
#394=CARTESIAN_POINT('',(9.45954414121654,7.9375,0.0));
#395=CARTESIAN_POINT('',(9.45954414121654,7.9375,-6.35));
#396=CARTESIAN_POINT('',(7.02735303431379,5.89664933924524,-6.35));
#397=CARTESIAN_POINT('',(9.4595441412165,15.875,-6.35));
#398=CARTESIAN_POINT('',(3.13220848487036,15.875,-6.35));
#399=CARTESIAN_POINT('',(18.4461110753721,15.875,-6.35));
#400=CARTESIAN_POINT('',(18.4461110753721,15.478125,-6.35));
#401=CARTESIAN_POINT('',(18.8369566523489,15.4092083794884,-6.35));
#402=CARTESIAN_POINT('',(17.2764556807509,6.5591675897688,-6.35));
#403=CARTESIAN_POINT('',(16.1777253745394,0.327958379488515,-6.35));
#404=CARTESIAN_POINT('',(15.7868797975627,0.396875000000076,-6.35));
#405=CARTESIAN_POINT('',(15.7868797975627,7.97972798949331E-14,-6.35));
#406=CARTESIAN_POINT('',(9.4595441412165,8.67361737988404E-14,-6.35));
#407=CARTESIAN_POINT('',(0.472977207060842,9.71445146547012E-14,-6.35));
#408=CARTESIAN_POINT('',(0.472977207060844,0.396875000000094,-6.35));
#409=CARTESIAN_POINT('',(0.0821316300841247,0.465791620511657,-6.35));
#410=CARTESIAN_POINT('',(1.64263260168214,9.31583241023129,-6.35));
#411=CARTESIAN_POINT('',(2.74136290789364,15.5470416205116,-6.35));
#412=CARTESIAN_POINT('',(3.13220848487036,15.478125,-6.35));
#413=CARTESIAN_POINT('',(9.41332282867938,7.40918798019793,-6.35));
#414=CARTESIAN_POINT('',(9.45954414121654,15.875,-5.38749756651153E-15));
#415=CARTESIAN_POINT('',(18.4461110753721,15.875,-4.64478116560808E-15));
#416=CARTESIAN_POINT('',(3.13220848487036,15.875,-5.91043541368076E-15));
#417=CARTESIAN_POINT('',(18.4461110753721,15.875,-4.33680868994202E-15));
#418=CARTESIAN_POINT('',(3.13220848487036,15.875,-5.20417042793042E-15));
#419=CARTESIAN_POINT('',(9.4595441412165,15.875,-5.38749756651153E-15));
#420=CARTESIAN_POINT('',(0.0821316300841229,0.465791620511659,-8.67361737988404E-16));
#421=CARTESIAN_POINT('',(0.0821316300841229,0.465791620511659,-1.3983673371582E-15));
#422=CARTESIAN_POINT('',(1.64263260168214,9.31583241023126,-4.00561136949636E-15));
#423=CARTESIAN_POINT('',(2.74136290789364,15.5470416205116,-5.84134110383E-15));
#424=CARTESIAN_POINT('',(2.74136290789364,15.5470416205116,-5.20417042793042E-15));
#425=CARTESIAN_POINT('',(1.64263260168214,9.31583241023129,-4.00561136949636E-15));
#426=CARTESIAN_POINT('',(15.7868797975627,8.15320033709099E-14,6.74075480535533E-31));
#427=CARTESIAN_POINT('',(15.7868797975627,8.15320033709099E-14,4.36006179272065E-17));
#428=CARTESIAN_POINT('',(9.45954414121653,8.84708972748172E-14,-4.7933722924202E-16));
#429=CARTESIAN_POINT('',(0.47297720706084,9.8879238130678E-14,-1.22205363014548E-15));
#430=CARTESIAN_POINT('',(0.47297720706084,9.8879238130678E-14,-8.67361737988403E-16));
#431=CARTESIAN_POINT('',(9.4595441412165,8.84708972748172E-14,-4.79337229242023E-16));
#432=CARTESIAN_POINT('',(18.8369566523489,15.4092083794884,-4.33680868994202E-15));
#433=CARTESIAN_POINT('',(18.8369566523489,15.4092083794884,-4.46846745859536E-15));
#434=CARTESIAN_POINT('',(17.2764556807508,6.55916758976878,-1.86122342625718E-15));
#435=CARTESIAN_POINT('',(16.1777253745394,0.327958379488517,-2.54936919235517E-17));
#436=CARTESIAN_POINT('',(16.1777253745394,0.327958379488517,-3.85185988877447E-31));
#437=CARTESIAN_POINT('',(17.2764556807509,6.5591675897688,-1.86122342625719E-15));
#438=CARTESIAN_POINT('',(9.45954414121654,7.9375,-6.93889390390723E-15));
#439=CARTESIAN_POINT('',(7.02735303431379,5.89664933924524,-6.93889390390723E-15));
#440=CARTESIAN_POINT('',(18.4461110753721,15.478125,-4.52207715717634E-15));
#441=CARTESIAN_POINT('',(3.13220848487036,15.478125,-5.78773140524902E-15));
#442=CARTESIAN_POINT('',(0.472977207060842,0.396875000000096,-1.34475763857722E-15));
#443=CARTESIAN_POINT('',(15.7868797975627,0.396875000000078,-7.91033905045302E-17));
#444=CARTESIAN_POINT('',(9.45954414121654,7.9375,-2.93341739787676E-15));
#445=CARTESIAN_POINT('',(18.4461110753721,15.478125,-4.33680868994202E-15));
#446=CARTESIAN_POINT('',(15.7868797975627,0.396875000000078,0.0));
#447=CARTESIAN_POINT('',(0.472977207060842,0.396875000000096,-8.67361737988404E-16));
#448=CARTESIAN_POINT('',(3.13220848487036,15.478125,-5.20417042793042E-15));
#449=CARTESIAN_POINT('',(9.45954414121654,7.9375,-33.3676978394524));
#450=MECHANICAL_DESIGN_GEOMETRIC_PRESENTATION_REPRESENTATION('',(#232,#233,#234,
     #235),#451);
#451=(GEOMETRIC_REPRESENTATION_CONTEXT(3)GLOBAL_UNCERTAINTY_ASSIGNED_CONTEXT((#452))
     GLOBAL_UNIT_ASSIGNED_CONTEXT((#458,#454,#453))REPRESENTATION_CONTEXT('CNMG160604',
     'TOP_LEVEL_ASSEMBLY_PART'));
#452=UNCERTAINTY_MEASURE_WITH_UNIT(LENGTH_MEASURE(2.0E-5),#458,'DISTANCE_ACCURACY_VALUE',
     'Maximum Tolerance applied to model');
#453=(NAMED_UNIT(*)SI_UNIT($,.STERADIAN.)SOLID_ANGLE_UNIT());
#454=(CONVERSION_BASED_UNIT('DEGREE',#456)NAMED_UNIT(#455)PLANE_ANGLE_UNIT());
#455=DIMENSIONAL_EXPONENTS(0.0,0.0,0.0,0.0,0.0,0.0,0.0);
#456=PLANE_ANGLE_MEASURE_WITH_UNIT(PLANE_ANGLE_MEASURE(0.0174532925),#457);
#457=(NAMED_UNIT(*)PLANE_ANGLE_UNIT()SI_UNIT($,.RADIAN.));
#458=(LENGTH_UNIT()NAMED_UNIT(*)SI_UNIT(.MILLI.,.METRE.));
#459=CONSTRUCTIVE_GEOMETRY_REPRESENTATION('supplemental geometry',(#249,#250),#451);
#460=CONSTRUCTIVE_GEOMETRY_REPRESENTATION_RELATIONSHIP('supplemental geometry','contains PCS and MCS coordinate systems',
     #24,#459);
ENDSEC;
END-ISO-10303-21;
