ISO-10303-21;
HEADER;
FILE_DESCRIPTION(
/* description */ (''),
/* implementation_level */ '2;1');
FILE_NAME(
/* name */ 'CNMG090304.stp',
/* time_stamp */ '2017-03-21T10:53:52',
/* author */ ('Sandvik Coromant R&D'),
/* organization */ ('Sandvik Machining Solutions'),
/* preprocessor_version */ 'ST-DEVELOPER v15',
/* originating_system */ 'SIEMENS PLM Software NX v8.5.3.3(64 bits)',
/* authorization */ '');
FILE_SCHEMA(('AUTOMOTIVE_DESIGN'));
ENDSEC;
DATA;
#10=GEOMETRICALLY_BOUNDED_WIREFRAME_SHAPE_REPRESENTATION('IsoTurningInsert-None',
     (#25),#451);
#11=SHAPE_REPRESENTATION_RELATIONSHIP('None','relationship between IsoTurningInsert-None and IsoTurningInsert-None',
     #24,#13);
#12=SHAPE_REPRESENTATION_RELATIONSHIP('None','relationship between IsoTurningInsert-None and IsoTurningInsert-None',
     #24,#10);
#13=ADVANCED_BREP_SHAPE_REPRESENTATION('IsoTurningInsert-None',(#31),#451);
#14=SHAPE_DEFINITION_REPRESENTATION(#15,#24);
#15=PRODUCT_DEFINITION_SHAPE('','',#16);
#16=PRODUCT_DEFINITION(' ','',#18,#17);
#17=PRODUCT_DEFINITION_CONTEXT('part definition',#23,'design');
#18=PRODUCT_DEFINITION_FORMATION_WITH_SPECIFIED_SOURCE(' ',' ',#20,.NOT_KNOWN.);
#19=PRODUCT_RELATED_PRODUCT_CATEGORY('part','',(#20));
#20=PRODUCT('IsoTurningInsert','IsoTurningInsert',' ',(#21));
#21=PRODUCT_CONTEXT(' ',#23,'mechanical');
#22=APPLICATION_PROTOCOL_DEFINITION('international standard','automotive_design',
     2010,#23);
#23=APPLICATION_CONTEXT('core data for automotive mechanical design processes');
#24=SHAPE_REPRESENTATION('IsoTurningInsert-None',(#248),#451);
#25=GEOMETRIC_CURVE_SET('geometric curve set',(#228));
#26=SURFACE_STYLE_USAGE(.BOTH.,#27);
#27=SURFACE_SIDE_STYLE('',(#28));
#28=SURFACE_STYLE_FILL_AREA(#29);
#29=FILL_AREA_STYLE('',(#30));
#30=FILL_AREA_STYLE_COLOUR('',#247);
#31=MANIFOLD_SOLID_BREP('CUT',#32);
#32=CLOSED_SHELL('',(#46,#47,#48,#49,#50,#51,#52,#53,#54,#55,#56));
#33=CYLINDRICAL_SURFACE('',#267,0.396875000000001);
#34=CYLINDRICAL_SURFACE('',#268,0.396875000000001);
#35=CYLINDRICAL_SURFACE('',#269,0.396875000000001);
#36=CYLINDRICAL_SURFACE('',#270,0.396875000000001);
#37=CYLINDRICAL_SURFACE('',#271,1.905);
#38=FACE_OUTER_BOUND('',#103,.T.);
#39=FACE_OUTER_BOUND('',#104,.T.);
#40=FACE_OUTER_BOUND('',#105,.T.);
#41=FACE_OUTER_BOUND('',#106,.T.);
#42=FACE_OUTER_BOUND('',#109,.T.);
#43=FACE_OUTER_BOUND('',#110,.T.);
#44=FACE_OUTER_BOUND('',#111,.T.);
#45=FACE_OUTER_BOUND('',#112,.T.);
#46=ADVANCED_FACE('',(#95,#96),#57,.F.);
#47=ADVANCED_FACE('',(#38),#58,.T.);
#48=ADVANCED_FACE('',(#39),#59,.T.);
#49=ADVANCED_FACE('',(#40),#60,.T.);
#50=ADVANCED_FACE('',(#41),#61,.T.);
#51=ADVANCED_FACE('',(#97,#98),#62,.T.);
#52=ADVANCED_FACE('',(#42),#33,.T.);
#53=ADVANCED_FACE('',(#43),#34,.T.);
#54=ADVANCED_FACE('',(#44),#35,.T.);
#55=ADVANCED_FACE('',(#45),#36,.T.);
#56=ADVANCED_FACE('',(#99,#100),#37,.F.);
#57=PLANE('',#256);
#58=PLANE('',#257);
#59=PLANE('',#258);
#60=PLANE('',#259);
#61=PLANE('',#260);
#62=PLANE('',#266);
#63=LINE('',#397,#79);
#64=LINE('',#402,#80);
#65=LINE('',#406,#81);
#66=LINE('',#410,#82);
#67=LINE('',#414,#83);
#68=LINE('',#417,#84);
#69=LINE('',#418,#85);
#70=LINE('',#420,#86);
#71=LINE('',#422,#87);
#72=LINE('',#424,#88);
#73=LINE('',#426,#89);
#74=LINE('',#428,#90);
#75=LINE('',#430,#91);
#76=LINE('',#432,#92);
#77=LINE('',#434,#93);
#78=LINE('',#436,#94);
#79=VECTOR('',#280,1.0);
#80=VECTOR('',#283,1.0);
#81=VECTOR('',#286,1.0);
#82=VECTOR('',#289,1.0);
#83=VECTOR('',#294,1.0);
#84=VECTOR('',#295,1.0);
#85=VECTOR('',#296,1.0);
#86=VECTOR('',#299,1.0);
#87=VECTOR('',#300,1.0);
#88=VECTOR('',#301,1.0);
#89=VECTOR('',#304,1.0);
#90=VECTOR('',#305,1.0);
#91=VECTOR('',#306,1.0);
#92=VECTOR('',#309,1.0);
#93=VECTOR('',#310,1.0);
#94=VECTOR('',#311,1.0);
#95=FACE_BOUND('',#101,.T.);
#96=FACE_BOUND('',#102,.T.);
#97=FACE_BOUND('',#107,.T.);
#98=FACE_BOUND('',#108,.T.);
#99=FACE_BOUND('',#113,.T.);
#100=FACE_BOUND('',#114,.T.);
#101=EDGE_LOOP('',(#115));
#102=EDGE_LOOP('',(#116,#117,#118,#119,#120,#121,#122,#123));
#103=EDGE_LOOP('',(#124,#125,#126,#127));
#104=EDGE_LOOP('',(#128,#129,#130,#131));
#105=EDGE_LOOP('',(#132,#133,#134,#135));
#106=EDGE_LOOP('',(#136,#137,#138,#139));
#107=EDGE_LOOP('',(#140));
#108=EDGE_LOOP('',(#141,#142,#143,#144,#145,#146,#147,#148));
#109=EDGE_LOOP('',(#149,#150,#151,#152));
#110=EDGE_LOOP('',(#153,#154,#155,#156));
#111=EDGE_LOOP('',(#157,#158,#159,#160));
#112=EDGE_LOOP('',(#161,#162,#163,#164));
#113=EDGE_LOOP('',(#165));
#114=EDGE_LOOP('',(#166));
#115=ORIENTED_EDGE('',*,*,#185,.T.);
#116=ORIENTED_EDGE('',*,*,#186,.T.);
#117=ORIENTED_EDGE('',*,*,#187,.T.);
#118=ORIENTED_EDGE('',*,*,#188,.T.);
#119=ORIENTED_EDGE('',*,*,#189,.T.);
#120=ORIENTED_EDGE('',*,*,#190,.T.);
#121=ORIENTED_EDGE('',*,*,#191,.T.);
#122=ORIENTED_EDGE('',*,*,#192,.T.);
#123=ORIENTED_EDGE('',*,*,#193,.T.);
#124=ORIENTED_EDGE('',*,*,#194,.F.);
#125=ORIENTED_EDGE('',*,*,#195,.T.);
#126=ORIENTED_EDGE('',*,*,#186,.F.);
#127=ORIENTED_EDGE('',*,*,#196,.T.);
#128=ORIENTED_EDGE('',*,*,#192,.F.);
#129=ORIENTED_EDGE('',*,*,#197,.T.);
#130=ORIENTED_EDGE('',*,*,#198,.F.);
#131=ORIENTED_EDGE('',*,*,#199,.T.);
#132=ORIENTED_EDGE('',*,*,#190,.F.);
#133=ORIENTED_EDGE('',*,*,#200,.T.);
#134=ORIENTED_EDGE('',*,*,#201,.F.);
#135=ORIENTED_EDGE('',*,*,#202,.T.);
#136=ORIENTED_EDGE('',*,*,#188,.F.);
#137=ORIENTED_EDGE('',*,*,#203,.T.);
#138=ORIENTED_EDGE('',*,*,#204,.F.);
#139=ORIENTED_EDGE('',*,*,#205,.T.);
#140=ORIENTED_EDGE('',*,*,#206,.F.);
#141=ORIENTED_EDGE('',*,*,#204,.T.);
#142=ORIENTED_EDGE('',*,*,#207,.T.);
#143=ORIENTED_EDGE('',*,*,#194,.T.);
#144=ORIENTED_EDGE('',*,*,#208,.T.);
#145=ORIENTED_EDGE('',*,*,#198,.T.);
#146=ORIENTED_EDGE('',*,*,#209,.T.);
#147=ORIENTED_EDGE('',*,*,#201,.T.);
#148=ORIENTED_EDGE('',*,*,#210,.T.);
#149=ORIENTED_EDGE('',*,*,#187,.F.);
#150=ORIENTED_EDGE('',*,*,#195,.F.);
#151=ORIENTED_EDGE('',*,*,#207,.F.);
#152=ORIENTED_EDGE('',*,*,#203,.F.);
#153=ORIENTED_EDGE('',*,*,#189,.F.);
#154=ORIENTED_EDGE('',*,*,#205,.F.);
#155=ORIENTED_EDGE('',*,*,#210,.F.);
#156=ORIENTED_EDGE('',*,*,#200,.F.);
#157=ORIENTED_EDGE('',*,*,#191,.F.);
#158=ORIENTED_EDGE('',*,*,#202,.F.);
#159=ORIENTED_EDGE('',*,*,#209,.F.);
#160=ORIENTED_EDGE('',*,*,#197,.F.);
#161=ORIENTED_EDGE('',*,*,#193,.F.);
#162=ORIENTED_EDGE('',*,*,#199,.F.);
#163=ORIENTED_EDGE('',*,*,#208,.F.);
#164=ORIENTED_EDGE('',*,*,#196,.F.);
#165=ORIENTED_EDGE('',*,*,#185,.F.);
#166=ORIENTED_EDGE('',*,*,#206,.T.);
#167=VERTEX_POINT('',#396);
#168=VERTEX_POINT('',#398);
#169=VERTEX_POINT('',#399);
#170=VERTEX_POINT('',#401);
#171=VERTEX_POINT('',#403);
#172=VERTEX_POINT('',#405);
#173=VERTEX_POINT('',#407);
#174=VERTEX_POINT('',#409);
#175=VERTEX_POINT('',#411);
#176=VERTEX_POINT('',#415);
#177=VERTEX_POINT('',#416);
#178=VERTEX_POINT('',#421);
#179=VERTEX_POINT('',#423);
#180=VERTEX_POINT('',#427);
#181=VERTEX_POINT('',#429);
#182=VERTEX_POINT('',#433);
#183=VERTEX_POINT('',#435);
#184=VERTEX_POINT('',#439);
#185=EDGE_CURVE('',#167,#167,#211,.T.);
#186=EDGE_CURVE('',#168,#169,#63,.T.);
#187=EDGE_CURVE('',#169,#170,#212,.T.);
#188=EDGE_CURVE('',#170,#171,#64,.T.);
#189=EDGE_CURVE('',#171,#172,#213,.T.);
#190=EDGE_CURVE('',#172,#173,#65,.T.);
#191=EDGE_CURVE('',#173,#174,#214,.T.);
#192=EDGE_CURVE('',#174,#175,#66,.T.);
#193=EDGE_CURVE('',#175,#168,#215,.T.);
#194=EDGE_CURVE('',#176,#177,#67,.T.);
#195=EDGE_CURVE('',#176,#169,#68,.T.);
#196=EDGE_CURVE('',#168,#177,#69,.T.);
#197=EDGE_CURVE('',#174,#178,#70,.T.);
#198=EDGE_CURVE('',#179,#178,#71,.T.);
#199=EDGE_CURVE('',#179,#175,#72,.T.);
#200=EDGE_CURVE('',#172,#180,#73,.T.);
#201=EDGE_CURVE('',#181,#180,#74,.T.);
#202=EDGE_CURVE('',#181,#173,#75,.T.);
#203=EDGE_CURVE('',#170,#182,#76,.T.);
#204=EDGE_CURVE('',#183,#182,#77,.T.);
#205=EDGE_CURVE('',#183,#171,#78,.T.);
#206=EDGE_CURVE('',#184,#184,#216,.T.);
#207=EDGE_CURVE('',#182,#176,#217,.T.);
#208=EDGE_CURVE('',#177,#179,#218,.T.);
#209=EDGE_CURVE('',#178,#181,#219,.T.);
#210=EDGE_CURVE('',#180,#183,#220,.T.);
#211=CIRCLE('',#251,1.905);
#212=CIRCLE('',#252,0.396875000000001);
#213=CIRCLE('',#253,0.396875000000001);
#214=CIRCLE('',#254,0.396875000000001);
#215=CIRCLE('',#255,0.396875000000001);
#216=CIRCLE('',#261,1.905);
#217=CIRCLE('',#262,0.396875000000001);
#218=CIRCLE('',#263,0.396875000000001);
#219=CIRCLE('',#264,0.396875000000001);
#220=CIRCLE('',#265,0.396875000000001);
#221=CURVE_STYLE('',#225,POSITIVE_LENGTH_MEASURE(0.18),#224);
#222=CURVE_STYLE('',#226,POSITIVE_LENGTH_MEASURE(0.18),#246);
#223=CURVE_STYLE('',#227,POSITIVE_LENGTH_MEASURE(0.18),#246);
#224=DRAUGHTING_PRE_DEFINED_COLOUR('blue');
#225=DRAUGHTING_PRE_DEFINED_CURVE_FONT('continuous');
#226=DRAUGHTING_PRE_DEFINED_CURVE_FONT('continuous');
#227=DRAUGHTING_PRE_DEFINED_CURVE_FONT('continuous');
#228=B_SPLINE_CURVE_WITH_KNOTS('CUTTING EDGE LINE',5,(#339,#340,#341,#342,#343,#344,
     #345,#346,#347,#348,#349,#350,#351,#352,#353,#354,#355,#356,#357,#358,#359,
     #360,#361,#362,#363,#364,#365,#366,#367,#368,#369,#370,#371,#372,#373,#374,
     #375,#376,#377,#378,#379,#380,#381,#382,#383,#384,#385,#386,#387,#388,#389,
     #390,#391,#392),.UNSPECIFIED.,.T.,.F.,(2,4,1,1,1,4,4,1,1,1,1,1,1,1,4,4,1,1,
     1,4,4,1,1,1,1,1,1,1,4,4,1,1),(-0.233576073,0.0,0.00364976154999996,0.00729952310000004,
     0.01094928465,0.0145990462,0.2481751192,0.250456220175,0.25273732115,0.255018422125,
     0.2572995231,0.259580624075,0.26186172505,0.264142826025,0.266423927,0.5,0.50364976155,
     0.5072995231,0.51094928465,0.5145990462,0.7481751192,0.750456220175,0.75273732115,
     0.755018422125,0.7572995231,0.759580624075,0.76186172505,0.764142826025,0.766423927,
     1.0,1.00364976155,1.0072995231),.UNSPECIFIED.);
#229=PRESENTATION_LAYER_ASSIGNMENT('1','Layer 1',(#228,#249,#250,#31));
#232=STYLED_ITEM('',(#238),#228);
#233=STYLED_ITEM('',(#239),#249);
#234=STYLED_ITEM('',(#240),#250);
#235=STYLED_ITEM('',(#241),#31);
#236=PRESENTATION_STYLE_ASSIGNMENT((#242));
#237=PRESENTATION_STYLE_ASSIGNMENT((#243));
#238=PRESENTATION_STYLE_ASSIGNMENT((#221));
#239=PRESENTATION_STYLE_ASSIGNMENT((#222));
#240=PRESENTATION_STYLE_ASSIGNMENT((#223));
#241=PRESENTATION_STYLE_ASSIGNMENT((#26));
#242=POINT_STYLE('',#244,POSITIVE_LENGTH_MEASURE(3.0),#246);
#243=POINT_STYLE('',#245,POSITIVE_LENGTH_MEASURE(3.0),#246);
#244=PRE_DEFINED_POINT_MARKER_SYMBOL('plus');
#245=PRE_DEFINED_POINT_MARKER_SYMBOL('plus');
#246=COLOUR_RGB('Medium Maroon',0.6,0.4,0.4);
#247=COLOUR_RGB('IsoInsertColor',0.8,0.8,0.8);
#248=AXIS2_PLACEMENT_3D('',#336,#272,#273);
#249=AXIS2_PLACEMENT_3D('PCS',#393,#274,#275);
#250=AXIS2_PLACEMENT_3D('MCS',#394,#276,#277);
#251=AXIS2_PLACEMENT_3D('',#395,#278,#279);
#252=AXIS2_PLACEMENT_3D('',#400,#281,#282);
#253=AXIS2_PLACEMENT_3D('',#404,#284,#285);
#254=AXIS2_PLACEMENT_3D('',#408,#287,#288);
#255=AXIS2_PLACEMENT_3D('',#412,#290,#291);
#256=AXIS2_PLACEMENT_3D('',#413,#292,#293);
#257=AXIS2_PLACEMENT_3D('',#419,#297,#298);
#258=AXIS2_PLACEMENT_3D('',#425,#302,#303);
#259=AXIS2_PLACEMENT_3D('',#431,#307,#308);
#260=AXIS2_PLACEMENT_3D('',#437,#312,#313);
#261=AXIS2_PLACEMENT_3D('',#438,#314,#315);
#262=AXIS2_PLACEMENT_3D('',#440,#316,#317);
#263=AXIS2_PLACEMENT_3D('',#441,#318,#319);
#264=AXIS2_PLACEMENT_3D('',#442,#320,#321);
#265=AXIS2_PLACEMENT_3D('',#443,#322,#323);
#266=AXIS2_PLACEMENT_3D('',#444,#324,#325);
#267=AXIS2_PLACEMENT_3D('',#445,#326,#327);
#268=AXIS2_PLACEMENT_3D('',#446,#328,#329);
#269=AXIS2_PLACEMENT_3D('',#447,#330,#331);
#270=AXIS2_PLACEMENT_3D('',#448,#332,#333);
#271=AXIS2_PLACEMENT_3D('',#449,#334,#335);
#272=DIRECTION('',(0.0,0.0,1.0));
#273=DIRECTION('',(1.0,0.0,0.0));
#274=DIRECTION('',(0.0,0.0,1.0));
#275=DIRECTION('',(1.0,0.0,0.0));
#276=DIRECTION('',(0.0,0.0,1.0));
#277=DIRECTION('',(1.0,0.0,0.0));
#278=DIRECTION('',(0.0,0.0,1.0));
#279=DIRECTION('',(-0.766044443118978,-0.642787609686539,0.0));
#280=DIRECTION('',(1.0,9.43689570931383E-16,0.0));
#281=DIRECTION('',(0.0,0.0,-1.0));
#282=DIRECTION('',(-0.766044443118979,-0.642787609686539,0.0));
#283=DIRECTION('',(-0.173648177666929,-0.984807753012208,0.0));
#284=DIRECTION('',(0.0,0.0,-1.0));
#285=DIRECTION('',(-0.766044443118979,-0.642787609686539,0.0));
#286=DIRECTION('',(-1.0,1.49880108324396E-15,0.0));
#287=DIRECTION('',(0.0,0.0,-1.0));
#288=DIRECTION('',(-0.766044443118978,-0.642787609686539,0.0));
#289=DIRECTION('',(0.17364817766693,0.984807753012208,0.0));
#290=DIRECTION('',(0.0,0.0,-1.0));
#291=DIRECTION('',(-0.766044443118978,-0.642787609686539,0.0));
#292=DIRECTION('',(0.0,0.0,1.0));
#293=DIRECTION('',(-0.766044443118978,-0.642787609686539,0.0));
#294=DIRECTION('',(-1.0,-9.43689570931383E-16,-1.37745668311625E-16));
#295=DIRECTION('',(1.37745668311626E-16,-5.15292423860319E-16,-1.0));
#296=DIRECTION('',(-1.37745668311626E-16,5.15292423860319E-16,1.0));
#297=DIRECTION('',(-9.43689570931383E-16,1.0,-5.15292423860319E-16));
#298=DIRECTION('',(-1.0,-9.43689570931383E-16,0.0));
#299=DIRECTION('',(-1.37745668311626E-16,5.15292423860319E-16,1.0));
#300=DIRECTION('',(-0.17364817766693,-0.984807753012208,4.83544689802268E-16));
#301=DIRECTION('',(1.37745668311626E-16,-5.15292423860319E-16,-1.0));
#302=DIRECTION('',(-0.984807753012208,0.17364817766693,-2.25132592466057E-16));
#303=DIRECTION('',(-0.17364817766693,-0.984807753012208,0.0));
#304=DIRECTION('',(-1.37745668311626E-16,5.15292423860319E-16,1.0));
#305=DIRECTION('',(1.0,-1.49880108324396E-15,1.37745668311626E-16));
#306=DIRECTION('',(1.37745668311626E-16,-5.15292423860319E-16,-1.0));
#307=DIRECTION('',(-1.49880108324396E-15,-1.0,5.15292423860319E-16));
#308=DIRECTION('',(1.0,-1.49880108324396E-15,0.0));
#309=DIRECTION('',(-1.37745668311626E-16,5.15292423860319E-16,1.0));
#310=DIRECTION('',(0.173648177666929,0.984807753012208,-4.83544689802268E-16));
#311=DIRECTION('',(1.37745668311626E-16,-5.15292423860319E-16,-1.0));
#312=DIRECTION('',(0.984807753012208,-0.173648177666929,2.25132592466056E-16));
#313=DIRECTION('',(0.173648177666929,0.984807753012208,0.0));
#314=DIRECTION('',(0.0,0.0,1.0));
#315=DIRECTION('',(-0.766044443118978,-0.642787609686539,0.0));
#316=DIRECTION('',(-1.37745668311626E-16,5.15292423860319E-16,1.0));
#317=DIRECTION('',(-0.642787609686539,0.766044443118979,-4.83278106758211E-16));
#318=DIRECTION('',(-1.37745668311626E-16,5.15292423860319E-16,1.0));
#319=DIRECTION('',(-0.642787609686539,0.766044443118979,-4.83278106758211E-16));
#320=DIRECTION('',(-1.37745668311626E-16,5.15292423860319E-16,1.0));
#321=DIRECTION('',(-0.642787609686539,0.766044443118978,-4.83278106758211E-16));
#322=DIRECTION('',(-1.37745668311626E-16,5.15292423860319E-16,1.0));
#323=DIRECTION('',(-0.642787609686539,0.766044443118978,-4.83278106758211E-16));
#324=DIRECTION('',(-1.37745668311626E-16,5.15292423860319E-16,1.0));
#325=DIRECTION('',(-0.642787609686539,0.766044443118978,-4.83278106758211E-16));
#326=DIRECTION('',(-1.37745668311626E-16,5.15292423860319E-16,1.0));
#327=DIRECTION('',(-0.642787609686539,0.766044443118979,-4.83278106758211E-16));
#328=DIRECTION('',(-1.37745668311626E-16,5.15292423860319E-16,1.0));
#329=DIRECTION('',(-0.642787609686539,0.766044443118978,-4.83278106758211E-16));
#330=DIRECTION('',(-1.37745668311626E-16,5.15292423860319E-16,1.0));
#331=DIRECTION('',(-0.642787609686539,0.766044443118978,-4.83278106758211E-16));
#332=DIRECTION('',(-1.37745668311626E-16,5.15292423860319E-16,1.0));
#333=DIRECTION('',(-0.642787609686539,0.766044443118979,-4.83278106758211E-16));
#334=DIRECTION('',(0.0,0.0,1.0));
#335=DIRECTION('',(-0.766044443118978,-0.642787609686539,0.0));
#336=CARTESIAN_POINT('',(0.0,0.0,0.0));
#339=CARTESIAN_POINT('',(7.56573209108272,3.90798504668055E-14,0.0));
#340=CARTESIAN_POINT('',(9.36443144534763,3.73034936274053E-14,2.08020659946938E-16));
#341=CARTESIAN_POINT('',(9.4154527118665,0.00409947974364133,2.12377753187818E-16));
#342=CARTESIAN_POINT('',(9.5001096900859,0.02372574083976,2.11252116830401E-16));
#343=CARTESIAN_POINT('',(9.60209519610289,0.0832359823716002,1.86528469928088E-16));
#344=CARTESIAN_POINT('',(9.6784109406156,0.173338254397773,1.38337812533592E-16));
#345=CARTESIAN_POINT('',(9.7124395647002,0.253301038420906,9.09282978681337E-17));
#346=CARTESIAN_POINT('',(9.72533651408828,0.302835310070332,6.04325643715128E-17));
#347=CARTESIAN_POINT('',(10.0376773791271,2.07420837948847,2.68048492904899E-17));
#348=CARTESIAN_POINT('',(10.3455883691892,3.82045837948846,1.78698995269933E-17));
#349=CARTESIAN_POINT('',(10.6534993592514,5.56670837948845,1.78698995269933E-17));
#350=CARTESIAN_POINT('',(10.9614103493135,7.31295837948844,2.68048492904899E-17));
#351=CARTESIAN_POINT('',(11.2719609990847,9.07417863360646,3.87601107282255E-17));
#352=CARTESIAN_POINT('',(11.2758068335055,9.10437190392401,2.69469162809755E-17));
#353=CARTESIAN_POINT('',(11.2775987256034,9.1544760556916,7.70360714570897E-18));
#354=CARTESIAN_POINT('',(11.268980612141,9.22215268173448,-1.74227811001062E-17));
#355=CARTESIAN_POINT('',(11.2381600889003,9.30840816457713,-4.78908853696052E-17));
#356=CARTESIAN_POINT('',(11.1866589015214,9.38672135837272,-7.37086086994454E-17));
#357=CARTESIAN_POINT('',(11.1184785484444,9.45103907038268,-9.28820048419098E-17));
#358=CARTESIAN_POINT('',(11.0388854078965,9.49636946803142,-1.03921006179134E-16));
#359=CARTESIAN_POINT('',(10.97373346157,9.51660857576845,-1.06526526804358E-16));
#360=CARTESIAN_POINT('',(10.9240793456534,9.52354440118589,-1.05275758722733E-16));
#361=CARTESIAN_POINT('',(10.8936769568171,9.52499999999999,-1.03445800687137E-16));
#362=CARTESIAN_POINT('',(9.10528704139349,9.52499999999999,-6.13520042158693E-17));
#363=CARTESIAN_POINT('',(7.33209832038802,9.52499999999999,-4.09013361439129E-17));
#364=CARTESIAN_POINT('',(5.55890959938255,9.52499999999999,-4.0901336143913E-17));
#365=CARTESIAN_POINT('',(3.78572087837708,9.52499999999999,-6.13520042158694E-17));
#366=CARTESIAN_POINT('',(1.98702152411217,9.52499999999999,-1.13600379904452E-16));
#367=CARTESIAN_POINT('',(1.9360002575933,9.52090052025638,-1.33401642452252E-16));
#368=CARTESIAN_POINT('',(1.8513432793739,9.50127425916026,-1.57207406791485E-16));
#369=CARTESIAN_POINT('',(1.74935777335691,9.44176401762842,-1.60576526730571E-16));
#370=CARTESIAN_POINT('',(1.6730420288442,9.35166174560226,-1.30940421873378E-16));
#371=CARTESIAN_POINT('',(1.6390134047596,9.27169896157912,-8.96501311136366E-17));
#372=CARTESIAN_POINT('',(1.62611645537152,9.22216468992969,-6.04325643715132E-17));
#373=CARTESIAN_POINT('',(1.31377559033273,7.45079162051156,-2.68048492904902E-17));
#374=CARTESIAN_POINT('',(1.00586460027058,5.70454162051158,-1.78698995269934E-17));
#375=CARTESIAN_POINT('',(0.697953610208423,3.95829162051159,-1.78698995269933E-17));
#376=CARTESIAN_POINT('',(0.390042620146268,2.2120416205116,-2.68048492904899E-17));
#377=CARTESIAN_POINT('',(0.0794919703750407,0.450821366393579,-3.87601107282254E-17));
#378=CARTESIAN_POINT('',(0.0756461359542984,0.420628096076032,-2.69469162809753E-17));
#379=CARTESIAN_POINT('',(0.0738542438564291,0.370523944308442,-7.70360714570875E-18));
#380=CARTESIAN_POINT('',(0.0824723573187462,0.302847318265562,1.74227811001065E-17));
#381=CARTESIAN_POINT('',(0.11329288055946,0.216591835422917,4.78908853696056E-17));
#382=CARTESIAN_POINT('',(0.164794067938353,0.138278641627321,7.37086086994458E-17));
#383=CARTESIAN_POINT('',(0.232974421015359,0.0739609296173525,9.28820048419103E-17));
#384=CARTESIAN_POINT('',(0.312567561563296,0.0286305319686253,1.03921006179134E-16));
#385=CARTESIAN_POINT('',(0.377719507889777,0.00839142423159078,1.06526526804359E-16));
#386=CARTESIAN_POINT('',(0.427373623806408,0.0014555988141467,1.05275758722734E-16));
#387=CARTESIAN_POINT('',(0.457776012642693,4.88498130835069E-14,1.03445800687137E-16));
#388=CARTESIAN_POINT('',(2.24616592806631,4.61852778244065E-14,6.13520042158694E-17));
#389=CARTESIAN_POINT('',(4.01935464907178,4.35207425653061E-14,3.06760021079347E-17));
#390=CARTESIAN_POINT('',(5.79254337007725,4.17443857259059E-14,1.02253340359782E-17));
#391=CARTESIAN_POINT('',(7.56573209108272,3.90798504668055E-14,0.0));
#392=CARTESIAN_POINT('',(9.36443144534763,3.73034936274053E-14,2.08020659946938E-16));
#393=CARTESIAN_POINT('',(0.0,0.0,0.0));
#394=CARTESIAN_POINT('',(5.67572648472992,4.7625,0.0));
#395=CARTESIAN_POINT('',(5.67572648472992,4.7625,-3.175));
#396=CARTESIAN_POINT('',(4.21641182058827,3.53798960354714,-3.175));
#397=CARTESIAN_POINT('',(5.6757264847299,9.52499999999999,-3.175));
#398=CARTESIAN_POINT('',(2.01253215737161,9.52499999999998,-3.175));
#399=CARTESIAN_POINT('',(10.878475762399,9.52499999999999,-3.175));
#400=CARTESIAN_POINT('',(10.878475762399,9.12812499999999,-3.175));
#401=CARTESIAN_POINT('',(11.2693213393757,9.05920837948843,-3.175));
#402=CARTESIAN_POINT('',(10.3658734084505,3.93550055386127,-3.175));
#403=CARTESIAN_POINT('',(9.72976638906491,0.327958379488474,-3.175));
#404=CARTESIAN_POINT('',(9.33892081208819,0.396875000000036,-3.175));
#405=CARTESIAN_POINT('',(9.33892081208819,3.55618312575245E-14,-3.175));
#406=CARTESIAN_POINT('',(5.6757264847299,4.16333634234434E-14,-3.175));
#407=CARTESIAN_POINT('',(0.472977207060835,4.9439619065339E-14,-3.175));
#408=CARTESIAN_POINT('',(0.472977207060835,0.396875000000049,-3.175));
#409=CARTESIAN_POINT('',(0.0821316300841134,0.465791620511612,-3.175));
#410=CARTESIAN_POINT('',(0.985579561009284,5.58949944613876,-3.175));
#411=CARTESIAN_POINT('',(1.62168658039489,9.19704162051155,-3.175));
#412=CARTESIAN_POINT('',(2.01253215737161,9.12812499999998,-3.175));
#413=CARTESIAN_POINT('',(5.62950517219276,4.23418798019793,-3.175));
#414=CARTESIAN_POINT('',(5.67572648472992,9.52499999999999,-5.38749756651153E-15));
#415=CARTESIAN_POINT('',(10.878475762399,9.525,-4.67084139020118E-15));
#416=CARTESIAN_POINT('',(2.01253215737161,9.52499999999998,-5.89208671728885E-15));
#417=CARTESIAN_POINT('',(10.878475762399,9.525,-4.77048955893622E-15));
#418=CARTESIAN_POINT('',(2.01253215737161,9.52499999999998,-6.07153216591882E-15));
#419=CARTESIAN_POINT('',(5.6757264847299,9.52499999999999,-5.38749756651153E-15));
#420=CARTESIAN_POINT('',(0.0821316300841134,0.465791620511613,-1.73472347597681E-15));
#421=CARTESIAN_POINT('',(0.0821316300841134,0.465791620511613,-1.48984958390691E-15));
#422=CARTESIAN_POINT('',(0.98557956100928,5.58949944613875,-4.00561136949636E-15));
#423=CARTESIAN_POINT('',(1.62168658039489,9.19704162051155,-5.77692953420426E-15));
#424=CARTESIAN_POINT('',(1.62168658039489,9.19704162051155,-6.07153216591883E-15));
#425=CARTESIAN_POINT('',(0.985579561009282,5.58949944613876,-4.00561136949637E-15));
#426=CARTESIAN_POINT('',(9.33892081208819,3.64291929955129E-14,-9.62964972193618E-32));
#427=CARTESIAN_POINT('',(9.33892081208819,3.64291929955129E-14,2.52519215353045E-17));
#428=CARTESIAN_POINT('',(5.67572648472991,4.25007251614318E-14,-4.7933722924202E-16));
#429=CARTESIAN_POINT('',(0.472977207060835,5.11743425413158E-14,-1.19599340555238E-15));
#430=CARTESIAN_POINT('',(0.472977207060835,5.11743425413158E-14,-1.30104260698261E-15));
#431=CARTESIAN_POINT('',(5.6757264847299,4.25007251614318E-14,-4.79337229242024E-16));
#432=CARTESIAN_POINT('',(11.2693213393757,9.05920837948843,-4.33680868994202E-15));
#433=CARTESIAN_POINT('',(11.2693213393757,9.05920837948843,-4.37698521184665E-15));
#434=CARTESIAN_POINT('',(10.3658734084505,3.93550055386126,-1.86122342625718E-15));
#435=CARTESIAN_POINT('',(9.72976638906491,0.327958379488475,-8.99052615492938E-17));
#436=CARTESIAN_POINT('',(9.72976638906491,0.327958379488475,0.0));
#437=CARTESIAN_POINT('',(10.3658734084505,3.93550055386127,-1.86122342625719E-15));
#438=CARTESIAN_POINT('',(5.67572648472992,4.7625,0.0));
#439=CARTESIAN_POINT('',(4.21641182058827,3.53798960354714,0.0));
#440=CARTESIAN_POINT('',(10.878475762399,9.12812499999999,-4.46633470948162E-15));
#441=CARTESIAN_POINT('',(2.01253215737161,9.12812499999998,-5.68758003656929E-15));
#442=CARTESIAN_POINT('',(0.472977207060835,0.396875000000051,-1.40050008627194E-15));
#443=CARTESIAN_POINT('',(9.33892081208819,0.396875000000039,-1.7925475918426E-16));
#444=CARTESIAN_POINT('',(5.67572648472992,4.7625,-2.93341739787676E-15));
#445=CARTESIAN_POINT('',(10.878475762399,9.12812499999999,-4.77048955893622E-15));
#446=CARTESIAN_POINT('',(9.33892081208819,0.396875000000039,-4.33680868994202E-16));
#447=CARTESIAN_POINT('',(0.472977207060835,0.396875000000051,-1.30104260698261E-15));
#448=CARTESIAN_POINT('',(2.01253215737161,9.12812499999998,-5.63785129692462E-15));
#449=CARTESIAN_POINT('',(5.67572648472992,4.7625,-33.3676978394524));
#450=MECHANICAL_DESIGN_GEOMETRIC_PRESENTATION_REPRESENTATION('',(#232,#233,#234,
     #235),#451);
#451=(GEOMETRIC_REPRESENTATION_CONTEXT(3)GLOBAL_UNCERTAINTY_ASSIGNED_CONTEXT((#452))
     GLOBAL_UNIT_ASSIGNED_CONTEXT((#458,#454,#453))REPRESENTATION_CONTEXT('CNMG090304',
     'TOP_LEVEL_ASSEMBLY_PART'));
#452=UNCERTAINTY_MEASURE_WITH_UNIT(LENGTH_MEASURE(2.0E-5),#458,'DISTANCE_ACCURACY_VALUE',
     'Maximum Tolerance applied to model');
#453=(NAMED_UNIT(*)SI_UNIT($,.STERADIAN.)SOLID_ANGLE_UNIT());
#454=(CONVERSION_BASED_UNIT('DEGREE',#456)NAMED_UNIT(#455)PLANE_ANGLE_UNIT());
#455=DIMENSIONAL_EXPONENTS(0.0,0.0,0.0,0.0,0.0,0.0,0.0);
#456=PLANE_ANGLE_MEASURE_WITH_UNIT(PLANE_ANGLE_MEASURE(0.0174532925),#457);
#457=(NAMED_UNIT(*)PLANE_ANGLE_UNIT()SI_UNIT($,.RADIAN.));
#458=(LENGTH_UNIT()NAMED_UNIT(*)SI_UNIT(.MILLI.,.METRE.));
#459=CONSTRUCTIVE_GEOMETRY_REPRESENTATION('supplemental geometry',(#249,#250),#451);
#460=CONSTRUCTIVE_GEOMETRY_REPRESENTATION_RELATIONSHIP('supplemental geometry','contains PCS and MCS coordinate systems',
     #24,#459);
ENDSEC;
END-ISO-10303-21;
