ISO-10303-21;
HEADER;
FILE_DESCRIPTION(
/* description */ (''),
/* implementation_level */ '2;1');
FILE_NAME(
/* name */ 'CNGN160712.stp',
/* time_stamp */ '2017-03-21T10:53:57',
/* author */ ('Sandvik Coromant R&D'),
/* organization */ ('Sandvik Machining Solutions'),
/* preprocessor_version */ 'ST-DEVELOPER v15',
/* originating_system */ 'SIEMENS PLM Software NX v8.5.3.3(64 bits)',
/* authorization */ '');
FILE_SCHEMA(('AUTOMOTIVE_DESIGN'));
ENDSEC;
DATA;
#10=GEOMETRICALLY_BOUNDED_WIREFRAME_SHAPE_REPRESENTATION('IsoTurningInsert-None',
     (#25),#425);
#11=SHAPE_REPRESENTATION_RELATIONSHIP('None','relationship between IsoTurningInsert-None and IsoTurningInsert-None',
     #24,#13);
#12=SHAPE_REPRESENTATION_RELATIONSHIP('None','relationship between IsoTurningInsert-None and IsoTurningInsert-None',
     #24,#10);
#13=ADVANCED_BREP_SHAPE_REPRESENTATION('IsoTurningInsert-None',(#31),#425);
#14=SHAPE_DEFINITION_REPRESENTATION(#15,#24);
#15=PRODUCT_DEFINITION_SHAPE('','',#16);
#16=PRODUCT_DEFINITION(' ','',#18,#17);
#17=PRODUCT_DEFINITION_CONTEXT('part definition',#23,'design');
#18=PRODUCT_DEFINITION_FORMATION_WITH_SPECIFIED_SOURCE(' ',' ',#20,.NOT_KNOWN.);
#19=PRODUCT_RELATED_PRODUCT_CATEGORY('part','',(#20));
#20=PRODUCT('IsoTurningInsert','IsoTurningInsert',' ',(#21));
#21=PRODUCT_CONTEXT(' ',#23,'mechanical');
#22=APPLICATION_PROTOCOL_DEFINITION('international standard','automotive_design',
     2010,#23);
#23=APPLICATION_CONTEXT('core data for automotive mechanical design processes');
#24=SHAPE_REPRESENTATION('IsoTurningInsert-None',(#228),#425);
#25=GEOMETRIC_CURVE_SET('geometric curve set',(#208));
#26=SURFACE_STYLE_USAGE(.BOTH.,#27);
#27=SURFACE_SIDE_STYLE('',(#28));
#28=SURFACE_STYLE_FILL_AREA(#29);
#29=FILL_AREA_STYLE('',(#30));
#30=FILL_AREA_STYLE_COLOUR('',#227);
#31=MANIFOLD_SOLID_BREP('CUT',#32);
#32=CLOSED_SHELL('',(#37,#38,#39,#40,#41,#42,#43,#44,#45,#46));
#33=CYLINDRICAL_SURFACE('',#245,1.190625);
#34=CYLINDRICAL_SURFACE('',#246,1.190625);
#35=CYLINDRICAL_SURFACE('',#247,1.190625);
#36=CYLINDRICAL_SURFACE('',#248,1.190625);
#37=ADVANCED_FACE('',(#53),#47,.F.);
#38=ADVANCED_FACE('',(#54),#48,.T.);
#39=ADVANCED_FACE('',(#55),#49,.T.);
#40=ADVANCED_FACE('',(#56),#50,.T.);
#41=ADVANCED_FACE('',(#57),#51,.T.);
#42=ADVANCED_FACE('',(#58),#52,.T.);
#43=ADVANCED_FACE('',(#59),#33,.T.);
#44=ADVANCED_FACE('',(#60),#34,.T.);
#45=ADVANCED_FACE('',(#61),#35,.T.);
#46=ADVANCED_FACE('',(#62),#36,.T.);
#47=PLANE('',#235);
#48=PLANE('',#236);
#49=PLANE('',#237);
#50=PLANE('',#238);
#51=PLANE('',#239);
#52=PLANE('',#244);
#53=FACE_OUTER_BOUND('',#63,.T.);
#54=FACE_OUTER_BOUND('',#64,.T.);
#55=FACE_OUTER_BOUND('',#65,.T.);
#56=FACE_OUTER_BOUND('',#66,.T.);
#57=FACE_OUTER_BOUND('',#67,.T.);
#58=FACE_OUTER_BOUND('',#68,.T.);
#59=FACE_OUTER_BOUND('',#69,.T.);
#60=FACE_OUTER_BOUND('',#70,.T.);
#61=FACE_OUTER_BOUND('',#71,.T.);
#62=FACE_OUTER_BOUND('',#72,.T.);
#63=EDGE_LOOP('',(#81,#82,#83,#84,#85,#86,#87,#88));
#64=EDGE_LOOP('',(#89,#90,#91,#92));
#65=EDGE_LOOP('',(#93,#94,#95,#96));
#66=EDGE_LOOP('',(#97,#98,#99,#100));
#67=EDGE_LOOP('',(#101,#102,#103,#104));
#68=EDGE_LOOP('',(#105,#106,#107,#108,#109,#110,#111,#112));
#69=EDGE_LOOP('',(#113,#114,#115,#116));
#70=EDGE_LOOP('',(#117,#118,#119,#120));
#71=EDGE_LOOP('',(#121,#122,#123,#124));
#72=EDGE_LOOP('',(#125,#126,#127,#128));
#73=CIRCLE('',#231,1.190625);
#74=CIRCLE('',#232,1.190625);
#75=CIRCLE('',#233,1.190625);
#76=CIRCLE('',#234,1.190625);
#77=CIRCLE('',#240,1.190625);
#78=CIRCLE('',#241,1.190625);
#79=CIRCLE('',#242,1.190625);
#80=CIRCLE('',#243,1.190625);
#81=ORIENTED_EDGE('',*,*,#145,.T.);
#82=ORIENTED_EDGE('',*,*,#146,.T.);
#83=ORIENTED_EDGE('',*,*,#147,.T.);
#84=ORIENTED_EDGE('',*,*,#148,.T.);
#85=ORIENTED_EDGE('',*,*,#149,.T.);
#86=ORIENTED_EDGE('',*,*,#150,.T.);
#87=ORIENTED_EDGE('',*,*,#151,.T.);
#88=ORIENTED_EDGE('',*,*,#152,.T.);
#89=ORIENTED_EDGE('',*,*,#153,.F.);
#90=ORIENTED_EDGE('',*,*,#154,.T.);
#91=ORIENTED_EDGE('',*,*,#145,.F.);
#92=ORIENTED_EDGE('',*,*,#155,.T.);
#93=ORIENTED_EDGE('',*,*,#151,.F.);
#94=ORIENTED_EDGE('',*,*,#156,.T.);
#95=ORIENTED_EDGE('',*,*,#157,.F.);
#96=ORIENTED_EDGE('',*,*,#158,.T.);
#97=ORIENTED_EDGE('',*,*,#149,.F.);
#98=ORIENTED_EDGE('',*,*,#159,.T.);
#99=ORIENTED_EDGE('',*,*,#160,.F.);
#100=ORIENTED_EDGE('',*,*,#161,.T.);
#101=ORIENTED_EDGE('',*,*,#147,.F.);
#102=ORIENTED_EDGE('',*,*,#162,.T.);
#103=ORIENTED_EDGE('',*,*,#163,.F.);
#104=ORIENTED_EDGE('',*,*,#164,.T.);
#105=ORIENTED_EDGE('',*,*,#163,.T.);
#106=ORIENTED_EDGE('',*,*,#165,.T.);
#107=ORIENTED_EDGE('',*,*,#153,.T.);
#108=ORIENTED_EDGE('',*,*,#166,.T.);
#109=ORIENTED_EDGE('',*,*,#157,.T.);
#110=ORIENTED_EDGE('',*,*,#167,.T.);
#111=ORIENTED_EDGE('',*,*,#160,.T.);
#112=ORIENTED_EDGE('',*,*,#168,.T.);
#113=ORIENTED_EDGE('',*,*,#146,.F.);
#114=ORIENTED_EDGE('',*,*,#154,.F.);
#115=ORIENTED_EDGE('',*,*,#165,.F.);
#116=ORIENTED_EDGE('',*,*,#162,.F.);
#117=ORIENTED_EDGE('',*,*,#148,.F.);
#118=ORIENTED_EDGE('',*,*,#164,.F.);
#119=ORIENTED_EDGE('',*,*,#168,.F.);
#120=ORIENTED_EDGE('',*,*,#159,.F.);
#121=ORIENTED_EDGE('',*,*,#150,.F.);
#122=ORIENTED_EDGE('',*,*,#161,.F.);
#123=ORIENTED_EDGE('',*,*,#167,.F.);
#124=ORIENTED_EDGE('',*,*,#156,.F.);
#125=ORIENTED_EDGE('',*,*,#152,.F.);
#126=ORIENTED_EDGE('',*,*,#158,.F.);
#127=ORIENTED_EDGE('',*,*,#166,.F.);
#128=ORIENTED_EDGE('',*,*,#155,.F.);
#129=VERTEX_POINT('',#375);
#130=VERTEX_POINT('',#376);
#131=VERTEX_POINT('',#378);
#132=VERTEX_POINT('',#380);
#133=VERTEX_POINT('',#382);
#134=VERTEX_POINT('',#384);
#135=VERTEX_POINT('',#386);
#136=VERTEX_POINT('',#388);
#137=VERTEX_POINT('',#392);
#138=VERTEX_POINT('',#393);
#139=VERTEX_POINT('',#398);
#140=VERTEX_POINT('',#400);
#141=VERTEX_POINT('',#404);
#142=VERTEX_POINT('',#406);
#143=VERTEX_POINT('',#410);
#144=VERTEX_POINT('',#412);
#145=EDGE_CURVE('',#129,#130,#169,.T.);
#146=EDGE_CURVE('',#130,#131,#73,.T.);
#147=EDGE_CURVE('',#131,#132,#170,.T.);
#148=EDGE_CURVE('',#132,#133,#74,.T.);
#149=EDGE_CURVE('',#133,#134,#171,.T.);
#150=EDGE_CURVE('',#134,#135,#75,.T.);
#151=EDGE_CURVE('',#135,#136,#172,.T.);
#152=EDGE_CURVE('',#136,#129,#76,.T.);
#153=EDGE_CURVE('',#137,#138,#173,.T.);
#154=EDGE_CURVE('',#137,#130,#174,.T.);
#155=EDGE_CURVE('',#129,#138,#175,.T.);
#156=EDGE_CURVE('',#135,#139,#176,.T.);
#157=EDGE_CURVE('',#140,#139,#177,.T.);
#158=EDGE_CURVE('',#140,#136,#178,.T.);
#159=EDGE_CURVE('',#133,#141,#179,.T.);
#160=EDGE_CURVE('',#142,#141,#180,.T.);
#161=EDGE_CURVE('',#142,#134,#181,.T.);
#162=EDGE_CURVE('',#131,#143,#182,.T.);
#163=EDGE_CURVE('',#144,#143,#183,.T.);
#164=EDGE_CURVE('',#144,#132,#184,.T.);
#165=EDGE_CURVE('',#143,#137,#77,.T.);
#166=EDGE_CURVE('',#138,#140,#78,.T.);
#167=EDGE_CURVE('',#139,#142,#79,.T.);
#168=EDGE_CURVE('',#141,#144,#80,.T.);
#169=LINE('',#374,#185);
#170=LINE('',#379,#186);
#171=LINE('',#383,#187);
#172=LINE('',#387,#188);
#173=LINE('',#391,#189);
#174=LINE('',#394,#190);
#175=LINE('',#395,#191);
#176=LINE('',#397,#192);
#177=LINE('',#399,#193);
#178=LINE('',#401,#194);
#179=LINE('',#403,#195);
#180=LINE('',#405,#196);
#181=LINE('',#407,#197);
#182=LINE('',#409,#198);
#183=LINE('',#411,#199);
#184=LINE('',#413,#200);
#185=VECTOR('',#255,1.0);
#186=VECTOR('',#258,1.0);
#187=VECTOR('',#261,1.0);
#188=VECTOR('',#264,1.0);
#189=VECTOR('',#269,1.0);
#190=VECTOR('',#270,1.0);
#191=VECTOR('',#271,1.0);
#192=VECTOR('',#274,1.0);
#193=VECTOR('',#275,1.0);
#194=VECTOR('',#276,1.0);
#195=VECTOR('',#279,1.0);
#196=VECTOR('',#280,1.0);
#197=VECTOR('',#281,1.0);
#198=VECTOR('',#284,1.0);
#199=VECTOR('',#285,1.0);
#200=VECTOR('',#286,1.0);
#201=CURVE_STYLE('',#205,POSITIVE_LENGTH_MEASURE(0.18),#204);
#202=CURVE_STYLE('',#206,POSITIVE_LENGTH_MEASURE(0.18),#226);
#203=CURVE_STYLE('',#207,POSITIVE_LENGTH_MEASURE(0.18),#226);
#204=DRAUGHTING_PRE_DEFINED_COLOUR('blue');
#205=DRAUGHTING_PRE_DEFINED_CURVE_FONT('continuous');
#206=DRAUGHTING_PRE_DEFINED_CURVE_FONT('continuous');
#207=DRAUGHTING_PRE_DEFINED_CURVE_FONT('continuous');
#208=B_SPLINE_CURVE_WITH_KNOTS('CUTTING EDGE LINE',5,(#310,#311,#312,#313,#314,#315,
     #316,#317,#318,#319,#320,#321,#322,#323,#324,#325,#326,#327,#328,#329,#330,
     #331,#332,#333,#334,#335,#336,#337,#338,#339,#340,#341,#342,#343,#344,#345,
     #346,#347,#348,#349,#350,#351,#352,#353,#354,#355,#356,#357,#358,#359,#360,
     #361,#362,#363,#364,#365,#366,#367,#368,#369,#370,#371),.UNSPECIFIED.,.T.,.F.,
     (2,4,1,1,1,1,1,1,1,4,4,1,1,1,1,1,1,1,4,4,1,1,1,1,1,1,1,4,4,1,1,1,1,1,1,1,4,
     4,1,1),(-0.2199747577,0.0,0.00333613803749999,0.00667227607499998,0.0100084141125,
     0.01334455215,0.0166806901875,0.0200168282250001,0.0233529662625001,0.0266891043,
     0.2466638619,0.25083403445,0.255004207,0.25917437955,0.2633445521,0.26751472465,
     0.2716848972,0.27585506975,0.2800252423,0.5,0.5033361380375,0.506672276075,
     0.5100084141125,0.51334455215,0.5166806901875,0.520016828225,0.5233529662625,
     0.5266891043,0.7466638619,0.75083403445,0.755004207,0.75917437955,0.7633445521,
     0.76751472465,0.7716848972,0.77585506975,0.7800252423,1.0,1.0033361380375,1.006672276075),
     .UNSPECIFIED.);
#209=PRESENTATION_LAYER_ASSIGNMENT('1','Layer 1',(#208,#229,#230,#31));
#212=STYLED_ITEM('',(#218),#208);
#213=STYLED_ITEM('',(#219),#229);
#214=STYLED_ITEM('',(#220),#230);
#215=STYLED_ITEM('',(#221),#31);
#216=PRESENTATION_STYLE_ASSIGNMENT((#222));
#217=PRESENTATION_STYLE_ASSIGNMENT((#223));
#218=PRESENTATION_STYLE_ASSIGNMENT((#201));
#219=PRESENTATION_STYLE_ASSIGNMENT((#202));
#220=PRESENTATION_STYLE_ASSIGNMENT((#203));
#221=PRESENTATION_STYLE_ASSIGNMENT((#26));
#222=POINT_STYLE('',#224,POSITIVE_LENGTH_MEASURE(3.0),#226);
#223=POINT_STYLE('',#225,POSITIVE_LENGTH_MEASURE(3.0),#226);
#224=PRE_DEFINED_POINT_MARKER_SYMBOL('plus');
#225=PRE_DEFINED_POINT_MARKER_SYMBOL('plus');
#226=COLOUR_RGB('Medium Maroon',0.6,0.4,0.4);
#227=COLOUR_RGB('IsoInsertColor',0.8,0.8,0.8);
#228=AXIS2_PLACEMENT_3D('',#307,#249,#250);
#229=AXIS2_PLACEMENT_3D('PCS',#372,#251,#252);
#230=AXIS2_PLACEMENT_3D('MCS',#373,#253,#254);
#231=AXIS2_PLACEMENT_3D('',#377,#256,#257);
#232=AXIS2_PLACEMENT_3D('',#381,#259,#260);
#233=AXIS2_PLACEMENT_3D('',#385,#262,#263);
#234=AXIS2_PLACEMENT_3D('',#389,#265,#266);
#235=AXIS2_PLACEMENT_3D('',#390,#267,#268);
#236=AXIS2_PLACEMENT_3D('',#396,#272,#273);
#237=AXIS2_PLACEMENT_3D('',#402,#277,#278);
#238=AXIS2_PLACEMENT_3D('',#408,#282,#283);
#239=AXIS2_PLACEMENT_3D('',#414,#287,#288);
#240=AXIS2_PLACEMENT_3D('',#415,#289,#290);
#241=AXIS2_PLACEMENT_3D('',#416,#291,#292);
#242=AXIS2_PLACEMENT_3D('',#417,#293,#294);
#243=AXIS2_PLACEMENT_3D('',#418,#295,#296);
#244=AXIS2_PLACEMENT_3D('',#419,#297,#298);
#245=AXIS2_PLACEMENT_3D('',#420,#299,#300);
#246=AXIS2_PLACEMENT_3D('',#421,#301,#302);
#247=AXIS2_PLACEMENT_3D('',#422,#303,#304);
#248=AXIS2_PLACEMENT_3D('',#423,#305,#306);
#249=DIRECTION('',(0.0,0.0,1.0));
#250=DIRECTION('',(1.0,0.0,0.0));
#251=DIRECTION('',(0.0,0.0,1.0));
#252=DIRECTION('',(1.0,0.0,0.0));
#253=DIRECTION('',(0.0,0.0,1.0));
#254=DIRECTION('',(1.0,0.0,0.0));
#255=DIRECTION('',(1.0,1.22124532708767E-15,0.0));
#256=DIRECTION('',(0.0,0.0,-1.0));
#257=DIRECTION('',(-0.766044443118979,-0.642787609686539,0.0));
#258=DIRECTION('',(-0.173648177666929,-0.984807753012208,0.0));
#259=DIRECTION('',(0.0,0.0,-1.0));
#260=DIRECTION('',(-0.766044443118978,-0.642787609686539,0.0));
#261=DIRECTION('',(-1.0,1.16573417585641E-15,0.0));
#262=DIRECTION('',(0.0,0.0,-1.0));
#263=DIRECTION('',(-0.766044443118978,-0.642787609686539,0.0));
#264=DIRECTION('',(0.17364817766693,0.984807753012208,0.0));
#265=DIRECTION('',(0.0,0.0,-1.0));
#266=DIRECTION('',(-0.766044443118978,-0.642787609686539,0.0));
#267=DIRECTION('',(0.0,0.0,1.0));
#268=DIRECTION('',(-0.766044443118978,-0.642787609686539,0.0));
#269=DIRECTION('',(-1.0,-1.22124532708767E-15,-8.26474009869752E-17));
#270=DIRECTION('',(8.26474009869755E-17,-3.09175454316192E-16,-1.0));
#271=DIRECTION('',(-8.26474009869755E-17,3.09175454316192E-16,1.0));
#272=DIRECTION('',(-1.22124532708767E-15,1.0,-3.09175454316192E-16));
#273=DIRECTION('',(-1.0,-1.22124532708767E-15,0.0));
#274=DIRECTION('',(-8.26474009869755E-17,3.09175454316192E-16,1.0));
#275=DIRECTION('',(-0.17364817766693,-0.984807753012208,2.90126813881361E-16));
#276=DIRECTION('',(8.26474009869755E-17,-3.09175454316192E-16,-1.0));
#277=DIRECTION('',(-0.984807753012208,0.173648177666931,-1.35079555479634E-16));
#278=DIRECTION('',(-0.17364817766693,-0.984807753012208,0.0));
#279=DIRECTION('',(-8.26474009869755E-17,3.09175454316192E-16,1.0));
#280=DIRECTION('',(1.0,-1.16573417585641E-15,8.26474009869759E-17));
#281=DIRECTION('',(8.26474009869755E-17,-3.09175454316192E-16,-1.0));
#282=DIRECTION('',(-1.11022302462516E-15,-1.0,3.09175454316192E-16));
#283=DIRECTION('',(1.0,-1.16573417585641E-15,0.0));
#284=DIRECTION('',(-8.26474009869755E-17,3.09175454316192E-16,1.0));
#285=DIRECTION('',(0.173648177666929,0.984807753012208,-2.90126813881361E-16));
#286=DIRECTION('',(8.26474009869755E-17,-3.09175454316192E-16,-1.0));
#287=DIRECTION('',(0.984807753012208,-0.173648177666929,1.35079555479634E-16));
#288=DIRECTION('',(0.173648177666929,0.984807753012208,0.0));
#289=DIRECTION('',(-8.26474009869755E-17,3.09175454316192E-16,1.0));
#290=DIRECTION('',(-0.642787609686539,0.766044443118978,-2.89966864054927E-16));
#291=DIRECTION('',(-8.26474009869755E-17,3.09175454316192E-16,1.0));
#292=DIRECTION('',(-0.64278760968654,0.766044443118978,-2.89966864054927E-16));
#293=DIRECTION('',(-8.26474009869755E-17,3.09175454316192E-16,1.0));
#294=DIRECTION('',(-0.642787609686539,0.766044443118978,-2.89966864054927E-16));
#295=DIRECTION('',(-8.26474009869755E-17,3.09175454316192E-16,1.0));
#296=DIRECTION('',(-0.642787609686539,0.766044443118978,-2.89966864054927E-16));
#297=DIRECTION('',(-8.26474009869755E-17,3.09175454316192E-16,1.0));
#298=DIRECTION('',(-0.642787609686539,0.766044443118978,-2.89966864054927E-16));
#299=DIRECTION('',(-8.26474009869755E-17,3.09175454316192E-16,1.0));
#300=DIRECTION('',(-0.642787609686539,0.766044443118978,-2.89966864054927E-16));
#301=DIRECTION('',(-8.26474009869755E-17,3.09175454316192E-16,1.0));
#302=DIRECTION('',(-0.642787609686539,0.766044443118978,-2.89966864054927E-16));
#303=DIRECTION('',(-8.26474009869755E-17,3.09175454316192E-16,1.0));
#304=DIRECTION('',(-0.642787609686539,0.766044443118978,-2.89966864054927E-16));
#305=DIRECTION('',(-8.26474009869755E-17,3.09175454316192E-16,1.0));
#306=DIRECTION('',(-0.64278760968654,0.766044443118978,-2.89966864054927E-16));
#307=CARTESIAN_POINT('',(0.0,0.0,0.0));
#310=CARTESIAN_POINT('',(12.380461896489,8.43769498715119E-14,-1.97215226305253E-32));
#311=CARTESIAN_POINT('',(15.1591104152048,8.43769498715119E-14,3.71274606599851E-16));
#312=CARTESIAN_POINT('',(15.2356423149831,0.00307460980778718,3.76397879862883E-16));
#313=CARTESIAN_POINT('',(15.3570999567045,0.0174432807981866,3.80819210890673E-16));
#314=CARTESIAN_POINT('',(15.5166085166459,0.0580398070387442,3.78132674889206E-16));
#315=CARTESIAN_POINT('',(15.7132710031293,0.14635534347601,3.59863074998785E-16));
#316=CARTESIAN_POINT('',(15.8924954203055,0.271007202162122,3.25948107597051E-16));
#317=CARTESIAN_POINT('',(16.0463755306032,0.425863229622827,2.78131450099796E-16));
#318=CARTESIAN_POINT('',(16.1674994379912,0.604202139076291,2.18427932846257E-16));
#319=CARTESIAN_POINT('',(16.2351775825344,0.754237892776866,1.65371190142531E-16));
#320=CARTESIAN_POINT('',(16.2704188592749,0.871355226473899,1.22501695942202E-16));
#321=CARTESIAN_POINT('',(16.2867363837809,0.946190534338181,9.45965818700959E-17));
#322=CARTESIAN_POINT('',(16.7692436354328,3.68262513846538,4.82487287228816E-17));
#323=CARTESIAN_POINT('',(17.2451060746198,6.38137513846536,3.21658191485878E-17));
#324=CARTESIAN_POINT('',(17.7209685138067,9.08012513846535,3.21658191485879E-17));
#325=CARTESIAN_POINT('',(18.1968309529937,11.7788751384653,4.82487287228819E-17));
#326=CARTESIAN_POINT('',(18.6806123713079,14.5225359008194,6.97681993108059E-17));
#327=CARTESIAN_POINT('',(18.6921498745701,14.6131157117721,4.85044493057558E-17));
#328=CARTESIAN_POINT('',(18.6975255508637,14.7634281670748,1.38664928622762E-17));
#329=CARTESIAN_POINT('',(18.6716712104767,14.9664580452035,-3.13610059801912E-17));
#330=CARTESIAN_POINT('',(18.5792096407546,15.2252244937314,-8.62035936652895E-17));
#331=CARTESIAN_POINT('',(18.4247060786179,15.4601640751182,-1.32675495659002E-16));
#332=CARTESIAN_POINT('',(18.2201650193869,15.6531172111481,-1.67187608715438E-16));
#333=CARTESIAN_POINT('',(17.9813855977431,15.7891084040943,-1.87057811122441E-16));
#334=CARTESIAN_POINT('',(17.7859297587637,15.8498257273054,-1.91747748247845E-16));
#335=CARTESIAN_POINT('',(17.6369674110138,15.8706332035577,-1.8949636570092E-16));
#336=CARTESIAN_POINT('',(17.5457602445049,15.875,-1.86202441236846E-16));
#337=CARTESIAN_POINT('',(14.7597740924239,15.875,-1.10433607588565E-16));
#338=CARTESIAN_POINT('',(12.0193915235972,15.875,-7.3622405059043E-17));
#339=CARTESIAN_POINT('',(9.27900895477059,15.875,-7.3622405059043E-17));
#340=CARTESIAN_POINT('',(6.53862638594395,15.875,-1.10433607588565E-16));
#341=CARTESIAN_POINT('',(3.75997786722817,15.875,-1.94268348237811E-16));
#342=CARTESIAN_POINT('',(3.68344596744986,15.8719253901923,-2.13391251974524E-16));
#343=CARTESIAN_POINT('',(3.56198832572848,15.8575567192019,-2.39722019077487E-16));
#344=CARTESIAN_POINT('',(3.40247976578712,15.8169601929613,-2.65103051308117E-16));
#345=CARTESIAN_POINT('',(3.20581727930368,15.7286446565241,-2.80195762640594E-16));
#346=CARTESIAN_POINT('',(3.02659286212749,15.6039927978379,-2.75250104284806E-16));
#347=CARTESIAN_POINT('',(2.87271275182983,15.4491367703772,-2.50752385524738E-16));
#348=CARTESIAN_POINT('',(2.75158884444177,15.2707978609238,-2.0757027922667E-16));
#349=CARTESIAN_POINT('',(2.68391069989861,15.1207621072232,-1.62108031449247E-16));
#350=CARTESIAN_POINT('',(2.64866942315812,15.0036447735262,-1.21926520902678E-16));
#351=CARTESIAN_POINT('',(2.63235189865211,14.9288094656619,-9.45965818700961E-17));
#352=CARTESIAN_POINT('',(2.1498446470002,12.1923748615347,-4.82487287228817E-17));
#353=CARTESIAN_POINT('',(1.67398220781324,9.49362486153472,-3.21658191485879E-17));
#354=CARTESIAN_POINT('',(1.19811976862627,6.79487486153474,-3.2165819148588E-17));
#355=CARTESIAN_POINT('',(0.722257329439303,4.09612486153476,-4.82487287228821E-17));
#356=CARTESIAN_POINT('',(0.238475911125125,1.35246409918069,-6.97681993108062E-17));
#357=CARTESIAN_POINT('',(0.226938407862898,1.26188428822805,-4.85044493057562E-17));
#358=CARTESIAN_POINT('',(0.221562731569279,1.11157183292527,-1.38664928622766E-17));
#359=CARTESIAN_POINT('',(0.247417071956239,0.908541954796643,3.13610059801907E-17));
#360=CARTESIAN_POINT('',(0.339878641678375,0.649775506268702,8.62035936652889E-17));
#361=CARTESIAN_POINT('',(0.494382203815052,0.414835924881915,1.32675495659001E-16));
#362=CARTESIAN_POINT('',(0.698923263046076,0.221882788852017,1.67187608715437E-16));
#363=CARTESIAN_POINT('',(0.93770268468988,0.0858915959058271,1.8705781112244E-16));
#364=CARTESIAN_POINT('',(1.13315852366932,0.0251742726947271,1.91747748247845E-16));
#365=CARTESIAN_POINT('',(1.28212087141921,0.00436679644239568,1.8949636570092E-16));
#366=CARTESIAN_POINT('',(1.37332803792807,9.9475983006414E-14,1.86202441236846E-16));
#367=CARTESIAN_POINT('',(4.15931419000913,9.50350909079134E-14,1.10433607588564E-16));
#368=CARTESIAN_POINT('',(6.89969675883577,9.05941988094128E-14,5.52168037942822E-17));
#369=CARTESIAN_POINT('',(9.64007932766241,8.70414851306123E-14,1.84056012647607E-17));
#370=CARTESIAN_POINT('',(12.380461896489,8.43769498715119E-14,-1.97215226305253E-32));
#371=CARTESIAN_POINT('',(15.1591104152048,8.43769498715119E-14,3.71274606599851E-16));
#372=CARTESIAN_POINT('',(0.0,0.0,0.0));
#373=CARTESIAN_POINT('',(9.45954414121654,7.9375,0.0));
#374=CARTESIAN_POINT('',(9.45954414121649,15.875,-7.9375));
#375=CARTESIAN_POINT('',(3.79824381711732,15.875,-7.9375));
#376=CARTESIAN_POINT('',(17.5001566612505,15.875,-7.9375));
#377=CARTESIAN_POINT('',(17.5001566612505,14.684375,-7.9375));
#378=CARTESIAN_POINT('',(18.6726933921806,14.4776251384653,-7.9375));
#379=CARTESIAN_POINT('',(17.2764556807509,6.5591675897688,-7.9375));
#380=CARTESIAN_POINT('',(16.2933811962458,0.983875138465393,-7.9375));
#381=CARTESIAN_POINT('',(15.1208444653157,1.19062500000008,-7.9375));
#382=CARTESIAN_POINT('',(15.1208444653157,8.15320033709099E-14,-7.9375));
#383=CARTESIAN_POINT('',(9.4595441412165,8.67361737988404E-14,-7.9375));
#384=CARTESIAN_POINT('',(1.41893162118249,9.54097911787244E-14,-7.9375));
#385=CARTESIAN_POINT('',(1.41893162118249,1.1906250000001,-7.9375));
#386=CARTESIAN_POINT('',(0.246394890252338,1.39737486153479,-7.9375));
#387=CARTESIAN_POINT('',(1.64263260168215,9.31583241023129,-7.9375));
#388=CARTESIAN_POINT('',(2.62570708618717,14.8911248615347,-7.9375));
#389=CARTESIAN_POINT('',(3.79824381711732,14.684375,-7.9375));
#390=CARTESIAN_POINT('',(9.41332282867938,7.40918798019793,-7.9375));
#391=CARTESIAN_POINT('',(9.45954414121653,15.875,-5.38749756651153E-15));
#392=CARTESIAN_POINT('',(17.5001566612505,15.875,-4.72296183938739E-15));
#393=CARTESIAN_POINT('',(3.79824381711732,15.875,-5.85538932450505E-15));
#394=CARTESIAN_POINT('',(17.5001566612505,15.875,-5.20417042793042E-15));
#395=CARTESIAN_POINT('',(3.79824381711732,15.875,-6.93889390390723E-15));
#396=CARTESIAN_POINT('',(9.4595441412165,15.875,-5.38749756651153E-15));
#397=CARTESIAN_POINT('',(0.246394890252339,1.39737486153479,-1.73472347597681E-15));
#398=CARTESIAN_POINT('',(0.246394890252339,1.39737486153479,-1.67281407740433E-15));
#399=CARTESIAN_POINT('',(1.64263260168214,9.31583241023126,-4.00561136949636E-15));
#400=CARTESIAN_POINT('',(2.62570708618717,14.8911248615347,-5.64810639495277E-15));
#401=CARTESIAN_POINT('',(2.62570708618717,14.8911248615347,-6.93889390390723E-15));
#402=CARTESIAN_POINT('',(1.64263260168215,9.31583241023129,-4.00561136949637E-15));
#403=CARTESIAN_POINT('',(15.1208444653157,8.32667268468867E-14,-9.62964972193618E-32));
#404=CARTESIAN_POINT('',(15.1208444653157,8.32667268468867E-14,-1.14454712484995E-17));
#405=CARTESIAN_POINT('',(9.45954414121653,8.84708972748172E-14,-4.79337229242018E-16));
#406=CARTESIAN_POINT('',(1.4189316211825,9.8879238130678E-14,-1.14387295636617E-15));
#407=CARTESIAN_POINT('',(1.4189316211825,9.8879238130678E-14,-1.73472347597681E-15));
#408=CARTESIAN_POINT('',(9.4595441412165,8.84708972748172E-14,-4.79337229242022E-16));
#409=CARTESIAN_POINT('',(18.6726933921806,14.4776251384653,-5.20417042793042E-15));
#410=CARTESIAN_POINT('',(18.6726933921806,14.4776251384653,-4.19402071834923E-15));
#411=CARTESIAN_POINT('',(17.2764556807508,6.55916758976877,-1.86122342625718E-15));
#412=CARTESIAN_POINT('',(16.2933811962458,0.983875138465395,-2.18728400800776E-16));
#413=CARTESIAN_POINT('',(16.2933811962458,0.983875138465395,0.0));
#414=CARTESIAN_POINT('',(17.2764556807509,6.5591675897688,-1.86122342625719E-15));
#415=CARTESIAN_POINT('',(17.5001566612505,14.684375,-4.35484981409217E-15));
#416=CARTESIAN_POINT('',(3.79824381711732,14.684375,-5.48727729920983E-15));
#417=CARTESIAN_POINT('',(1.41893162118249,1.1906250000001,-1.51198498166139E-15));
#418=CARTESIAN_POINT('',(15.1208444653157,1.19062500000008,-3.79557496543714E-16));
#419=CARTESIAN_POINT('',(9.45954414121654,7.9375,-2.93341739787676E-15));
#420=CARTESIAN_POINT('',(17.5001566612505,14.684375,-5.20417042793042E-15));
#421=CARTESIAN_POINT('',(15.1208444653157,1.19062500000008,-1.73472347597681E-15));
#422=CARTESIAN_POINT('',(1.41893162118249,1.1906250000001,-1.73472347597681E-15));
#423=CARTESIAN_POINT('',(3.79824381711732,14.684375,-5.20417042793042E-15));
#424=MECHANICAL_DESIGN_GEOMETRIC_PRESENTATION_REPRESENTATION('',(#212,#213,#214,
     #215),#425);
#425=(GEOMETRIC_REPRESENTATION_CONTEXT(3)GLOBAL_UNCERTAINTY_ASSIGNED_CONTEXT((#426))
     GLOBAL_UNIT_ASSIGNED_CONTEXT((#432,#428,#427))REPRESENTATION_CONTEXT('CNGN160712',
     'TOP_LEVEL_ASSEMBLY_PART'));
#426=UNCERTAINTY_MEASURE_WITH_UNIT(LENGTH_MEASURE(2.0E-5),#432,'DISTANCE_ACCURACY_VALUE',
     'Maximum Tolerance applied to model');
#427=(NAMED_UNIT(*)SI_UNIT($,.STERADIAN.)SOLID_ANGLE_UNIT());
#428=(CONVERSION_BASED_UNIT('DEGREE',#430)NAMED_UNIT(#429)PLANE_ANGLE_UNIT());
#429=DIMENSIONAL_EXPONENTS(0.0,0.0,0.0,0.0,0.0,0.0,0.0);
#430=PLANE_ANGLE_MEASURE_WITH_UNIT(PLANE_ANGLE_MEASURE(0.0174532925),#431);
#431=(NAMED_UNIT(*)PLANE_ANGLE_UNIT()SI_UNIT($,.RADIAN.));
#432=(LENGTH_UNIT()NAMED_UNIT(*)SI_UNIT(.MILLI.,.METRE.));
#433=CONSTRUCTIVE_GEOMETRY_REPRESENTATION('supplemental geometry',(#229,#230),#425);
#434=CONSTRUCTIVE_GEOMETRY_REPRESENTATION_RELATIONSHIP('supplemental geometry','contains PCS and MCS coordinate systems',
     #24,#433);
ENDSEC;
END-ISO-10303-21;
